  0
SECTION
  2
HEADER
  9
$ACADVER
  1
AC1014
  9
$ACADMAINTVER
 70
     0
  9
$DWGCODEPAGE
  3
ANSI_1252
  9
$INSBASE
 10
-5.0
 20
20.0
 30
0.0
  9
$EXTMIN
 10
-749.999999
 20
24.0
 30
0.0
  9
$EXTMAX
 10
-20.0
 20
560.0
 30
0.0
  9
$LIMMIN
 10
0.0
 20
0.0
  9
$LIMMAX
 10
840.0
 20
600.0
  9
$ORTHOMODE
 70
     0
  9
$REGENMODE
 70
     1
  9
$FILLMODE
 70
     1
  9
$QTEXTMODE
 70
     0
  9
$MIRRTEXT
 70
     1
  9
$DRAGMODE
 70
     2
  9
$LTSCALE
 40
5.0
  9
$OSMODE
 70
   547
  9
$ATTMODE
 70
     1
  9
$TEXTSIZE
 40
3.15
  9
$TRACEWID
 40
0.05
  9
$TEXTSTYLE
  7
STANDARD
  9
$CLAYER
  8
GLAS_MED_FOGNING
  9
$CELTYPE
  6
BYLAYER
  9
$CECOLOR
 62
   256
  9
$CELTSCALE
 40
1.0
  9
$DELOBJ
 70
     1
  9
$DISPSILH
 70
     0
  9
$DIMSCALE
 40
1.0
  9
$DIMASZ
 40
0.0
  9
$DIMEXO
 40
1.0
  9
$DIMDLI
 40
10.0
  9
$DIMRND
 40
0.0
  9
$DIMDLE
 40
0.0
  9
$DIMEXE
 40
2.0
  9
$DIMTP
 40
0.0
  9
$DIMTM
 40
0.0
  9
$DIMTXT
 40
3.5
  9
$DIMCEN
 40
2.5
  9
$DIMTSZ
 40
1.0
  9
$DIMTOL
 70
     0
  9
$DIMLIM
 70
     0
  9
$DIMTIH
 70
     0
  9
$DIMTOH
 70
     0
  9
$DIMSE1
 70
     0
  9
$DIMSE2
 70
     0
  9
$DIMTAD
 70
     1
  9
$DIMZIN
 70
     8
  9
$DIMBLK
  1

  9
$DIMASO
 70
     1
  9
$DIMSHO
 70
     1
  9
$DIMPOST
  1

  9
$DIMAPOST
  1

  9
$DIMALT
 70
     0
  9
$DIMALTD
 70
     2
  9
$DIMALTF
 40
25.4
  9
$DIMLFAC
 40
1.0
  9
$DIMTOFL
 70
     1
  9
$DIMTVP
 40
0.0
  9
$DIMTIX
 70
     0
  9
$DIMSOXD
 70
     0
  9
$DIMSAH
 70
     0
  9
$DIMBLK1
  1

  9
$DIMBLK2
  1

  9
$DIMSTYLE
  2
STANDARD
  9
$DIMCLRD
 70
     0
  9
$DIMCLRE
 70
     0
  9
$DIMCLRT
 70
     6
  9
$DIMTFAC
 40
1.0
  9
$DIMGAP
 40
0.1
  9
$DIMJUST
 70
     0
  9
$DIMSD1
 70
     0
  9
$DIMSD2
 70
     0
  9
$DIMTOLJ
 70
     1
  9
$DIMTZIN
 70
     0
  9
$DIMALTZ
 70
     0
  9
$DIMALTTZ
 70
     0
  9
$DIMFIT
 70
     3
  9
$DIMUPT
 70
     0
  9
$DIMUNIT
 70
     2
  9
$DIMDEC
 70
     4
  9
$DIMTDEC
 70
     4
  9
$DIMALTU
 70
     2
  9
$DIMALTTD
 70
     2
  9
$DIMTXSTY
  7
STANDARD
  9
$DIMAUNIT
 70
     0
  9
$LUNITS
 70
     2
  9
$LUPREC
 70
     2
  9
$SKETCHINC
 40
0.1
  9
$FILLETRAD
 40
0.5
  9
$AUNITS
 70
     0
  9
$AUPREC
 70
     4
  9
$MENU
  1
acad
  9
$ELEVATION
 40
0.0
  9
$PELEVATION
 40
0.0
  9
$THICKNESS
 40
0.0
  9
$LIMCHECK
 70
     0
  9
$BLIPMODE
 70
     0
  9
$CHAMFERA
 40
10.0
  9
$CHAMFERB
 40
10.0
  9
$CHAMFERC
 40
0.0
  9
$CHAMFERD
 40
0.0
  9
$SKPOLY
 70
     0
  9
$TDCREATE
 40
2450609.790026851
  9
$TDUPDATE
 40
2452293.355481018
  9
$TDINDWG
 40
0.0114906250
  9
$TDUSRTIMER
 40
0.0114906250
  9
$USRTIMER
 70
     1
  9
$ANGBASE
 50
0.0
  9
$ANGDIR
 70
     0
  9
$PDMODE
 70
    35
  9
$PDSIZE
 40
0.0
  9
$PLINEWID
 40
0.0
  9
$COORDS
 70
     1
  9
$SPLFRAME
 70
     0
  9
$SPLINETYPE
 70
     6
  9
$SPLINESEGS
 70
     8
  9
$ATTDIA
 70
     0
  9
$ATTREQ
 70
     1
  9
$HANDLING
 70
     1
  9
$HANDSEED
  5
20E
  9
$SURFTAB1
 70
     6
  9
$SURFTAB2
 70
     6
  9
$SURFTYPE
 70
     6
  9
$SURFU
 70
     6
  9
$SURFV
 70
     6
  9
$UCSNAME
  2

  9
$UCSORG
 10
0.0
 20
0.0
 30
0.0
  9
$UCSXDIR
 10
1.0
 20
0.0
 30
0.0
  9
$UCSYDIR
 10
0.0
 20
1.0
 30
0.0
  9
$PUCSNAME
  2

  9
$PUCSORG
 10
0.0
 20
0.0
 30
0.0
  9
$PUCSXDIR
 10
1.0
 20
0.0
 30
0.0
  9
$PUCSYDIR
 10
0.0
 20
1.0
 30
0.0
  9
$USERI1
 70
     0
  9
$USERI2
 70
     0
  9
$USERI3
 70
     0
  9
$USERI4
 70
     0
  9
$USERI5
 70
     0
  9
$USERR1
 40
0.0
  9
$USERR2
 40
0.0
  9
$USERR3
 40
0.0
  9
$USERR4
 40
0.0
  9
$USERR5
 40
0.0
  9
$WORLDVIEW
 70
     1
  9
$SHADEDGE
 70
     3
  9
$SHADEDIF
 70
    70
  9
$TILEMODE
 70
     1
  9
$MAXACTVP
 70
    16
  9
$PINSBASE
 10
0.0
 20
0.0
 30
0.0
  9
$PLIMCHECK
 70
     0
  9
$PEXTMIN
 10
1.000000E+20
 20
1.000000E+20
 30
1.000000E+20
  9
$PEXTMAX
 10
-1.000000E+20
 20
-1.000000E+20
 30
-1.000000E+20
  9
$PLIMMIN
 10
0.0
 20
0.0
  9
$PLIMMAX
 10
420.0
 20
297.0
  9
$UNITMODE
 70
     0
  9
$VISRETAIN
 70
     0
  9
$PLINEGEN
 70
     0
  9
$PSLTSCALE
 70
     1
  9
$TREEDEPTH
 70
  3020
  9
$PICKSTYLE
 70
     1
  9
$CMLSTYLE
  2
STANDARD
  9
$CMLJUST
 70
     0
  9
$CMLSCALE
 40
1.0
  9
$PROXYGRAPHICS
 70
     1
  9
$MEASUREMENT
 70
     0
  0
ENDSEC
  0
SECTION
  2
CLASSES
  0
CLASS
  1
LWPOLYLINE
  2
AcDbPolyline
  3
"AutoCAD"
 90
        0
280
     0
281
     1
  0
CLASS
  1
HATCH
  2
AcDbHatch
  3
"ACAD_SEDONA"
 90
        0
280
     0
281
     1
  0
CLASS
  1
ACDBDICTIONARYWDFLT
  2
AcDbDictionaryWithDefault
  3
AutoCAD 2000
 90
        0
280
     0
281
     0
  0
CLASS
  1
ACDBPLACEHOLDER
  2
AcDbPlaceHolder
  3
AutoCAD 2000
 90
        0
280
     0
281
     0
  0
CLASS
  1
LAYOUT
  2
AcDbLayout
  3
AutoCAD 2000
 90
        0
280
     0
281
     0
  0
CLASS
  1
LONG_TRANSACTION
  2
AcDbLongTransaction
  3
AutoCAD 2000
 90
        0
280
     0
281
     0
  0
CLASS
  1
LWPOLYLINE
  2
AcDbPolyline
  3
"AutoCAD"
 90
        0
280
     0
281
     1
  0
CLASS
  1
HATCH
  2
AcDbHatch
  3
"ACAD_SEDONA"
 90
        0
280
     0
281
     1
  0
CLASS
  1
XRECORD
  2
AcDbXrecord
  3
"<Built In>"
 90
        0
280
     0
281
     0
  0
ENDSEC
  0
SECTION
  2
TABLES
  0
TABLE
  2
VPORT
  5
12
100
AcDbSymbolTable
 70
     1
  0
VPORT
  5
1DE
102
{ACAD_XDICTIONARY
360
1DF
102
}
100
AcDbSymbolTableRecord
100
AcDbViewportTableRecord
  2
*ACTIVE
 70
     0
 10
0.0
 20
0.0
 11
1.0
 21
1.0
 12
-308.744565
 22
280.0
 13
0.0
 23
0.0
 14
5.0
 24
5.0
 15
10.0
 25
10.0
 16
0.0
 26
0.0
 36
1.0
 17
0.0
 27
0.0
 37
0.0
 40
600.0
 41
1.630435
 42
50.0
 43
0.0
 44
0.0
 50
0.0
 51
0.0
 71
     0
 72
   100
 73
     1
 74
     1
 75
     1
 76
     0
 77
     0
 78
     0
  0
ENDTAB
  0
TABLE
  2
LTYPE
  5
D
100
AcDbSymbolTable
 70
     2
  0
LTYPE
  5
E
100
AcDbSymbolTableRecord
100
AcDbLinetypeTableRecord
  2
BYBLOCK
 70
     0
  3

 72
    65
 73
     0
 40
0.0
  0
LTYPE
  5
F
100
AcDbSymbolTableRecord
100
AcDbLinetypeTableRecord
  2
BYLAYER
 70
     0
  3

 72
    65
 73
     0
 40
0.0
  0
LTYPE
  5
5
100
AcDbSymbolTableRecord
100
AcDbLinetypeTableRecord
  2
CONTINUOUS
 70
     0
  3
Solid line
 72
    65
 73
     0
 40
0.0
  0
LTYPE
  5
25
100
AcDbSymbolTableRecord
100
AcDbLinetypeTableRecord
  2
DASHDOT
 70
     0
  3
__ . __ . __ . __ . __ . __ . __ . __ . __ . __
 72
    65
 73
     4
 40
1.0
 49
0.5
 74
     0
 49
-0.25
 74
     0
 49
0.0
 74
     0
 49
-0.25
 74
     0
  0
ENDTAB
  0
TABLE
  2
LAYER
  5
A
100
AcDbSymbolTable
 70
     6
  0
LAYER
  5
4
100
AcDbSymbolTableRecord
100
AcDbLayerTableRecord
  2
0
 70
     0
 62
     7
  6
CONTINUOUS
  0
LAYER
  5
35
100
AcDbSymbolTableRecord
100
AcDbLayerTableRecord
  2
STALPROFIL
 70
     0
 62
     1
  6
CONTINUOUS
  0
LAYER
  5
37
100
AcDbSymbolTableRecord
100
AcDbLayerTableRecord
  2
SPKONTUR
 70
     0
 62
     7
  6
CONTINUOUS
  0
LAYER
  5
1B
100
AcDbSymbolTableRecord
100
AcDbLayerTableRecord
  2
GLAS_MED_FOGNING
 70
     0
 62
     2
  6
CONTINUOUS
  0
LAYER
  5
15A
100
AcDbSymbolTableRecord
100
AcDbLayerTableRecord
  2
TEXT
 70
     0
 62
     6
  6
CONTINUOUS
  0
LAYER
  5
23
100
AcDbSymbolTableRecord
100
AcDbLayerTableRecord
  2
RAM
 70
     0
 62
     5
  6
CONTINUOUS
  0
ENDTAB
  0
TABLE
  2
STYLE
  5
B
100
AcDbSymbolTable
 70
     2
  0
STYLE
  5
C
100
AcDbSymbolTableRecord
100
AcDbTextStyleTableRecord
  2
STANDARD
 70
     0
 40
0.0
 41
1.0
 50
0.0
 71
     0
 42
5.0
  3
txt
  4

  0
STYLE
  5
47
100
AcDbSymbolTableRecord
100
AcDbTextStyleTableRecord
  2
ROMANS
 70
     0
 40
0.0
 41
0.8
 50
0.0
 71
     0
 42
5.0
  3
romans
  4

  0
ENDTAB
  0
TABLE
  2
VIEW
  5
10
100
AcDbSymbolTable
 70
     0
  0
ENDTAB
  0
TABLE
  2
UCS
  5
11
100
AcDbSymbolTable
 70
     0
  0
ENDTAB
  0
TABLE
  2
APPID
  5
14
100
AcDbSymbolTable
 70
     2
  0
APPID
  5
15
100
AcDbSymbolTableRecord
100
AcDbRegAppTableRecord
  2
ACAD
 70
     0
  0
APPID
  5
33
100
AcDbSymbolTableRecord
100
AcDbRegAppTableRecord
  2
CONTENTBLOCKICON
 70
     0
  0
ENDTAB
  0
TABLE
  2
DIMSTYLE
  5
16
100
AcDbSymbolTable
 70
     1
  0
DIMSTYLE
105
1D
100
AcDbSymbolTableRecord
100
AcDbDimStyleTableRecord
  2
STANDARD
 70
     0
  3

  4

  5

  6

  7

 40
1.0
 41
0.18
 42
0.0625
 43
0.38
 44
0.18
 45
0.0
 46
0.0
 47
0.0
 48
0.0
140
0.18
141
0.09
142
0.0
143
25.4
144
1.0
145
0.0
146
1.0
147
0.09
 71
     0
 72
     0
 73
     1
 74
     1
 75
     0
 76
     0
 77
     0
 78
     0
170
     0
171
     2
172
     0
173
     0
174
     0
175
     0
176
     0
177
     0
178
     0
270
     2
271
     4
272
     4
273
     2
274
     2
340
C
275
     0
280
     0
281
     0
282
     0
283
     1
284
     0
285
     0
286
     0
287
     3
288
     0
  0
ENDTAB
  0
TABLE
  2
BLOCK_RECORD
  5
1
100
AcDbSymbolTable
 70
    18
  0
BLOCK_RECORD
  5
2
102
{ACAD_XDICTIONARY
360
201
102
}
100
AcDbSymbolTableRecord
100
AcDbBlockTableRecord
  2
*MODEL_SPACE
  0
BLOCK_RECORD
  5
7
102
{ACAD_XDICTIONARY
360
203
102
}
100
AcDbSymbolTableRecord
100
AcDbBlockTableRecord
  2
*PAPER_SPACE
  0
BLOCK_RECORD
  5
21
100
AcDbSymbolTableRecord
100
AcDbBlockTableRecord
  2
SIDA
1001
CONTENTBLOCKICON
1071
        0
1004
2800000020000000200000000100040000000000000200000000000000000000000000000000000000000000000080000080000000808000800000008000800080800000C0C0C000808080000000FF0000FF000000FFFF00FF000000FF00FF00FFFF0000FFFFFF00FFFFFCCCCCCCCCCCCCCCCCCCCCCFFFFFFFFFFCFFFFFFFF
1004
FFFFFFFFFFFFCFFFFFFFFFFCFFFFFFFFFFFFFFFFFFFFCFFFFFFFFFFCFFFFFFFFFFFFFFFFFFFFCFFFFFFFFFFCFFFFFFFFFFFFFFFFFFFFCFFFFFFFFFFCFFFFFFFFFFFFFFFFFFFFCFFFFFFFFFFCFFFFFFFFFFFFFFFFFFFFCFFFFFFFFFFCFFFFFFDFFFFFFDFFFFFFCFFFFFFFFFFCFFFFFDDDFFFFFDDFFFFFCFFFFFFFFFFCFFFFFF
1004
FFFFFFFFFFFFFFCFFFFFFFFFFCFFFFFFFFFFFFFFFFFFFFCFFFFFFFFFFCFFFFFFFFFFFFFFFFFFFFCFFFFFFFFFFCFFFFFFFFFFFFFFFFFFFFCFFFFFFFFFFCFFFFFFFFFFFFFFFFFFFFCFFFFFFFFFFCFFFFFFFFFFFFFFFFFFFFCFFFFFFFFFFCFFFFFFDFFFFFFDFFFFFFCFFFFFFFFFFCFFFFFDDDFFFFFDDFFFFFCFFFFFFFFFFCFFFF
1004
FFFFFFFFFFFFFFFFCFFFFFFFFFFCFFFFFFFFFFFFFFFFFFFFCFFFFFFFFFFCFFFFFFFFFFFFFFFFFFFFCFFFFFFFFFFCFFFFFFFFFFFFFFFFFFFFCFFFFFFFFFFCFFFFFFFFFFFFFFFFFFFFCFFFFFFFFFFCFFFFFFFFFFFFFFFFFFFFCFFFFFFFFFFCFFFFFDDDFFFFFDDFFFFFCFFFFFFFFFFCFFFFFFDFFFFFFDFFFFFFCFFFFFFFFFFCFF
1004
FFFFFFFFFFFFFFFFFFCFFFFFFFFFFCFFFFFFFFFFFFFFFFFFFFCFFFFFFFFFFCFFFFFFFFFFFFFFFFFFFFCFFFFFFFFFFCFFFFFFFFFFFFFFFFFFFFCFFFFFFFFFFCFFFFFFFFFFFFFFFFFFFFCFFFFFFFFFFCFFFFFFFFFFFFFFFFFFFFCFFFFFFFFFFCCCCCCCCCCCCCCCCCCCCCCFFFFF
  0
BLOCK_RECORD
  5
148
100
AcDbSymbolTableRecord
100
AcDbBlockTableRecord
  2
*X1
  0
BLOCK_RECORD
  5
145
100
AcDbSymbolTableRecord
100
AcDbBlockTableRecord
  2
SP40010
  0
BLOCK_RECORD
  5
138
100
AcDbSymbolTableRecord
100
AcDbBlockTableRecord
  2
SP30001
  0
BLOCK_RECORD
  5
59
100
AcDbSymbolTableRecord
100
AcDbBlockTableRecord
  2
HATSH
1001
CONTENTBLOCKICON
1071
        0
1004
2800000020000000200000000100040000000000000200000000000000000000000000000000000000000000000080000080000000808000800000008000800080800000C0C0C000808080000000FF0000FF000000FFFF00FF000000FF00FF00FFFF0000FFFFFF00FFFFFFFFFFFFFFFBBBBFFFFFFFFFFFFFFFFFFFFFFFFFFF
1004
FBBBBFFFFFFFFFFFFFFFFFFFFFFFFFFFBBBBBFFFFFFFFFFFFFFFFFFFFFFFFFFFBBBBBFFFFFFFFFFFFFFFFFFFFFFFFFFFFBBBBFFFFFFFFFFFFFFFFFFFFFFFFFFFBBBBBFFFFFFFFFFFFFFFFFFFFFFFFFFFFBBBBFFFFFFFFFFFFFFFFFFFFFFFFFFFBBBBBFFFFFFFFFFFFFFFFFFFFFFFFFFFFBBBBFFFFFFFFFFFFFFFFFFFFFFFFF
1004
FFBBBBBFFFFFFFFFFFFFFFFFFFFFFFFFFFFBBBBFFFFFFFFFFFFFFFFFFFFFFFFFFFBBBBBFFFFFFFFFFFFFFFFFFFFFFFFFFFFBBBBFFFFFFFFFFFFFFFFFFFFFFFFFFFBBBBBFFFFFFFFFFFFFFFFFFFFFFFFFFFBBBBBFFFFFFFFFFFFFFFFFFFFFFFFFFFFBBBBFFFFFFFFFFFFFFFFFFFFFFFFFFFBBBBBFFFFFFFFFFFFFFFFFFFFFFF
1004
FFFFFBBBBFFFFFFFFFFFFFFFFFFFFFFFFFFFBBBBBFFFFFFFFFFFFFFFFFFFFFFFFFFFFBBBBFFFFFFFFFFFFFFFFFFFFFFFFFFFBBBBBFFFFFFFFFFFFFFFFFFFFFFFFFFFFBBBBFFFFFFFFFFFFFFFFFFFFFFFFFFFBBBBBFFFFFFFFFFFFFFFFFFFFFFFFFFFFBBBBFFFFFFFFFFFFFFFFFFFFFFFFFFFBBBBBFFFFFFFFFFFFFFFFFFFFF
1004
FFFFFFBBBBBFFFFFFFFFFFFFFFFFFFFFFFFFFFFBBBBFFFFFFFFFFFFFFFFFFFFFFFFFFFBBBBBFFFFFFFFFFFFFFFFFFFFFFFFFFFFBBBBFFFFFFFFFFFFFFFFFFFFFFFFFFFBBBBBFFFFFFFFFFFFFFFFFFFFFFFFFFFFBBBBFFFFFFFFFFFFFFFFFFFFFFFFFFFBBBBFFFFFFFFFFFFFF
  0
BLOCK_RECORD
  5
5B
100
AcDbSymbolTableRecord
100
AcDbBlockTableRecord
  2
*X5
  0
BLOCK_RECORD
  5
19C
100
AcDbSymbolTableRecord
100
AcDbBlockTableRecord
  2
SP55010-585-10
  0
BLOCK_RECORD
  5
190
100
AcDbSymbolTableRecord
100
AcDbBlockTableRecord
  2
SP55014-585-10
  0
BLOCK_RECORD
  5
184
100
AcDbSymbolTableRecord
100
AcDbBlockTableRecord
  2
SP55023-585-10
  0
BLOCK_RECORD
  5
1B7
100
AcDbSymbolTableRecord
100
AcDbBlockTableRecord
  2
SP55011-585-10
  0
BLOCK_RECORD
  5
1AA
100
AcDbSymbolTableRecord
100
AcDbBlockTableRecord
  2
SP55020-585-10
  0
BLOCK_RECORD
  5
1C3
100
AcDbSymbolTableRecord
100
AcDbBlockTableRecord
  2
SP55024-585-10
  0
BLOCK_RECORD
  5
16C
100
AcDbSymbolTableRecord
100
AcDbBlockTableRecord
  2
SP55012-585-10
  0
BLOCK_RECORD
  5
15F
100
AcDbSymbolTableRecord
100
AcDbBlockTableRecord
  2
SP55021-585-10
  0
BLOCK_RECORD
  5
178
100
AcDbSymbolTableRecord
100
AcDbBlockTableRecord
  2
SP55025-585-10
  0
BLOCK_RECORD
  5
136
100
AcDbSymbolTableRecord
100
AcDbBlockTableRecord
  2
SP55013-585-10
  0
BLOCK_RECORD
  5
55
100
AcDbSymbolTableRecord
100
AcDbBlockTableRecord
  2
SP55022-585-10
  0
BLOCK_RECORD
  5
1F
100
AcDbSymbolTableRecord
100
AcDbBlockTableRecord
  2
550XX-5180-27
1001
CONTENTBLOCKICON
1071
        0
1004
2800000020000000200000000100040000000000000200000000000000000000000000000000000000000000000080000080000000808000800000008000800080800000C0C0C000808080000000FF0000FF000000FFFF00FF000000FF00FF00FFFF0000FFFFFF00FFFFFCCCCCCCCCCCCCCCCCCCCCCFFFFFFFFFFCFFFFFFFF
1004
FFFFFFFFFFFFCFFFFFFFFFFCFFFFFFFFFFFFFFFFFFFFCFFFFFFFFFFCFFFFFFFFFFFFFFFFFFFFCFFFFFFFFFFCFFFFFFFFFFFFFFFFFFFFCFFFFFFFFFFCFFFFFFFFFFFFFFFFFFFFCFFFFFFFFFFCFFFFFFFFFFFFFFFFFFFFCFFFFFFFFFFCFFFFFFDFFFFFFDFFFFFFCFFFFFFFFFFCFFFFFDDDFFFFFDDFFFFFCFFFFFFFFFFCFFFFFF
1004
FFFFFFFFFFFFFFCFFFFFFFFFFCFFFFFFFFFFFFFFFFFFFFCFFFFFFFFFFCFFFFBBBBBBBBBBBB0FFFCFFFFFFFFFFCFFFFBBBBBBBBBBBBFFFFCFFFFFFFFFFCFFFF0FFDDDDDDF90FFFFCFFFFFFFFFFCFFFF000000000000FFFFCFFFFFFFFFFCFFFFFFDFFFFFFDFFFFFFCFFFFFFFFFFCFFFFFDDDFFFFFDDFFFFFCFFFFFFFFFFCFFFF
1004
FFFFFFFFFFFFFFFFCFFFFFFFFFFCFFFFBBBBBBBBBBB0FFFFCFFFFFFFFFFCFFFFBBBBBBBBBBBBFFFFCFFFFFFFFFFCFFFFBBBBBBBBBBBBFFFFCFFFFFFFFFFCFFFF000DDDDD0000FFFFCFFFFFFFFFFCFFFFFFFFFFFFFFFFFFFFCFFFFFFFFFFCFFFFFDDDFFFFFDDFFFFFCFFFFFFFFFFCFFFFFFDFFFFFFDFFFFFFCFFFFFFFFFFCFF
1004
FFFFFFFFFFFFFFFFFFCFFFFFFFFFFCFFFFFFFFFFFFFFFFFFFFCFFFFFFFFFFCFFFFFFFFFFFFFFFFFFFFCFFFFFFFFFFCFFFFFFFFFFFFFFFFFFFFCFFFFFFFFFFCFFFFFFFFFFFFFFFFFFFFCFFFFFFFFFFCFFFFFFFFFFFFFFFFFFFFCFFFFFFFFFFCCCCCCCCCCCCCCCCCCCCCCFFFFF
  0
ENDTAB
  0
ENDSEC
  0
SECTION
  2
BLOCKS
  0
BLOCK
  5
3
100
AcDbEntity
  8
0
100
AcDbBlockBegin
  2
*MODEL_SPACE
 70
     0
 10
0.0
 20
0.0
 30
0.0
  3
*MODEL_SPACE
  1

  0
ENDBLK
  5
6
100
AcDbEntity
  8
0
100
AcDbBlockEnd
  0
BLOCK
  5
8
100
AcDbEntity
 67
     1
  8
0
100
AcDbBlockBegin
  2
*PAPER_SPACE
 70
     0
 10
0.0
 20
0.0
 30
0.0
  3
*PAPER_SPACE
  1

  0
ENDBLK
  5
9
100
AcDbEntity
 67
     1
  8
0
100
AcDbBlockEnd
  0
BLOCK
  5
31
100
AcDbEntity
  8
0
100
AcDbBlockBegin
  2
SIDA
 70
     0
 10
0.0
 20
0.0
 30
0.0
  3
SIDA
  1

  0
LWPOLYLINE
  5
22
100
AcDbEntity
  8
RAM
 62
     5
100
AcDbPolyline
 90
        4
 70
     1
 43
0.0
 10
-20.0
 20
35.0
 10
-20.0
 20
560.0
 10
-380.0
 20
560.0
 10
-380.0
 20
35.0
  0
LINE
  5
24
100
AcDbEntity
  8
RAM
  6
DASHDOT
 62
     6
100
AcDbLine
 10
-260.0
 20
307.5
 30
0.0
 11
-260.0
 21
287.5
 31
0.0
  0
LINE
  5
26
100
AcDbEntity
  8
RAM
  6
DASHDOT
 62
     6
100
AcDbLine
 10
-270.0
 20
167.5
 30
0.0
 11
-250.0
 21
167.5
 31
0.0
  0
LINE
  5
27
100
AcDbEntity
  8
RAM
  6
DASHDOT
 62
     6
100
AcDbLine
 10
-260.0
 20
177.5
 30
0.0
 11
-260.0
 21
157.5
 31
0.0
  0
LINE
  5
28
100
AcDbEntity
  8
RAM
  6
DASHDOT
 62
     6
100
AcDbLine
 10
-270.0
 20
297.5
 30
0.0
 11
-250.0
 21
297.5
 31
0.0
  0
LINE
  5
29
100
AcDbEntity
  8
RAM
  6
DASHDOT
 62
     6
100
AcDbLine
 10
-270.0
 20
427.5
 30
0.0
 11
-250.0
 21
427.5
 31
0.0
  0
LINE
  5
2A
100
AcDbEntity
  8
RAM
  6
DASHDOT
 62
     6
100
AcDbLine
 10
-260.0
 20
437.5
 30
0.0
 11
-260.0
 21
417.5
 31
0.0
  0
LINE
  5
2B
100
AcDbEntity
  8
RAM
  6
DASHDOT
 62
     6
100
AcDbLine
 10
-140.0
 20
307.5
 30
0.0
 11
-140.0
 21
287.5
 31
0.0
  0
LINE
  5
2C
100
AcDbEntity
  8
RAM
  6
DASHDOT
 62
     6
100
AcDbLine
 10
-140.0
 20
177.5
 30
0.0
 11
-140.0
 21
157.5
 31
0.0
  0
LINE
  5
2D
100
AcDbEntity
  8
RAM
  6
DASHDOT
 62
     6
100
AcDbLine
 10
-150.0
 20
167.5
 30
0.0
 11
-130.0
 21
167.5
 31
0.0
  0
LINE
  5
2E
100
AcDbEntity
  8
RAM
  6
DASHDOT
 62
     6
100
AcDbLine
 10
-150.0
 20
297.5
 30
0.0
 11
-130.0
 21
297.5
 31
0.0
  0
LINE
  5
2F
100
AcDbEntity
  8
RAM
  6
DASHDOT
 62
     6
100
AcDbLine
 10
-150.0
 20
427.5
 30
0.0
 11
-130.0
 21
427.5
 31
0.0
  0
LINE
  5
30
100
AcDbEntity
  8
RAM
  6
DASHDOT
 62
     6
100
AcDbLine
 10
-140.0
 20
437.5
 30
0.0
 11
-140.0
 21
417.5
 31
0.0
  0
ENDBLK
  5
32
100
AcDbEntity
  8
0
100
AcDbBlockEnd
  0
BLOCK
  5
153
100
AcDbEntity
  8
0
100
AcDbBlockBegin
  2
*X1
 70
     1
 10
0.0
 20
0.0
 30
0.0
  3
*X1
  1

  0
LINE
  5
149
100
AcDbEntity
  8
0
 62
     0
100
AcDbLine
 10
418.490967
 20
310.1066
 30
0.0
 11
421.167604
 21
313.296491
 31
0.0
  0
LINE
  5
14A
100
AcDbEntity
  8
0
 62
     0
100
AcDbLine
 10
423.349042
 20
315.896228
 30
0.0
 11
424.080112
 21
316.767482
 31
0.0
  0
LINE
  5
14B
100
AcDbEntity
  8
0
 62
     0
100
AcDbLine
 10
422.064957
 20
314.365914
 30
0.0
 11
422.918328
 21
315.382923
 31
0.0
  0
LINE
  5
14C
100
AcDbEntity
  8
0
 62
     0
100
AcDbLine
 10
418.226804
 20
311.736438
 30
0.0
 11
420.663771
 21
314.640701
 31
0.0
  0
LINE
  5
14D
100
AcDbEntity
  8
0
 62
     0
100
AcDbLine
 10
421.575811
 20
315.727628
 30
0.0
 11
422.569739
 21
316.912145
 31
0.0
  0
LINE
  5
14E
100
AcDbEntity
  8
0
 62
     0
100
AcDbLine
 10
417.857133
 20
313.240535
 30
0.0
 11
420.696467
 21
316.624321
 31
0.0
  0
LINE
  5
14F
100
AcDbEntity
  8
0
 62
     0
100
AcDbLine
 10
416.898348
 20
314.042554
 30
0.0
 11
418.169933
 21
315.55797
 31
0.0
  0
LINE
  5
150
100
AcDbEntity
  8
0
 62
     0
100
AcDbLine
 10
418.751032
 20
308.471878
 30
0.0
 11
420.838188
 21
310.959254
 31
0.0
  0
LINE
  5
151
100
AcDbEntity
  8
0
 62
     0
100
AcDbLine
 10
419.246616
 20
307.117837
 30
0.0
 11
421.130916
 21
309.363458
 31
0.0
  0
LINE
  5
152
100
AcDbEntity
  8
0
 62
     0
100
AcDbLine
 10
421.204244
 20
307.506193
 30
0.0
 11
422.301392
 21
308.813723
 31
0.0
  0
ENDBLK
  5
154
100
AcDbEntity
  8
0
100
AcDbBlockEnd
  0
BLOCK
  5
155
100
AcDbEntity
  8
0
100
AcDbBlockBegin
  2
SP40010
 70
     0
 10
0.0
 20
0.0
 30
0.0
  3
SP40010
  1

  0
LWPOLYLINE
  5
146
100
AcDbEntity
  8
GLAS_MED_FOGNING
100
AcDbPolyline
 90
       27
 70
     0
 43
0.0
 10
-8.905528
 20
18.626989
 10
-11.04147
 20
18.263989
 42
0.47758
 10
-11.422076
 20
17.585713
 10
-11.282581
 20
17.236207
 42
-1.066974
 10
-12.209806
 20
16.934105
 10
-12.855648
 20
19.46147
 10
-12.95764
 20
20.795213
 42
-0.851446
 10
-12.019738
 20
21.021209
 42
0.34625
 10
-11.479327
 20
20.720659
 10
-7.420891
 20
21.324081
 42
0.253088
 10
-6.015863
 20
22.369183
 10
-5.627377
 20
23.238611
 42
-0.653084
 10
-5.261375
 20
23.225047
 10
-4.446993
 20
21.166246
 42
0.887127
 10
-4.490032
 20
20.572081
 42
-0.212108
 10
-4.15725
 20
20.339586
 42
-0.212173
 10
-3.459619
 20
14.779472
 42
-0.418069
 10
-3.711416
 20
14.646619
 10
-4.293984
 20
14.830968
 42
-0.397156
 10
-4.360758
 20
14.950843
 42
0.194939
 10
-4.977068
 20
19.415768
 42
1.053912
 10
-5.578133
 20
19.061579
 10
-4.456808
 20
16.774085
 42
-0.459605
 10
-4.576654
 20
16.495183
 10
-5.081649
 20
16.337131
 42
-0.312484
 10
-5.190355
 20
16.371046
 42
0.373013
 10
-9.071884
 20
18.598717
  0
INSERT
  5
147
100
AcDbEntity
  8
GLAS_MED_FOGNING
100
AcDbBlockReference
  2
*X1
 10
-314.5231
 20
443.46412
 30
0.0
 50
269.250599
1001
ACAD
1000
HATCH
1002
{
1070
    16
1000
ANSI31
1040
10.0
1040
0.087266
1002
}
  0
ENDBLK
  5
156
100
AcDbEntity
  8
0
100
AcDbBlockEnd
  0
BLOCK
  5
13B
100
AcDbEntity
  8
0
100
AcDbBlockBegin
  2
SP30001
 70
     0
 10
0.0
 20
0.0
 30
0.0
  3
SP30001
  1

  0
LWPOLYLINE
  5
139
100
AcDbEntity
  8
STALPROFIL
100
AcDbPolyline
 90
        6
 70
     0
 43
1.25
 10
-0.625
 20
16.0
 10
-0.625
 20
43.75
 42
-1.0
 10
0.625
 20
43.75
 10
0.625
 20
27.0
 42
0.414214
 10
2.0
 20
25.625
 10
13.75
 20
25.625
  0
LWPOLYLINE
  5
13A
100
AcDbEntity
  8
SPKONTUR
100
AcDbPolyline
 90
        6
 70
     0
 43
0.0
 10
-1.25
 20
16.0
 10
-1.25
 20
43.75
 42
-1.0
 10
1.25
 20
43.75
 10
1.25
 20
27.0
 42
0.414214
 10
2.0
 20
26.25
 10
13.75
 20
26.25
  0
ENDBLK
  5
13C
100
AcDbEntity
  8
0
100
AcDbBlockEnd
  0
BLOCK
  5
12D
100
AcDbEntity
  8
0
100
AcDbBlockBegin
  2
HATSH
 70
     0
 10
0.0
 20
0.0
 30
0.0
  3
HATSH
  1

  0
INSERT
  5
5A
100
AcDbEntity
  8
GLAS_MED_FOGNING
100
AcDbBlockReference
  2
*X5
 10
295.0
 20
-510.0
 30
0.0
1001
ACAD
1000
HATCH
1002
{
1070
    16
1000
FLEX
1040
10.0
1040
1.570796
1002
}
  0
ENDBLK
  5
12E
100
AcDbEntity
  8
0
100
AcDbBlockEnd
  0
BLOCK
  5
12B
100
AcDbEntity
  8
0
100
AcDbBlockBegin
  2
*X5
 70
     1
 10
0.0
 20
0.0
 30
0.0
  3
*X5
  1

  0
LINE
  5
5C
100
AcDbEntity
  8
0
 62
     0
100
AcDbLine
 10
-320.0
 20
450.0
 30
0.0
 11
-320.0
 21
452.5
 31
0.0
  0
LINE
  5
5D
100
AcDbEntity
  8
0
 62
     0
100
AcDbLine
 10
-320.0
 20
455.0
 30
0.0
 11
-320.0
 21
457.5
 31
0.0
  0
LINE
  5
5E
100
AcDbEntity
  8
0
 62
     0
100
AcDbLine
 10
-320.0
 20
460.0
 30
0.0
 11
-320.0
 21
462.5
 31
0.0
  0
LINE
  5
5F
100
AcDbEntity
  8
0
 62
     0
100
AcDbLine
 10
-320.0
 20
465.0
 30
0.0
 11
-320.0
 21
467.5
 31
0.0
  0
LINE
  5
60
100
AcDbEntity
  8
0
 62
     0
100
AcDbLine
 10
-320.0
 20
470.0
 30
0.0
 11
-320.0
 21
472.5
 31
0.0
  0
LINE
  5
61
100
AcDbEntity
  8
0
 62
     0
100
AcDbLine
 10
-320.0
 20
475.0
 30
0.0
 11
-320.0
 21
477.5
 31
0.0
  0
LINE
  5
62
100
AcDbEntity
  8
0
 62
     0
100
AcDbLine
 10
-320.0
 20
480.0
 30
0.0
 11
-320.0
 21
482.5
 31
0.0
  0
LINE
  5
63
100
AcDbEntity
  8
0
 62
     0
100
AcDbLine
 10
-320.0
 20
485.0
 30
0.0
 11
-320.0
 21
487.5
 31
0.0
  0
LINE
  5
64
100
AcDbEntity
  8
0
 62
     0
100
AcDbLine
 10
-320.0
 20
490.0
 30
0.0
 11
-320.0
 21
492.5
 31
0.0
  0
LINE
  5
65
100
AcDbEntity
  8
0
 62
     0
100
AcDbLine
 10
-320.0
 20
495.0
 30
0.0
 11
-320.0
 21
497.5
 31
0.0
  0
LINE
  5
66
100
AcDbEntity
  8
0
 62
     0
100
AcDbLine
 10
-320.0
 20
500.0
 30
0.0
 11
-320.0
 21
502.5
 31
0.0
  0
LINE
  5
67
100
AcDbEntity
  8
0
 62
     0
100
AcDbLine
 10
-320.0
 20
505.0
 30
0.0
 11
-320.0
 21
507.5
 31
0.0
  0
LINE
  5
68
100
AcDbEntity
  8
0
 62
     0
100
AcDbLine
 10
-320.0
 20
510.0
 30
0.0
 11
-320.0
 21
512.5
 31
0.0
  0
LINE
  5
69
100
AcDbEntity
  8
0
 62
     0
100
AcDbLine
 10
-320.0
 20
515.0
 30
0.0
 11
-320.0
 21
517.5
 31
0.0
  0
LINE
  5
6A
100
AcDbEntity
  8
0
 62
     0
100
AcDbLine
 10
-320.0
 20
520.0
 30
0.0
 11
-320.0
 21
522.5
 31
0.0
  0
LINE
  5
6B
100
AcDbEntity
  8
0
 62
     0
100
AcDbLine
 10
-320.0
 20
525.0
 30
0.0
 11
-320.0
 21
527.5
 31
0.0
  0
LINE
  5
6C
100
AcDbEntity
  8
0
 62
     0
100
AcDbLine
 10
-320.0
 20
530.0
 30
0.0
 11
-320.0
 21
532.5
 31
0.0
  0
LINE
  5
6D
100
AcDbEntity
  8
0
 62
     0
100
AcDbLine
 10
-322.5
 20
450.0
 30
0.0
 11
-322.5
 21
452.5
 31
0.0
  0
LINE
  5
6E
100
AcDbEntity
  8
0
 62
     0
100
AcDbLine
 10
-322.5
 20
455.0
 30
0.0
 11
-322.5
 21
457.5
 31
0.0
  0
LINE
  5
6F
100
AcDbEntity
  8
0
 62
     0
100
AcDbLine
 10
-322.5
 20
460.0
 30
0.0
 11
-322.5
 21
462.5
 31
0.0
  0
LINE
  5
70
100
AcDbEntity
  8
0
 62
     0
100
AcDbLine
 10
-322.5
 20
465.0
 30
0.0
 11
-322.5
 21
467.5
 31
0.0
  0
LINE
  5
71
100
AcDbEntity
  8
0
 62
     0
100
AcDbLine
 10
-322.5
 20
470.0
 30
0.0
 11
-322.5
 21
472.5
 31
0.0
  0
LINE
  5
72
100
AcDbEntity
  8
0
 62
     0
100
AcDbLine
 10
-322.5
 20
475.0
 30
0.0
 11
-322.5
 21
477.5
 31
0.0
  0
LINE
  5
73
100
AcDbEntity
  8
0
 62
     0
100
AcDbLine
 10
-322.5
 20
480.0
 30
0.0
 11
-322.5
 21
482.5
 31
0.0
  0
LINE
  5
74
100
AcDbEntity
  8
0
 62
     0
100
AcDbLine
 10
-322.5
 20
485.0
 30
0.0
 11
-322.5
 21
487.5
 31
0.0
  0
LINE
  5
75
100
AcDbEntity
  8
0
 62
     0
100
AcDbLine
 10
-322.5
 20
490.0
 30
0.0
 11
-322.5
 21
492.5
 31
0.0
  0
LINE
  5
76
100
AcDbEntity
  8
0
 62
     0
100
AcDbLine
 10
-322.5
 20
495.0
 30
0.0
 11
-322.5
 21
497.5
 31
0.0
  0
LINE
  5
77
100
AcDbEntity
  8
0
 62
     0
100
AcDbLine
 10
-322.5
 20
500.0
 30
0.0
 11
-322.5
 21
502.5
 31
0.0
  0
LINE
  5
78
100
AcDbEntity
  8
0
 62
     0
100
AcDbLine
 10
-322.5
 20
505.0
 30
0.0
 11
-322.5
 21
507.5
 31
0.0
  0
LINE
  5
79
100
AcDbEntity
  8
0
 62
     0
100
AcDbLine
 10
-322.5
 20
510.0
 30
0.0
 11
-322.5
 21
512.5
 31
0.0
  0
LINE
  5
7A
100
AcDbEntity
  8
0
 62
     0
100
AcDbLine
 10
-322.5
 20
515.0
 30
0.0
 11
-322.5
 21
517.5
 31
0.0
  0
LINE
  5
7B
100
AcDbEntity
  8
0
 62
     0
100
AcDbLine
 10
-322.5
 20
520.0
 30
0.0
 11
-322.5
 21
522.5
 31
0.0
  0
LINE
  5
7C
100
AcDbEntity
  8
0
 62
     0
100
AcDbLine
 10
-322.5
 20
525.0
 30
0.0
 11
-322.5
 21
527.5
 31
0.0
  0
LINE
  5
7D
100
AcDbEntity
  8
0
 62
     0
100
AcDbLine
 10
-322.5
 20
530.0
 30
0.0
 11
-322.5
 21
532.5
 31
0.0
  0
LINE
  5
7E
100
AcDbEntity
  8
0
 62
     0
100
AcDbLine
 10
-317.5
 20
450.0
 30
0.0
 11
-317.5
 21
452.5
 31
0.0
  0
LINE
  5
7F
100
AcDbEntity
  8
0
 62
     0
100
AcDbLine
 10
-317.5
 20
455.0
 30
0.0
 11
-317.5
 21
457.5
 31
0.0
  0
LINE
  5
80
100
AcDbEntity
  8
0
 62
     0
100
AcDbLine
 10
-317.5
 20
460.0
 30
0.0
 11
-317.5
 21
462.5
 31
0.0
  0
LINE
  5
81
100
AcDbEntity
  8
0
 62
     0
100
AcDbLine
 10
-317.5
 20
465.0
 30
0.0
 11
-317.5
 21
467.5
 31
0.0
  0
LINE
  5
82
100
AcDbEntity
  8
0
 62
     0
100
AcDbLine
 10
-317.5
 20
470.0
 30
0.0
 11
-317.5
 21
472.5
 31
0.0
  0
LINE
  5
83
100
AcDbEntity
  8
0
 62
     0
100
AcDbLine
 10
-317.5
 20
475.0
 30
0.0
 11
-317.5
 21
477.5
 31
0.0
  0
LINE
  5
84
100
AcDbEntity
  8
0
 62
     0
100
AcDbLine
 10
-317.5
 20
480.0
 30
0.0
 11
-317.5
 21
482.5
 31
0.0
  0
LINE
  5
85
100
AcDbEntity
  8
0
 62
     0
100
AcDbLine
 10
-317.5
 20
485.0
 30
0.0
 11
-317.5
 21
487.5
 31
0.0
  0
LINE
  5
86
100
AcDbEntity
  8
0
 62
     0
100
AcDbLine
 10
-317.5
 20
490.0
 30
0.0
 11
-317.5
 21
492.5
 31
0.0
  0
LINE
  5
87
100
AcDbEntity
  8
0
 62
     0
100
AcDbLine
 10
-317.5
 20
495.0
 30
0.0
 11
-317.5
 21
497.5
 31
0.0
  0
LINE
  5
88
100
AcDbEntity
  8
0
 62
     0
100
AcDbLine
 10
-317.5
 20
500.0
 30
0.0
 11
-317.5
 21
502.5
 31
0.0
  0
LINE
  5
89
100
AcDbEntity
  8
0
 62
     0
100
AcDbLine
 10
-317.5
 20
505.0
 30
0.0
 11
-317.5
 21
507.5
 31
0.0
  0
LINE
  5
8A
100
AcDbEntity
  8
0
 62
     0
100
AcDbLine
 10
-317.5
 20
510.0
 30
0.0
 11
-317.5
 21
512.5
 31
0.0
  0
LINE
  5
8B
100
AcDbEntity
  8
0
 62
     0
100
AcDbLine
 10
-317.5
 20
515.0
 30
0.0
 11
-317.5
 21
517.5
 31
0.0
  0
LINE
  5
8C
100
AcDbEntity
  8
0
 62
     0
100
AcDbLine
 10
-317.5
 20
520.0
 30
0.0
 11
-317.5
 21
522.5
 31
0.0
  0
LINE
  5
8D
100
AcDbEntity
  8
0
 62
     0
100
AcDbLine
 10
-317.5
 20
525.0
 30
0.0
 11
-317.5
 21
527.5
 31
0.0
  0
LINE
  5
8E
100
AcDbEntity
  8
0
 62
     0
100
AcDbLine
 10
-317.5
 20
530.0
 30
0.0
 11
-317.5
 21
532.5
 31
0.0
  0
LINE
  5
8F
100
AcDbEntity
  8
0
 62
     0
100
AcDbLine
 10
-315.000001
 20
487.500001
 30
0.0
 11
-315.441943
 21
487.941942
 31
0.0
  0
LINE
  5
90
100
AcDbEntity
  8
0
 62
     0
100
AcDbLine
 10
-317.058059
 20
489.558059
 30
0.0
 11
-317.500001
 21
490.000001
 31
0.0
  0
LINE
  5
91
100
AcDbEntity
  8
0
 62
     0
100
AcDbLine
 10
-320.000001
 20
492.500001
 30
0.0
 11
-320.441943
 21
492.941942
 31
0.0
  0
LINE
  5
92
100
AcDbEntity
  8
0
 62
     0
100
AcDbLine
 10
-322.058059
 20
494.558059
 30
0.0
 11
-322.500001
 21
495.000001
 31
0.0
  0
LINE
  5
93
100
AcDbEntity
  8
0
 62
     0
100
AcDbLine
 10
-315.0
 20
485.0
 30
0.0
 11
-315.000001
 21
485.000001
 31
0.0
  0
LINE
  5
94
100
AcDbEntity
  8
0
 62
     0
100
AcDbLine
 10
-317.500001
 20
487.500001
 30
0.0
 11
-317.941943
 21
487.941942
 31
0.0
  0
LINE
  5
95
100
AcDbEntity
  8
0
 62
     0
100
AcDbLine
 10
-319.558059
 20
489.558059
 30
0.0
 11
-320.000001
 21
490.000001
 31
0.0
  0
LINE
  5
96
100
AcDbEntity
  8
0
 62
     0
100
AcDbLine
 10
-322.500001
 20
492.500001
 30
0.0
 11
-322.941943
 21
492.941942
 31
0.0
  0
LINE
  5
97
100
AcDbEntity
  8
0
 62
     0
100
AcDbLine
 10
-324.558059
 20
494.558059
 30
0.0
 11
-325.0
 21
495.0
 31
0.0
  0
LINE
  5
98
100
AcDbEntity
  8
0
 62
     0
100
AcDbLine
 10
-315.000001
 20
482.500001
 30
0.0
 11
-315.441943
 21
482.941942
 31
0.0
  0
LINE
  5
99
100
AcDbEntity
  8
0
 62
     0
100
AcDbLine
 10
-317.058059
 20
484.558059
 30
0.0
 11
-317.500001
 21
485.000001
 31
0.0
  0
LINE
  5
9A
100
AcDbEntity
  8
0
 62
     0
100
AcDbLine
 10
-320.000001
 20
487.500001
 30
0.0
 11
-320.441943
 21
487.941942
 31
0.0
  0
LINE
  5
9B
100
AcDbEntity
  8
0
 62
     0
100
AcDbLine
 10
-322.058059
 20
489.558059
 30
0.0
 11
-322.500001
 21
490.000001
 31
0.0
  0
LINE
  5
9C
100
AcDbEntity
  8
0
 62
     0
100
AcDbLine
 10
-315.0
 20
480.0
 30
0.0
 11
-315.000001
 21
480.000001
 31
0.0
  0
LINE
  5
9D
100
AcDbEntity
  8
0
 62
     0
100
AcDbLine
 10
-317.500001
 20
482.500001
 30
0.0
 11
-317.941943
 21
482.941942
 31
0.0
  0
LINE
  5
9E
100
AcDbEntity
  8
0
 62
     0
100
AcDbLine
 10
-319.558059
 20
484.558059
 30
0.0
 11
-320.000001
 21
485.000001
 31
0.0
  0
LINE
  5
9F
100
AcDbEntity
  8
0
 62
     0
100
AcDbLine
 10
-322.500001
 20
487.500001
 30
0.0
 11
-322.941943
 21
487.941942
 31
0.0
  0
LINE
  5
A0
100
AcDbEntity
  8
0
 62
     0
100
AcDbLine
 10
-324.558059
 20
489.558059
 30
0.0
 11
-325.0
 21
490.0
 31
0.0
  0
LINE
  5
A1
100
AcDbEntity
  8
0
 62
     0
100
AcDbLine
 10
-315.000001
 20
477.500001
 30
0.0
 11
-315.441943
 21
477.941942
 31
0.0
  0
LINE
  5
A2
100
AcDbEntity
  8
0
 62
     0
100
AcDbLine
 10
-317.058059
 20
479.558059
 30
0.0
 11
-317.500001
 21
480.000001
 31
0.0
  0
LINE
  5
A3
100
AcDbEntity
  8
0
 62
     0
100
AcDbLine
 10
-320.000001
 20
482.500001
 30
0.0
 11
-320.441943
 21
482.941942
 31
0.0
  0
LINE
  5
A4
100
AcDbEntity
  8
0
 62
     0
100
AcDbLine
 10
-322.058059
 20
484.558059
 30
0.0
 11
-322.500001
 21
485.000001
 31
0.0
  0
LINE
  5
A5
100
AcDbEntity
  8
0
 62
     0
100
AcDbLine
 10
-315.0
 20
475.0
 30
0.0
 11
-315.000001
 21
475.000001
 31
0.0
  0
LINE
  5
A6
100
AcDbEntity
  8
0
 62
     0
100
AcDbLine
 10
-317.500001
 20
477.500001
 30
0.0
 11
-317.941943
 21
477.941942
 31
0.0
  0
LINE
  5
A7
100
AcDbEntity
  8
0
 62
     0
100
AcDbLine
 10
-319.558059
 20
479.558059
 30
0.0
 11
-320.000001
 21
480.000001
 31
0.0
  0
LINE
  5
A8
100
AcDbEntity
  8
0
 62
     0
100
AcDbLine
 10
-322.500001
 20
482.500001
 30
0.0
 11
-322.941943
 21
482.941942
 31
0.0
  0
LINE
  5
A9
100
AcDbEntity
  8
0
 62
     0
100
AcDbLine
 10
-324.558059
 20
484.558059
 30
0.0
 11
-325.0
 21
485.0
 31
0.0
  0
LINE
  5
AA
100
AcDbEntity
  8
0
 62
     0
100
AcDbLine
 10
-315.000001
 20
472.500001
 30
0.0
 11
-315.441943
 21
472.941942
 31
0.0
  0
LINE
  5
AB
100
AcDbEntity
  8
0
 62
     0
100
AcDbLine
 10
-317.058059
 20
474.558059
 30
0.0
 11
-317.500001
 21
475.000001
 31
0.0
  0
LINE
  5
AC
100
AcDbEntity
  8
0
 62
     0
100
AcDbLine
 10
-320.000001
 20
477.500001
 30
0.0
 11
-320.441943
 21
477.941942
 31
0.0
  0
LINE
  5
AD
100
AcDbEntity
  8
0
 62
     0
100
AcDbLine
 10
-322.058059
 20
479.558059
 30
0.0
 11
-322.500001
 21
480.000001
 31
0.0
  0
LINE
  5
AE
100
AcDbEntity
  8
0
 62
     0
100
AcDbLine
 10
-315.0
 20
470.0
 30
0.0
 11
-315.000001
 21
470.000001
 31
0.0
  0
LINE
  5
AF
100
AcDbEntity
  8
0
 62
     0
100
AcDbLine
 10
-317.500001
 20
472.500001
 30
0.0
 11
-317.941943
 21
472.941942
 31
0.0
  0
LINE
  5
B0
100
AcDbEntity
  8
0
 62
     0
100
AcDbLine
 10
-319.558059
 20
474.558059
 30
0.0
 11
-320.000001
 21
475.000001
 31
0.0
  0
LINE
  5
B1
100
AcDbEntity
  8
0
 62
     0
100
AcDbLine
 10
-322.500001
 20
477.500001
 30
0.0
 11
-322.941943
 21
477.941942
 31
0.0
  0
LINE
  5
B2
100
AcDbEntity
  8
0
 62
     0
100
AcDbLine
 10
-324.558059
 20
479.558059
 30
0.0
 11
-325.0
 21
480.0
 31
0.0
  0
LINE
  5
B3
100
AcDbEntity
  8
0
 62
     0
100
AcDbLine
 10
-315.000001
 20
467.500001
 30
0.0
 11
-315.441943
 21
467.941942
 31
0.0
  0
LINE
  5
B4
100
AcDbEntity
  8
0
 62
     0
100
AcDbLine
 10
-317.058059
 20
469.558059
 30
0.0
 11
-317.500001
 21
470.000001
 31
0.0
  0
LINE
  5
B5
100
AcDbEntity
  8
0
 62
     0
100
AcDbLine
 10
-320.000001
 20
472.500001
 30
0.0
 11
-320.441943
 21
472.941942
 31
0.0
  0
LINE
  5
B6
100
AcDbEntity
  8
0
 62
     0
100
AcDbLine
 10
-322.058059
 20
474.558059
 30
0.0
 11
-322.500001
 21
475.000001
 31
0.0
  0
LINE
  5
B7
100
AcDbEntity
  8
0
 62
     0
100
AcDbLine
 10
-315.0
 20
465.0
 30
0.0
 11
-315.000001
 21
465.000001
 31
0.0
  0
LINE
  5
B8
100
AcDbEntity
  8
0
 62
     0
100
AcDbLine
 10
-317.500001
 20
467.500001
 30
0.0
 11
-317.941943
 21
467.941942
 31
0.0
  0
LINE
  5
B9
100
AcDbEntity
  8
0
 62
     0
100
AcDbLine
 10
-319.558059
 20
469.558059
 30
0.0
 11
-320.000001
 21
470.000001
 31
0.0
  0
LINE
  5
BA
100
AcDbEntity
  8
0
 62
     0
100
AcDbLine
 10
-322.500001
 20
472.500001
 30
0.0
 11
-322.941943
 21
472.941942
 31
0.0
  0
LINE
  5
BB
100
AcDbEntity
  8
0
 62
     0
100
AcDbLine
 10
-324.558059
 20
474.558059
 30
0.0
 11
-325.0
 21
475.0
 31
0.0
  0
LINE
  5
BC
100
AcDbEntity
  8
0
 62
     0
100
AcDbLine
 10
-315.000001
 20
462.500001
 30
0.0
 11
-315.441943
 21
462.941942
 31
0.0
  0
LINE
  5
BD
100
AcDbEntity
  8
0
 62
     0
100
AcDbLine
 10
-317.058059
 20
464.558059
 30
0.0
 11
-317.500001
 21
465.000001
 31
0.0
  0
LINE
  5
BE
100
AcDbEntity
  8
0
 62
     0
100
AcDbLine
 10
-320.000001
 20
467.500001
 30
0.0
 11
-320.441943
 21
467.941942
 31
0.0
  0
LINE
  5
BF
100
AcDbEntity
  8
0
 62
     0
100
AcDbLine
 10
-322.058059
 20
469.558059
 30
0.0
 11
-322.500001
 21
470.000001
 31
0.0
  0
LINE
  5
C0
100
AcDbEntity
  8
0
 62
     0
100
AcDbLine
 10
-315.0
 20
460.0
 30
0.0
 11
-315.000001
 21
460.000001
 31
0.0
  0
LINE
  5
C1
100
AcDbEntity
  8
0
 62
     0
100
AcDbLine
 10
-317.500001
 20
462.500001
 30
0.0
 11
-317.941943
 21
462.941942
 31
0.0
  0
LINE
  5
C2
100
AcDbEntity
  8
0
 62
     0
100
AcDbLine
 10
-319.558059
 20
464.558059
 30
0.0
 11
-320.000001
 21
465.000001
 31
0.0
  0
LINE
  5
C3
100
AcDbEntity
  8
0
 62
     0
100
AcDbLine
 10
-322.500001
 20
467.500001
 30
0.0
 11
-322.941943
 21
467.941942
 31
0.0
  0
LINE
  5
C4
100
AcDbEntity
  8
0
 62
     0
100
AcDbLine
 10
-324.558059
 20
469.558059
 30
0.0
 11
-325.0
 21
470.0
 31
0.0
  0
LINE
  5
C5
100
AcDbEntity
  8
0
 62
     0
100
AcDbLine
 10
-315.000001
 20
457.500001
 30
0.0
 11
-315.441942
 21
457.941942
 31
0.0
  0
LINE
  5
C6
100
AcDbEntity
  8
0
 62
     0
100
AcDbLine
 10
-317.058059
 20
459.558059
 30
0.0
 11
-317.500001
 21
460.000001
 31
0.0
  0
LINE
  5
C7
100
AcDbEntity
  8
0
 62
     0
100
AcDbLine
 10
-320.000001
 20
462.500001
 30
0.0
 11
-320.441943
 21
462.941942
 31
0.0
  0
LINE
  5
C8
100
AcDbEntity
  8
0
 62
     0
100
AcDbLine
 10
-322.058059
 20
464.558059
 30
0.0
 11
-322.500001
 21
465.000001
 31
0.0
  0
LINE
  5
C9
100
AcDbEntity
  8
0
 62
     0
100
AcDbLine
 10
-315.0
 20
455.0
 30
0.0
 11
-315.000001
 21
455.000001
 31
0.0
  0
LINE
  5
CA
100
AcDbEntity
  8
0
 62
     0
100
AcDbLine
 10
-317.500001
 20
457.500001
 30
0.0
 11
-317.941942
 21
457.941942
 31
0.0
  0
LINE
  5
CB
100
AcDbEntity
  8
0
 62
     0
100
AcDbLine
 10
-319.558059
 20
459.558059
 30
0.0
 11
-320.000001
 21
460.000001
 31
0.0
  0
LINE
  5
CC
100
AcDbEntity
  8
0
 62
     0
100
AcDbLine
 10
-322.500001
 20
462.500001
 30
0.0
 11
-322.941942
 21
462.941942
 31
0.0
  0
LINE
  5
CD
100
AcDbEntity
  8
0
 62
     0
100
AcDbLine
 10
-324.558059
 20
464.558059
 30
0.0
 11
-325.0
 21
465.0
 31
0.0
  0
LINE
  5
CE
100
AcDbEntity
  8
0
 62
     0
100
AcDbLine
 10
-315.000001
 20
452.500001
 30
0.0
 11
-315.441942
 21
452.941942
 31
0.0
  0
LINE
  5
CF
100
AcDbEntity
  8
0
 62
     0
100
AcDbLine
 10
-317.058059
 20
454.558059
 30
0.0
 11
-317.500001
 21
455.000001
 31
0.0
  0
LINE
  5
D0
100
AcDbEntity
  8
0
 62
     0
100
AcDbLine
 10
-320.000001
 20
457.500001
 30
0.0
 11
-320.441942
 21
457.941942
 31
0.0
  0
LINE
  5
D1
100
AcDbEntity
  8
0
 62
     0
100
AcDbLine
 10
-322.058059
 20
459.558059
 30
0.0
 11
-322.500001
 21
460.000001
 31
0.0
  0
LINE
  5
D2
100
AcDbEntity
  8
0
 62
     0
100
AcDbLine
 10
-315.0
 20
450.0
 30
0.0
 11
-315.000001
 21
450.000001
 31
0.0
  0
LINE
  5
D3
100
AcDbEntity
  8
0
 62
     0
100
AcDbLine
 10
-317.500001
 20
452.500001
 30
0.0
 11
-317.941942
 21
452.941942
 31
0.0
  0
LINE
  5
D4
100
AcDbEntity
  8
0
 62
     0
100
AcDbLine
 10
-319.558059
 20
454.558059
 30
0.0
 11
-320.000001
 21
455.000001
 31
0.0
  0
LINE
  5
D5
100
AcDbEntity
  8
0
 62
     0
100
AcDbLine
 10
-322.500001
 20
457.500001
 30
0.0
 11
-322.941942
 21
457.941942
 31
0.0
  0
LINE
  5
D6
100
AcDbEntity
  8
0
 62
     0
100
AcDbLine
 10
-324.558059
 20
459.558059
 30
0.0
 11
-325.0
 21
460.0
 31
0.0
  0
LINE
  5
D7
100
AcDbEntity
  8
0
 62
     0
100
AcDbLine
 10
-317.5
 20
450.0
 30
0.0
 11
-317.500001
 21
450.000001
 31
0.0
  0
LINE
  5
D8
100
AcDbEntity
  8
0
 62
     0
100
AcDbLine
 10
-320.000001
 20
452.500001
 30
0.0
 11
-320.441942
 21
452.941942
 31
0.0
  0
LINE
  5
D9
100
AcDbEntity
  8
0
 62
     0
100
AcDbLine
 10
-322.058059
 20
454.558059
 30
0.0
 11
-322.500001
 21
455.000001
 31
0.0
  0
LINE
  5
DA
100
AcDbEntity
  8
0
 62
     0
100
AcDbLine
 10
-320.0
 20
450.0
 30
0.0
 11
-320.000001
 21
450.000001
 31
0.0
  0
LINE
  5
DB
100
AcDbEntity
  8
0
 62
     0
100
AcDbLine
 10
-322.500001
 20
452.500001
 30
0.0
 11
-322.941942
 21
452.941942
 31
0.0
  0
LINE
  5
DC
100
AcDbEntity
  8
0
 62
     0
100
AcDbLine
 10
-324.558059
 20
454.558059
 30
0.0
 11
-325.0
 21
455.0
 31
0.0
  0
LINE
  5
DD
100
AcDbEntity
  8
0
 62
     0
100
AcDbLine
 10
-322.5
 20
450.0
 30
0.0
 11
-322.500001
 21
450.000001
 31
0.0
  0
LINE
  5
DE
100
AcDbEntity
  8
0
 62
     0
100
AcDbLine
 10
-315.0
 20
490.0
 30
0.0
 11
-315.000001
 21
490.000001
 31
0.0
  0
LINE
  5
DF
100
AcDbEntity
  8
0
 62
     0
100
AcDbLine
 10
-317.500001
 20
492.500001
 30
0.0
 11
-317.941943
 21
492.941942
 31
0.0
  0
LINE
  5
E0
100
AcDbEntity
  8
0
 62
     0
100
AcDbLine
 10
-319.558059
 20
494.558059
 30
0.0
 11
-320.000001
 21
495.000001
 31
0.0
  0
LINE
  5
E1
100
AcDbEntity
  8
0
 62
     0
100
AcDbLine
 10
-322.500001
 20
497.500001
 30
0.0
 11
-322.941943
 21
497.941942
 31
0.0
  0
LINE
  5
E2
100
AcDbEntity
  8
0
 62
     0
100
AcDbLine
 10
-324.558059
 20
499.558059
 30
0.0
 11
-325.0
 21
500.0
 31
0.0
  0
LINE
  5
E3
100
AcDbEntity
  8
0
 62
     0
100
AcDbLine
 10
-315.000001
 20
492.500001
 30
0.0
 11
-315.441943
 21
492.941942
 31
0.0
  0
LINE
  5
E4
100
AcDbEntity
  8
0
 62
     0
100
AcDbLine
 10
-317.058059
 20
494.558059
 30
0.0
 11
-317.500001
 21
495.000001
 31
0.0
  0
LINE
  5
E5
100
AcDbEntity
  8
0
 62
     0
100
AcDbLine
 10
-320.000001
 20
497.500001
 30
0.0
 11
-320.441943
 21
497.941942
 31
0.0
  0
LINE
  5
E6
100
AcDbEntity
  8
0
 62
     0
100
AcDbLine
 10
-322.058059
 20
499.558059
 30
0.0
 11
-322.500001
 21
500.000001
 31
0.0
  0
LINE
  5
E7
100
AcDbEntity
  8
0
 62
     0
100
AcDbLine
 10
-315.0
 20
495.0
 30
0.0
 11
-315.000001
 21
495.000001
 31
0.0
  0
LINE
  5
E8
100
AcDbEntity
  8
0
 62
     0
100
AcDbLine
 10
-317.500001
 20
497.500001
 30
0.0
 11
-317.941943
 21
497.941942
 31
0.0
  0
LINE
  5
E9
100
AcDbEntity
  8
0
 62
     0
100
AcDbLine
 10
-319.558059
 20
499.558059
 30
0.0
 11
-320.000001
 21
500.000001
 31
0.0
  0
LINE
  5
EA
100
AcDbEntity
  8
0
 62
     0
100
AcDbLine
 10
-322.500001
 20
502.500001
 30
0.0
 11
-322.941943
 21
502.941942
 31
0.0
  0
LINE
  5
EB
100
AcDbEntity
  8
0
 62
     0
100
AcDbLine
 10
-324.558059
 20
504.558059
 30
0.0
 11
-325.0
 21
505.0
 31
0.0
  0
LINE
  5
EC
100
AcDbEntity
  8
0
 62
     0
100
AcDbLine
 10
-315.000001
 20
497.500001
 30
0.0
 11
-315.441943
 21
497.941942
 31
0.0
  0
LINE
  5
ED
100
AcDbEntity
  8
0
 62
     0
100
AcDbLine
 10
-317.058059
 20
499.558059
 30
0.0
 11
-317.500001
 21
500.000001
 31
0.0
  0
LINE
  5
EE
100
AcDbEntity
  8
0
 62
     0
100
AcDbLine
 10
-320.000001
 20
502.500001
 30
0.0
 11
-320.441943
 21
502.941942
 31
0.0
  0
LINE
  5
EF
100
AcDbEntity
  8
0
 62
     0
100
AcDbLine
 10
-322.058059
 20
504.558059
 30
0.0
 11
-322.500001
 21
505.000001
 31
0.0
  0
LINE
  5
F0
100
AcDbEntity
  8
0
 62
     0
100
AcDbLine
 10
-315.0
 20
500.0
 30
0.0
 11
-315.000001
 21
500.000001
 31
0.0
  0
LINE
  5
F1
100
AcDbEntity
  8
0
 62
     0
100
AcDbLine
 10
-317.500001
 20
502.500001
 30
0.0
 11
-317.941943
 21
502.941942
 31
0.0
  0
LINE
  5
F2
100
AcDbEntity
  8
0
 62
     0
100
AcDbLine
 10
-319.558059
 20
504.558059
 30
0.0
 11
-320.000001
 21
505.000001
 31
0.0
  0
LINE
  5
F3
100
AcDbEntity
  8
0
 62
     0
100
AcDbLine
 10
-322.500001
 20
507.500001
 30
0.0
 11
-322.941943
 21
507.941942
 31
0.0
  0
LINE
  5
F4
100
AcDbEntity
  8
0
 62
     0
100
AcDbLine
 10
-324.558059
 20
509.558059
 30
0.0
 11
-325.0
 21
510.0
 31
0.0
  0
LINE
  5
F5
100
AcDbEntity
  8
0
 62
     0
100
AcDbLine
 10
-315.000001
 20
502.500001
 30
0.0
 11
-315.441943
 21
502.941942
 31
0.0
  0
LINE
  5
F6
100
AcDbEntity
  8
0
 62
     0
100
AcDbLine
 10
-317.058059
 20
504.558059
 30
0.0
 11
-317.500001
 21
505.000001
 31
0.0
  0
LINE
  5
F7
100
AcDbEntity
  8
0
 62
     0
100
AcDbLine
 10
-320.000001
 20
507.500001
 30
0.0
 11
-320.441943
 21
507.941942
 31
0.0
  0
LINE
  5
F8
100
AcDbEntity
  8
0
 62
     0
100
AcDbLine
 10
-322.058059
 20
509.558059
 30
0.0
 11
-322.500001
 21
510.000001
 31
0.0
  0
LINE
  5
F9
100
AcDbEntity
  8
0
 62
     0
100
AcDbLine
 10
-315.0
 20
505.0
 30
0.0
 11
-315.000001
 21
505.000001
 31
0.0
  0
LINE
  5
FA
100
AcDbEntity
  8
0
 62
     0
100
AcDbLine
 10
-317.500001
 20
507.500001
 30
0.0
 11
-317.941943
 21
507.941942
 31
0.0
  0
LINE
  5
FB
100
AcDbEntity
  8
0
 62
     0
100
AcDbLine
 10
-319.558059
 20
509.558059
 30
0.0
 11
-320.000001
 21
510.000001
 31
0.0
  0
LINE
  5
FC
100
AcDbEntity
  8
0
 62
     0
100
AcDbLine
 10
-322.500001
 20
512.500001
 30
0.0
 11
-322.941943
 21
512.941942
 31
0.0
  0
LINE
  5
FD
100
AcDbEntity
  8
0
 62
     0
100
AcDbLine
 10
-324.558059
 20
514.558059
 30
0.0
 11
-325.0
 21
515.0
 31
0.0
  0
LINE
  5
FE
100
AcDbEntity
  8
0
 62
     0
100
AcDbLine
 10
-315.000001
 20
507.500001
 30
0.0
 11
-315.441943
 21
507.941942
 31
0.0
  0
LINE
  5
FF
100
AcDbEntity
  8
0
 62
     0
100
AcDbLine
 10
-317.058059
 20
509.558059
 30
0.0
 11
-317.500001
 21
510.000001
 31
0.0
  0
LINE
  5
100
100
AcDbEntity
  8
0
 62
     0
100
AcDbLine
 10
-320.000001
 20
512.500001
 30
0.0
 11
-320.441943
 21
512.941942
 31
0.0
  0
LINE
  5
101
100
AcDbEntity
  8
0
 62
     0
100
AcDbLine
 10
-322.058059
 20
514.558059
 30
0.0
 11
-322.500001
 21
515.000001
 31
0.0
  0
LINE
  5
102
100
AcDbEntity
  8
0
 62
     0
100
AcDbLine
 10
-315.0
 20
510.0
 30
0.0
 11
-315.000001
 21
510.000001
 31
0.0
  0
LINE
  5
103
100
AcDbEntity
  8
0
 62
     0
100
AcDbLine
 10
-317.500001
 20
512.500001
 30
0.0
 11
-317.941943
 21
512.941942
 31
0.0
  0
LINE
  5
104
100
AcDbEntity
  8
0
 62
     0
100
AcDbLine
 10
-319.558059
 20
514.558059
 30
0.0
 11
-320.000001
 21
515.000001
 31
0.0
  0
LINE
  5
105
100
AcDbEntity
  8
0
 62
     0
100
AcDbLine
 10
-322.500001
 20
517.500001
 30
0.0
 11
-322.941943
 21
517.941942
 31
0.0
  0
LINE
  5
106
100
AcDbEntity
  8
0
 62
     0
100
AcDbLine
 10
-324.558059
 20
519.558059
 30
0.0
 11
-325.0
 21
520.0
 31
0.0
  0
LINE
  5
107
100
AcDbEntity
  8
0
 62
     0
100
AcDbLine
 10
-315.000001
 20
512.500001
 30
0.0
 11
-315.441943
 21
512.941942
 31
0.0
  0
LINE
  5
108
100
AcDbEntity
  8
0
 62
     0
100
AcDbLine
 10
-317.058059
 20
514.558059
 30
0.0
 11
-317.500001
 21
515.000001
 31
0.0
  0
LINE
  5
109
100
AcDbEntity
  8
0
 62
     0
100
AcDbLine
 10
-320.000001
 20
517.500001
 30
0.0
 11
-320.441943
 21
517.941942
 31
0.0
  0
LINE
  5
10A
100
AcDbEntity
  8
0
 62
     0
100
AcDbLine
 10
-322.058059
 20
519.558059
 30
0.0
 11
-322.500001
 21
520.000001
 31
0.0
  0
LINE
  5
10B
100
AcDbEntity
  8
0
 62
     0
100
AcDbLine
 10
-315.0
 20
515.0
 30
0.0
 11
-315.000001
 21
515.000001
 31
0.0
  0
LINE
  5
10C
100
AcDbEntity
  8
0
 62
     0
100
AcDbLine
 10
-317.500001
 20
517.500001
 30
0.0
 11
-317.941943
 21
517.941942
 31
0.0
  0
LINE
  5
10D
100
AcDbEntity
  8
0
 62
     0
100
AcDbLine
 10
-319.558059
 20
519.558059
 30
0.0
 11
-320.000001
 21
520.000001
 31
0.0
  0
LINE
  5
10E
100
AcDbEntity
  8
0
 62
     0
100
AcDbLine
 10
-322.500001
 20
522.500001
 30
0.0
 11
-322.941943
 21
522.941942
 31
0.0
  0
LINE
  5
10F
100
AcDbEntity
  8
0
 62
     0
100
AcDbLine
 10
-324.558059
 20
524.558059
 30
0.0
 11
-325.0
 21
525.0
 31
0.0
  0
LINE
  5
110
100
AcDbEntity
  8
0
 62
     0
100
AcDbLine
 10
-315.000001
 20
517.500001
 30
0.0
 11
-315.441943
 21
517.941942
 31
0.0
  0
LINE
  5
111
100
AcDbEntity
  8
0
 62
     0
100
AcDbLine
 10
-317.058059
 20
519.558059
 30
0.0
 11
-317.500001
 21
520.000001
 31
0.0
  0
LINE
  5
112
100
AcDbEntity
  8
0
 62
     0
100
AcDbLine
 10
-320.000001
 20
522.500001
 30
0.0
 11
-320.441943
 21
522.941942
 31
0.0
  0
LINE
  5
113
100
AcDbEntity
  8
0
 62
     0
100
AcDbLine
 10
-322.058059
 20
524.558059
 30
0.0
 11
-322.500001
 21
525.000001
 31
0.0
  0
LINE
  5
114
100
AcDbEntity
  8
0
 62
     0
100
AcDbLine
 10
-315.0
 20
520.0
 30
0.0
 11
-315.000001
 21
520.000001
 31
0.0
  0
LINE
  5
115
100
AcDbEntity
  8
0
 62
     0
100
AcDbLine
 10
-317.500001
 20
522.500001
 30
0.0
 11
-317.941943
 21
522.941942
 31
0.0
  0
LINE
  5
116
100
AcDbEntity
  8
0
 62
     0
100
AcDbLine
 10
-319.558059
 20
524.558059
 30
0.0
 11
-320.000001
 21
525.000001
 31
0.0
  0
LINE
  5
117
100
AcDbEntity
  8
0
 62
     0
100
AcDbLine
 10
-322.500001
 20
527.500001
 30
0.0
 11
-322.941943
 21
527.941942
 31
0.0
  0
LINE
  5
118
100
AcDbEntity
  8
0
 62
     0
100
AcDbLine
 10
-324.558059
 20
529.558059
 30
0.0
 11
-325.0
 21
530.0
 31
0.0
  0
LINE
  5
119
100
AcDbEntity
  8
0
 62
     0
100
AcDbLine
 10
-315.000001
 20
522.500001
 30
0.0
 11
-315.441943
 21
522.941942
 31
0.0
  0
LINE
  5
11A
100
AcDbEntity
  8
0
 62
     0
100
AcDbLine
 10
-317.058059
 20
524.558059
 30
0.0
 11
-317.500001
 21
525.000001
 31
0.0
  0
LINE
  5
11B
100
AcDbEntity
  8
0
 62
     0
100
AcDbLine
 10
-320.000001
 20
527.500001
 30
0.0
 11
-320.441943
 21
527.941942
 31
0.0
  0
LINE
  5
11C
100
AcDbEntity
  8
0
 62
     0
100
AcDbLine
 10
-322.058059
 20
529.558059
 30
0.0
 11
-322.500001
 21
530.000001
 31
0.0
  0
LINE
  5
11D
100
AcDbEntity
  8
0
 62
     0
100
AcDbLine
 10
-315.0
 20
525.0
 30
0.0
 11
-315.000001
 21
525.000001
 31
0.0
  0
LINE
  5
11E
100
AcDbEntity
  8
0
 62
     0
100
AcDbLine
 10
-317.500001
 20
527.500001
 30
0.0
 11
-317.941943
 21
527.941942
 31
0.0
  0
LINE
  5
11F
100
AcDbEntity
  8
0
 62
     0
100
AcDbLine
 10
-319.558059
 20
529.558059
 30
0.0
 11
-320.000001
 21
530.000001
 31
0.0
  0
LINE
  5
120
100
AcDbEntity
  8
0
 62
     0
100
AcDbLine
 10
-322.500001
 20
532.500001
 30
0.0
 11
-322.941943
 21
532.941942
 31
0.0
  0
LINE
  5
121
100
AcDbEntity
  8
0
 62
     0
100
AcDbLine
 10
-324.558059
 20
534.558059
 30
0.0
 11
-325.0
 21
535.0
 31
0.0
  0
LINE
  5
122
100
AcDbEntity
  8
0
 62
     0
100
AcDbLine
 10
-315.000001
 20
527.500001
 30
0.0
 11
-315.441943
 21
527.941942
 31
0.0
  0
LINE
  5
123
100
AcDbEntity
  8
0
 62
     0
100
AcDbLine
 10
-317.058059
 20
529.558059
 30
0.0
 11
-317.500001
 21
530.000001
 31
0.0
  0
LINE
  5
124
100
AcDbEntity
  8
0
 62
     0
100
AcDbLine
 10
-320.000001
 20
532.500001
 30
0.0
 11
-320.441943
 21
532.941942
 31
0.0
  0
LINE
  5
125
100
AcDbEntity
  8
0
 62
     0
100
AcDbLine
 10
-322.058059
 20
534.558059
 30
0.0
 11
-322.5
 21
535.0
 31
0.0
  0
LINE
  5
126
100
AcDbEntity
  8
0
 62
     0
100
AcDbLine
 10
-315.0
 20
530.0
 30
0.0
 11
-315.000001
 21
530.000001
 31
0.0
  0
LINE
  5
127
100
AcDbEntity
  8
0
 62
     0
100
AcDbLine
 10
-317.500001
 20
532.500001
 30
0.0
 11
-317.941943
 21
532.941942
 31
0.0
  0
LINE
  5
128
100
AcDbEntity
  8
0
 62
     0
100
AcDbLine
 10
-319.558059
 20
534.558059
 30
0.0
 11
-320.0
 21
535.0
 31
0.0
  0
LINE
  5
129
100
AcDbEntity
  8
0
 62
     0
100
AcDbLine
 10
-315.000001
 20
532.500001
 30
0.0
 11
-315.441943
 21
532.941942
 31
0.0
  0
LINE
  5
12A
100
AcDbEntity
  8
0
 62
     0
100
AcDbLine
 10
-317.058059
 20
534.558059
 30
0.0
 11
-317.5
 21
535.0
 31
0.0
  0
ENDBLK
  5
12C
100
AcDbEntity
  8
0
100
AcDbBlockEnd
  0
BLOCK
  5
1A5
100
AcDbEntity
  8
0
100
AcDbBlockBegin
  2
SP55010-585-10
 70
     0
 10
0.0
 20
0.0
 30
0.0
  3
SP55010-585-10
  1

  0
INSERT
  5
19D
100
AcDbEntity
  8
GLAS_MED_FOGNING
100
AcDbBlockReference
  2
HATSH
 10
0.0
 20
0.0
 30
0.0
  0
LWPOLYLINE
  5
19E
100
AcDbEntity
  8
SPKONTUR
100
AcDbPolyline
 90
        8
 70
     1
 43
0.0
 10
-50.0
 20
23.2
 42
-0.414214
 10
-48.2
 20
25.0
 10
-31.8
 20
25.0
 42
-0.414214
 10
-30.0
 20
23.2
 10
-30.0
 20
-58.2
 42
-0.414214
 10
-31.8
 20
-60.0
 10
-48.2
 20
-60.0
 42
-0.414214
 10
-50.0
 20
-58.2
  0
LWPOLYLINE
  5
19F
100
AcDbEntity
  8
STALPROFIL
100
AcDbPolyline
 90
        8
 70
     1
 43
1.8
 10
-49.1
 20
23.2
 42
-0.414214
 10
-48.2
 20
24.1
 10
-31.8
 20
24.1
 42
-0.414214
 10
-30.9
 20
23.2
 10
-30.9
 20
-58.2
 42
-0.414214
 10
-31.8
 20
-59.1
 10
-48.2
 20
-59.1
 42
-0.414214
 10
-49.1
 20
-58.2
  0
LWPOLYLINE
  5
1A0
100
AcDbEntity
  8
STALPROFIL
100
AcDbPolyline
 90
       22
 70
     1
 43
1.8
 10
-8.114719
 20
17.5
 10
-8.1
 20
17.5
 42
-0.414214
 10
-6.5
 20
15.9
 10
-6.5
 20
13.8
 42
0.414214
 10
-3.8
 20
11.1
 10
-3.6
 20
11.1
 42
-0.414214
 10
-0.9
 20
8.4
 10
-0.9
 20
-58.2
 42
-0.414214
 10
-1.8
 20
-59.1
 10
-18.2
 20
-59.1
 42
-0.414214
 10
-19.1
 20
-58.2
 10
-19.1
 20
23.2
 42
-0.414214
 10
-18.2
 20
24.1
 10
-7.9
 20
24.1
 42
-0.414214
 10
-7.0
 20
23.199
 42
-0.414214
 10
-7.899
 20
22.3
 10
-12.6
 20
22.3
 42
0.414214
 10
-15.3
 20
19.6
 10
-15.3
 20
18.2
 42
0.414214
 10
-12.6
 20
15.5
 42
0.198912
 10
-9.842284
 20
16.642284
 10
-9.599643
 20
16.884924
 42
-0.198912
  0
LWPOLYLINE
  5
1A1
100
AcDbEntity
  8
SPKONTUR
100
AcDbPolyline
 90
       25
 70
     0
 43
0.0
 10
-8.1
 20
18.4
 10
-8.114719
 20
18.4
 10
-8.1
 20
18.4
 42
-0.414214
 10
-5.6
 20
15.9
 10
-5.6
 20
13.8
 42
0.414214
 10
-3.8
 20
12.0
 10
-3.6
 20
12.0
 42
-0.414214
 10
0.0
 20
8.4
 10
0.0
 20
-58.2
 42
-0.414214
 10
-1.8
 20
-60.0
 10
-18.2
 20
-60.0
 42
-0.414214
 10
-20.0
 20
-58.2
 10
-20.0
 20
23.2
 42
-0.414214
 10
-18.2
 20
25.0
 10
-7.9
 20
25.0
 42
-0.414214
 10
-6.1
 20
23.2
 10
-6.1
 20
23.199
 42
-0.414214
 10
-7.899
 20
21.4
 10
-12.6
 20
21.4
 42
0.414214
 10
-14.4
 20
19.6
 10
-14.4
 20
18.2
 42
0.414214
 10
-12.6
 20
16.4
 42
0.198912
 10
-10.47868
 20
17.27868
 10
-10.236039
 20
17.52132
 42
-0.198912
 10
-8.114719
 20
18.4
  0
LWPOLYLINE
  5
1A2
100
AcDbEntity
  8
GLAS_MED_FOGNING
100
AcDbPolyline
 90
        4
 70
     0
 43
0.0
 10
-20.0
 20
-58.2
 10
-20.0
 20
-60.0
 10
-30.0
 20
-60.0
 10
-30.0
 20
-58.2
  0
INSERT
  5
1A3
100
AcDbEntity
  8
GLAS_MED_FOGNING
100
AcDbBlockReference
  2
SP40010
 10
0.0
 20
0.0
 30
0.0
  0
LWPOLYLINE
  5
1A4
100
AcDbEntity
  8
GLAS_MED_FOGNING
100
AcDbPolyline
 90
        4
 70
     0
 43
0.0
 10
-20.0
 20
23.2
 10
-20.0
 20
25.0
 10
-30.0
 20
25.0
 10
-30.0
 20
23.2
  0
ENDBLK
  5
1A6
100
AcDbEntity
  8
0
100
AcDbBlockEnd
  0
BLOCK
  5
199
100
AcDbEntity
  8
0
100
AcDbBlockBegin
  2
SP55014-585-10
 70
     0
 10
0.0
 20
0.0
 30
0.0
  3
SP55014-585-10
  1

  0
INSERT
  5
191
100
AcDbEntity
  8
GLAS_MED_FOGNING
100
AcDbBlockReference
  2
HATSH
 10
0.0
 20
0.0
 30
0.0
  0
LWPOLYLINE
  5
192
100
AcDbEntity
  8
STALPROFIL
100
AcDbPolyline
 90
       22
 70
     1
 43
1.8
 10
-8.114719
 20
17.5
 10
-8.1
 20
17.5
 42
-0.414214
 10
-6.5
 20
15.9
 10
-6.5
 20
13.8
 42
0.414214
 10
-3.8
 20
11.1
 10
-3.6
 20
11.1
 42
-0.414214
 10
-0.9
 20
8.4
 10
-0.9
 20
-58.2
 42
-0.414214
 10
-1.8
 20
-59.1
 10
-18.2
 20
-59.1
 42
-0.414214
 10
-19.1
 20
-58.2
 10
-19.1
 20
23.2
 42
-0.414214
 10
-18.2
 20
24.1
 10
-7.9
 20
24.1
 42
-0.414214
 10
-7.0
 20
23.199
 42
-0.414214
 10
-7.899
 20
22.3
 10
-12.6
 20
22.3
 42
0.414214
 10
-15.3
 20
19.6
 10
-15.3
 20
18.2
 42
0.414214
 10
-12.6
 20
15.5
 42
0.198912
 10
-9.842284
 20
16.642284
 10
-9.599643
 20
16.884924
 42
-0.198912
  0
LWPOLYLINE
  5
193
100
AcDbEntity
  8
SPKONTUR
100
AcDbPolyline
 90
       25
 70
     0
 43
0.0
 10
-8.1
 20
18.4
 10
-8.114719
 20
18.4
 10
-8.1
 20
18.4
 42
-0.414214
 10
-5.6
 20
15.9
 10
-5.6
 20
13.8
 42
0.414214
 10
-3.8
 20
12.0
 10
-3.6
 20
12.0
 42
-0.414214
 10
0.0
 20
8.4
 10
0.0
 20
-58.2
 42
-0.414214
 10
-1.8
 20
-60.0
 10
-18.2
 20
-60.0
 42
-0.414214
 10
-20.0
 20
-58.2
 10
-20.0
 20
23.2
 42
-0.414214
 10
-18.2
 20
25.0
 10
-7.9
 20
25.0
 42
-0.414214
 10
-6.1
 20
23.2
 10
-6.1
 20
23.199
 42
-0.414214
 10
-7.899
 20
21.4
 10
-12.6
 20
21.4
 42
0.414214
 10
-14.4
 20
19.6
 10
-14.4
 20
18.2
 42
0.414214
 10
-12.6
 20
16.4
 42
0.198912
 10
-10.47868
 20
17.27868
 10
-10.236039
 20
17.52132
 42
-0.198912
 10
-8.114719
 20
18.4
  0
LWPOLYLINE
  5
194
100
AcDbEntity
  8
SPKONTUR
100
AcDbPolyline
 90
       11
 70
     1
 43
0.0
 10
-46.4
 20
-60.0
 10
-31.8
 20
-60.0
 42
0.414214
 10
-30.0
 20
-58.2
 10
-30.0
 20
23.2
 42
0.414214
 10
-31.8
 20
25.0
 10
-48.2
 20
25.0
 42
0.414214
 10
-50.0
 20
23.2
 10
-50.0
 20
-78.2
 42
0.414214
 10
-48.2
 20
-80.0
 10
-48.199
 20
-80.0
 42
0.414214
 10
-46.4
 20
-78.201
  0
LWPOLYLINE
  5
195
100
AcDbEntity
  8
STALPROFIL
100
AcDbPolyline
 90
       11
 70
     1
 43
1.8
 10
-46.4
 20
-59.1
 10
-31.8
 20
-59.1
 42
0.414214
 10
-30.9
 20
-58.2
 10
-30.9
 20
23.2
 42
0.414214
 10
-31.8
 20
24.1
 10
-48.2
 20
24.1
 42
0.414214
 10
-49.1
 20
23.2
 10
-49.1
 20
-78.2
 42
0.414214
 10
-48.199
 20
-79.1
 42
0.414214
 10
-47.3
 20
-78.201
 10
-47.3
 20
-60.0
 42
-0.414214
  0
LWPOLYLINE
  5
196
100
AcDbEntity
  8
GLAS_MED_FOGNING
100
AcDbPolyline
 90
        4
 70
     0
 43
0.0
 10
-20.0
 20
-58.2
 10
-20.0
 20
-60.0
 10
-30.0
 20
-60.0
 10
-30.0
 20
-58.2
  0
INSERT
  5
197
100
AcDbEntity
  8
GLAS_MED_FOGNING
100
AcDbBlockReference
  2
SP40010
 10
0.0
 20
0.0
 30
0.0
  0
LWPOLYLINE
  5
198
100
AcDbEntity
  8
GLAS_MED_FOGNING
100
AcDbPolyline
 90
        4
 70
     0
 43
0.0
 10
-20.0
 20
23.2
 10
-20.0
 20
25.0
 10
-30.0
 20
25.0
 10
-30.0
 20
23.2
  0
ENDBLK
  5
19A
100
AcDbEntity
  8
0
100
AcDbBlockEnd
  0
BLOCK
  5
18C
100
AcDbEntity
  8
0
100
AcDbBlockBegin
  2
SP55023-585-10
 70
     0
 10
0.0
 20
0.0
 30
0.0
  3
SP55023-585-10
  1

  0
INSERT
  5
185
100
AcDbEntity
  8
GLAS_MED_FOGNING
100
AcDbBlockReference
  2
HATSH
 10
0.0
 20
0.0
 30
0.0
  0
LWPOLYLINE
  5
186
100
AcDbEntity
  8
STALPROFIL
100
AcDbPolyline
 90
       11
 70
     1
 43
1.8
 10
-46.4
 20
24.1
 10
-31.8
 20
24.1
 42
-0.414214
 10
-30.9
 20
23.2
 10
-30.9
 20
-58.2
 42
-0.414214
 10
-31.8
 20
-59.1
 10
-48.2
 20
-59.1
 42
-0.414214
 10
-49.1
 20
-58.2
 10
-49.1
 20
43.2
 42
-0.414214
 10
-48.199
 20
44.1
 42
-0.414214
 10
-47.3
 20
43.201
 10
-47.3
 20
25.0
 42
0.414214
  0
LWPOLYLINE
  5
187
100
AcDbEntity
  8
SPKONTUR
100
AcDbPolyline
 90
       11
 70
     1
 43
0.0
 10
-46.4
 20
25.0
 10
-31.8
 20
25.0
 42
-0.414214
 10
-30.0
 20
23.2
 10
-30.0
 20
-58.2
 42
-0.414214
 10
-31.8
 20
-60.0
 10
-48.2
 20
-60.0
 42
-0.414214
 10
-50.0
 20
-58.2
 10
-50.0
 20
43.2
 42
-0.414214
 10
-48.2
 20
45.0
 10
-48.199
 20
45.0
 42
-0.414214
 10
-46.4
 20
43.201
  0
LWPOLYLINE
  5
188
100
AcDbEntity
  8
STALPROFIL
100
AcDbPolyline
 90
       11
 70
     1
 43
1.8
 10
-3.6
 20
-59.1
 10
-18.2
 20
-59.1
 42
-0.414214
 10
-19.1
 20
-58.2
 10
-19.1
 20
23.2
 42
-0.414214
 10
-18.2
 20
24.1
 10
-1.8
 20
24.1
 42
-0.414214
 10
-0.9
 20
23.2
 10
-0.9
 20
-78.2
 42
-0.414214
 10
-1.801
 20
-79.1
 42
-0.414214
 10
-2.7
 20
-78.201
 10
-2.7
 20
-60.0
 42
0.414214
  0
LWPOLYLINE
  5
189
100
AcDbEntity
  8
SPKONTUR
100
AcDbPolyline
 90
       11
 70
     1
 43
0.0
 10
-3.6
 20
-60.0
 10
-18.2
 20
-60.0
 42
-0.414214
 10
-20.0
 20
-58.2
 10
-20.0
 20
23.2
 42
-0.414214
 10
-18.2
 20
25.0
 10
-1.8
 20
25.0
 42
-0.414214
 10
0.0
 20
23.2
 10
0.0
 20
-78.2
 42
-0.414214
 10
-1.8
 20
-80.0
 10
-1.801
 20
-80.0
 42
-0.414214
 10
-3.6
 20
-78.201
  0
LWPOLYLINE
  5
18A
100
AcDbEntity
  8
GLAS_MED_FOGNING
100
AcDbPolyline
 90
        4
 70
     0
 43
0.0
 10
-20.0
 20
-58.2
 10
-20.0
 20
-60.0
 10
-30.0
 20
-60.0
 10
-30.0
 20
-58.2
  0
LWPOLYLINE
  5
18B
100
AcDbEntity
  8
GLAS_MED_FOGNING
100
AcDbPolyline
 90
        4
 70
     0
 43
0.0
 10
-20.0
 20
23.2
 10
-20.0
 20
25.0
 10
-30.0
 20
25.0
 10
-30.0
 20
23.2
  0
ENDBLK
  5
18D
100
AcDbEntity
  8
0
100
AcDbBlockEnd
  0
BLOCK
  5
1C0
100
AcDbEntity
  8
0
100
AcDbBlockBegin
  2
SP55011-585-10
 70
     0
 10
0.0
 20
0.0
 30
0.0
  3
SP55011-585-10
  1

  0
LWPOLYLINE
  5
1B8
100
AcDbEntity
  8
STALPROFIL
100
AcDbPolyline
 90
       11
 70
     1
 43
1.8
 10
-46.4
 20
24.1
 10
-31.8
 20
24.1
 42
-0.414214
 10
-30.9
 20
23.2
 10
-30.9
 20
-58.2
 42
-0.414214
 10
-31.8
 20
-59.1
 10
-48.2
 20
-59.1
 42
-0.414214
 10
-49.1
 20
-58.2
 10
-49.1
 20
43.2
 42
-0.414214
 10
-48.199
 20
44.1
 42
-0.414214
 10
-47.3
 20
43.201
 10
-47.3
 20
25.0
 42
0.414214
  0
LWPOLYLINE
  5
1B9
100
AcDbEntity
  8
SPKONTUR
100
AcDbPolyline
 90
       11
 70
     1
 43
0.0
 10
-46.4
 20
25.0
 10
-31.8
 20
25.0
 42
-0.414214
 10
-30.0
 20
23.2
 10
-30.0
 20
-58.2
 42
-0.414214
 10
-31.8
 20
-60.0
 10
-48.2
 20
-60.0
 42
-0.414214
 10
-50.0
 20
-58.2
 10
-50.0
 20
43.2
 42
-0.414214
 10
-48.2
 20
45.0
 10
-48.199
 20
45.0
 42
-0.414214
 10
-46.4
 20
43.201
  0
INSERT
  5
1BA
100
AcDbEntity
  8
GLAS_MED_FOGNING
100
AcDbBlockReference
  2
HATSH
 10
0.0
 20
0.0
 30
0.0
  0
LWPOLYLINE
  5
1BB
100
AcDbEntity
  8
SPKONTUR
100
AcDbPolyline
 90
       25
 70
     0
 43
0.0
 10
-8.1
 20
18.4
 10
-8.114719
 20
18.4
 10
-8.1
 20
18.4
 42
-0.414214
 10
-5.6
 20
15.9
 10
-5.6
 20
13.8
 42
0.414214
 10
-3.8
 20
12.0
 10
-3.6
 20
12.0
 42
-0.414214
 10
0.0
 20
8.4
 10
0.0
 20
-58.2
 42
-0.414214
 10
-1.8
 20
-60.0
 10
-18.2
 20
-60.0
 42
-0.414214
 10
-20.0
 20
-58.2
 10
-20.0
 20
23.2
 42
-0.414214
 10
-18.2
 20
25.0
 10
-7.9
 20
25.0
 42
-0.414214
 10
-6.1
 20
23.2
 10
-6.1
 20
23.199
 42
-0.414214
 10
-7.899
 20
21.4
 10
-12.6
 20
21.4
 42
0.414214
 10
-14.4
 20
19.6
 10
-14.4
 20
18.2
 42
0.414214
 10
-12.6
 20
16.4
 42
0.198912
 10
-10.47868
 20
17.27868
 10
-10.236039
 20
17.52132
 42
-0.198912
 10
-8.114719
 20
18.4
  0
LWPOLYLINE
  5
1BC
100
AcDbEntity
  8
STALPROFIL
100
AcDbPolyline
 90
       22
 70
     1
 43
1.8
 10
-8.114719
 20
17.5
 10
-8.1
 20
17.5
 42
-0.414214
 10
-6.5
 20
15.9
 10
-6.5
 20
13.8
 42
0.414214
 10
-3.8
 20
11.1
 10
-3.6
 20
11.1
 42
-0.414214
 10
-0.9
 20
8.4
 10
-0.9
 20
-58.2
 42
-0.414214
 10
-1.8
 20
-59.1
 10
-18.2
 20
-59.1
 42
-0.414214
 10
-19.1
 20
-58.2
 10
-19.1
 20
23.2
 42
-0.414214
 10
-18.2
 20
24.1
 10
-7.9
 20
24.1
 42
-0.414214
 10
-7.0
 20
23.199
 42
-0.414214
 10
-7.899
 20
22.3
 10
-12.6
 20
22.3
 42
0.414214
 10
-15.3
 20
19.6
 10
-15.3
 20
18.2
 42
0.414214
 10
-12.6
 20
15.5
 42
0.198912
 10
-9.842284
 20
16.642284
 10
-9.599643
 20
16.884924
 42
-0.198912
  0
LWPOLYLINE
  5
1BD
100
AcDbEntity
  8
GLAS_MED_FOGNING
100
AcDbPolyline
 90
        4
 70
     0
 43
0.0
 10
-20.0
 20
-58.2
 10
-20.0
 20
-60.0
 10
-30.0
 20
-60.0
 10
-30.0
 20
-58.2
  0
LWPOLYLINE
  5
1BE
100
AcDbEntity
  8
GLAS_MED_FOGNING
100
AcDbPolyline
 90
        4
 70
     0
 43
0.0
 10
-20.0
 20
23.2
 10
-20.0
 20
25.0
 10
-30.0
 20
25.0
 10
-30.0
 20
23.2
  0
INSERT
  5
1BF
100
AcDbEntity
  8
GLAS_MED_FOGNING
100
AcDbBlockReference
  2
SP40010
 10
0.0
 20
0.0
 30
0.0
  0
ENDBLK
  5
1C1
100
AcDbEntity
  8
0
100
AcDbBlockEnd
  0
BLOCK
  5
1B2
100
AcDbEntity
  8
0
100
AcDbBlockBegin
  2
SP55020-585-10
 70
     0
 10
0.0
 20
0.0
 30
0.0
  3
SP55020-585-10
  1

  0
INSERT
  5
1AB
100
AcDbEntity
  8
GLAS_MED_FOGNING
100
AcDbBlockReference
  2
HATSH
 10
0.0
 20
0.0
 30
0.0
  0
LWPOLYLINE
  5
1AC
100
AcDbEntity
  8
SPKONTUR
100
AcDbPolyline
 90
        8
 70
     1
 43
0.0
 10
-20.0
 20
23.2
 42
-0.414214
 10
-18.2
 20
25.0
 10
-1.8
 20
25.0
 42
-0.414214
 10
0.0
 20
23.2
 10
0.0
 20
-58.2
 42
-0.414214
 10
-1.8
 20
-60.0
 10
-18.2
 20
-60.0
 42
-0.414214
 10
-20.0
 20
-58.2
  0
LWPOLYLINE
  5
1AD
100
AcDbEntity
  8
STALPROFIL
100
AcDbPolyline
 90
        8
 70
     1
 43
1.8
 10
-19.1
 20
23.2
 42
-0.414214
 10
-18.2
 20
24.1
 10
-1.8
 20
24.1
 42
-0.414214
 10
-0.9
 20
23.2
 10
-0.9
 20
-58.2
 42
-0.414214
 10
-1.8
 20
-59.1
 10
-18.2
 20
-59.1
 42
-0.414214
 10
-19.1
 20
-58.2
  0
LWPOLYLINE
  5
1AE
100
AcDbEntity
  8
STALPROFIL
100
AcDbPolyline
 90
        8
 70
     1
 43
1.8
 10
-49.1
 20
23.2
 42
-0.414214
 10
-48.2
 20
24.1
 10
-31.8
 20
24.1
 42
-0.414214
 10
-30.9
 20
23.2
 10
-30.9
 20
-58.2
 42
-0.414214
 10
-31.8
 20
-59.1
 10
-48.2
 20
-59.1
 42
-0.414214
 10
-49.1
 20
-58.2
  0
LWPOLYLINE
  5
1AF
100
AcDbEntity
  8
SPKONTUR
100
AcDbPolyline
 90
        8
 70
     1
 43
0.0
 10
-50.0
 20
23.2
 42
-0.414214
 10
-48.2
 20
25.0
 10
-31.8
 20
25.0
 42
-0.414214
 10
-30.0
 20
23.2
 10
-30.0
 20
-58.2
 42
-0.414214
 10
-31.8
 20
-60.0
 10
-48.2
 20
-60.0
 42
-0.414214
 10
-50.0
 20
-58.2
  0
LWPOLYLINE
  5
1B0
100
AcDbEntity
  8
GLAS_MED_FOGNING
100
AcDbPolyline
 90
        4
 70
     0
 43
0.0
 10
-20.0
 20
-58.2
 10
-20.0
 20
-60.0
 10
-30.0
 20
-60.0
 10
-30.0
 20
-58.2
  0
LWPOLYLINE
  5
1B1
100
AcDbEntity
  8
GLAS_MED_FOGNING
100
AcDbPolyline
 90
        4
 70
     0
 43
0.0
 10
-20.0
 20
23.2
 10
-20.0
 20
25.0
 10
-30.0
 20
25.0
 10
-30.0
 20
23.2
  0
ENDBLK
  5
1B3
100
AcDbEntity
  8
0
100
AcDbBlockEnd
  0
BLOCK
  5
1CB
100
AcDbEntity
  8
0
100
AcDbBlockBegin
  2
SP55024-585-10
 70
     0
 10
0.0
 20
0.0
 30
0.0
  3
SP55024-585-10
  1

  0
INSERT
  5
1C4
100
AcDbEntity
  8
GLAS_MED_FOGNING
100
AcDbBlockReference
  2
HATSH
 10
0.0
 20
0.0
 30
0.0
  0
LWPOLYLINE
  5
1C5
100
AcDbEntity
  8
SPKONTUR
100
AcDbPolyline
 90
       11
 70
     1
 43
0.0
 10
-46.4
 20
25.0
 10
-31.8
 20
25.0
 42
-0.414214
 10
-30.0
 20
23.2
 10
-30.0
 20
-58.2
 42
-0.414214
 10
-31.8
 20
-60.0
 10
-48.2
 20
-60.0
 42
-0.414214
 10
-50.0
 20
-58.2
 10
-50.0
 20
43.2
 42
-0.414214
 10
-48.2
 20
45.0
 10
-48.199
 20
45.0
 42
-0.414214
 10
-46.4
 20
43.201
  0
LWPOLYLINE
  5
1C6
100
AcDbEntity
  8
STALPROFIL
100
AcDbPolyline
 90
       11
 70
     1
 43
1.8
 10
-46.4
 20
24.1
 10
-31.8
 20
24.1
 42
-0.414214
 10
-30.9
 20
23.2
 10
-30.9
 20
-58.2
 42
-0.414214
 10
-31.8
 20
-59.1
 10
-48.2
 20
-59.1
 42
-0.414214
 10
-49.1
 20
-58.2
 10
-49.1
 20
43.2
 42
-0.414214
 10
-48.199
 20
44.1
 42
-0.414214
 10
-47.3
 20
43.201
 10
-47.3
 20
25.0
 42
0.414214
  0
LWPOLYLINE
  5
1C7
100
AcDbEntity
  8
SPKONTUR
100
AcDbPolyline
 90
       11
 70
     1
 43
0.0
 10
-3.6
 20
25.0
 10
-18.2
 20
25.0
 42
0.414214
 10
-20.0
 20
23.2
 10
-20.0
 20
-58.2
 42
0.414214
 10
-18.2
 20
-60.0
 10
-1.8
 20
-60.0
 42
0.414214
 10
0.0
 20
-58.2
 10
0.0
 20
43.2
 42
0.414214
 10
-1.8
 20
45.0
 10
-1.801
 20
45.0
 42
0.414214
 10
-3.6
 20
43.201
  0
LWPOLYLINE
  5
1C8
100
AcDbEntity
  8
STALPROFIL
100
AcDbPolyline
 90
       11
 70
     1
 43
1.8
 10
-3.6
 20
24.1
 10
-18.2
 20
24.1
 42
0.414214
 10
-19.1
 20
23.2
 10
-19.1
 20
-58.2
 42
0.414214
 10
-18.2
 20
-59.1
 10
-1.8
 20
-59.1
 42
0.414214
 10
-0.9
 20
-58.2
 10
-0.9
 20
43.2
 42
0.414214
 10
-1.801
 20
44.1
 42
0.414214
 10
-2.7
 20
43.201
 10
-2.7
 20
25.0
 42
-0.414214
  0
LWPOLYLINE
  5
1C9
100
AcDbEntity
  8
GLAS_MED_FOGNING
100
AcDbPolyline
 90
        4
 70
     0
 43
0.0
 10
-20.0
 20
-58.2
 10
-20.0
 20
-60.0
 10
-30.0
 20
-60.0
 10
-30.0
 20
-58.2
  0
LWPOLYLINE
  5
1CA
100
AcDbEntity
  8
GLAS_MED_FOGNING
100
AcDbPolyline
 90
        4
 70
     0
 43
0.0
 10
-20.0
 20
23.2
 10
-20.0
 20
25.0
 10
-30.0
 20
25.0
 10
-30.0
 20
23.2
  0
ENDBLK
  5
1CC
100
AcDbEntity
  8
0
100
AcDbBlockEnd
  0
BLOCK
  5
175
100
AcDbEntity
  8
0
100
AcDbBlockBegin
  2
SP55012-585-10
 70
     0
 10
0.0
 20
0.0
 30
0.0
  3
SP55012-585-10
  1

  0
INSERT
  5
16D
100
AcDbEntity
  8
GLAS_MED_FOGNING
100
AcDbBlockReference
  2
HATSH
 10
0.0
 20
0.0
 30
0.0
  0
LWPOLYLINE
  5
16E
100
AcDbEntity
  8
STALPROFIL
100
AcDbPolyline
 90
       16
 70
     1
 43
1.8
 10
-49.1
 20
0.0
 10
-49.1
 20
-78.2
 42
0.414214
 10
-48.199
 20
-79.1
 42
0.414214
 10
-47.3
 20
-78.201
 10
-47.3
 20
-60.0
 42
-0.414214
 10
-46.4
 20
-59.1
 10
-31.8
 20
-59.1
 42
0.414214
 10
-30.9
 20
-58.2
 10
-30.9
 20
0.0
 10
-30.9
 20
23.2
 42
0.414214
 10
-31.8
 20
24.1
 10
-46.4
 20
24.1
 42
-0.414214
 10
-47.3
 20
25.0
 10
-47.3
 20
43.201
 42
0.414214
 10
-48.2
 20
44.1
 42
0.414214
 10
-49.1
 20
43.2
  0
LWPOLYLINE
  5
16F
100
AcDbEntity
  8
SPKONTUR
100
AcDbPolyline
 90
       16
 70
     1
 43
0.0
 10
-50.0
 20
0.0
 10
-50.0
 20
-78.2
 42
0.414214
 10
-48.2
 20
-80.0
 10
-48.199
 20
-80.0
 42
0.414214
 10
-46.4
 20
-78.201
 10
-46.4
 20
-60.0
 10
-31.8
 20
-60.0
 42
0.414214
 10
-30.0
 20
-58.2
 10
-30.0
 20
0.0
 10
-30.0
 20
23.2
 42
0.414214
 10
-31.8
 20
25.0
 10
-46.4
 20
25.0
 10
-46.4
 20
43.201
 42
0.414214
 10
-48.199
 20
45.0
 10
-48.2
 20
45.0
 42
0.414214
 10
-50.0
 20
43.2
  0
LWPOLYLINE
  5
170
100
AcDbEntity
  8
SPKONTUR
100
AcDbPolyline
 90
       25
 70
     0
 43
0.0
 10
-8.1
 20
18.4
 10
-8.114719
 20
18.4
 10
-8.1
 20
18.4
 42
-0.414214
 10
-5.6
 20
15.9
 10
-5.6
 20
13.8
 42
0.414214
 10
-3.8
 20
12.0
 10
-3.6
 20
12.0
 42
-0.414214
 10
0.0
 20
8.4
 10
0.0
 20
-58.2
 42
-0.414214
 10
-1.8
 20
-60.0
 10
-18.2
 20
-60.0
 42
-0.414214
 10
-20.0
 20
-58.2
 10
-20.0
 20
23.2
 42
-0.414214
 10
-18.2
 20
25.0
 10
-7.9
 20
25.0
 42
-0.414214
 10
-6.1
 20
23.2
 10
-6.1
 20
23.199
 42
-0.414214
 10
-7.899
 20
21.4
 10
-12.6
 20
21.4
 42
0.414214
 10
-14.4
 20
19.6
 10
-14.4
 20
18.2
 42
0.414214
 10
-12.6
 20
16.4
 42
0.198912
 10
-10.47868
 20
17.27868
 10
-10.236039
 20
17.52132
 42
-0.198912
 10
-8.114719
 20
18.4
  0
LWPOLYLINE
  5
171
100
AcDbEntity
  8
STALPROFIL
100
AcDbPolyline
 90
       22
 70
     1
 43
1.8
 10
-8.114719
 20
17.5
 10
-8.1
 20
17.5
 42
-0.414214
 10
-6.5
 20
15.9
 10
-6.5
 20
13.8
 42
0.414214
 10
-3.8
 20
11.1
 10
-3.6
 20
11.1
 42
-0.414214
 10
-0.9
 20
8.4
 10
-0.9
 20
-58.2
 42
-0.414214
 10
-1.8
 20
-59.1
 10
-18.2
 20
-59.1
 42
-0.414214
 10
-19.1
 20
-58.2
 10
-19.1
 20
23.2
 42
-0.414214
 10
-18.2
 20
24.1
 10
-7.9
 20
24.1
 42
-0.414214
 10
-7.0
 20
23.199
 42
-0.414214
 10
-7.899
 20
22.3
 10
-12.6
 20
22.3
 42
0.414214
 10
-15.3
 20
19.6
 10
-15.3
 20
18.2
 42
0.414214
 10
-12.6
 20
15.5
 42
0.198912
 10
-9.842284
 20
16.642284
 10
-9.599643
 20
16.884924
 42
-0.198912
  0
LWPOLYLINE
  5
172
100
AcDbEntity
  8
GLAS_MED_FOGNING
100
AcDbPolyline
 90
        4
 70
     0
 43
0.0
 10
-20.0
 20
-58.2
 10
-20.0
 20
-60.0
 10
-30.0
 20
-60.0
 10
-30.0
 20
-58.2
  0
LWPOLYLINE
  5
173
100
AcDbEntity
  8
GLAS_MED_FOGNING
100
AcDbPolyline
 90
        4
 70
     0
 43
0.0
 10
-20.0
 20
23.2
 10
-20.0
 20
25.0
 10
-30.0
 20
25.0
 10
-30.0
 20
23.2
  0
INSERT
  5
174
100
AcDbEntity
  8
GLAS_MED_FOGNING
100
AcDbBlockReference
  2
SP40010
 10
0.0
 20
0.0
 30
0.0
  0
ENDBLK
  5
176
100
AcDbEntity
  8
0
100
AcDbBlockEnd
  0
BLOCK
  5
167
100
AcDbEntity
  8
0
100
AcDbBlockBegin
  2
SP55021-585-10
 70
     0
 10
0.0
 20
0.0
 30
0.0
  3
SP55021-585-10
  1

  0
INSERT
  5
160
100
AcDbEntity
  8
GLAS_MED_FOGNING
100
AcDbBlockReference
  2
HATSH
 10
0.0
 20
0.0
 30
0.0
  0
LWPOLYLINE
  5
161
100
AcDbEntity
  8
SPKONTUR
100
AcDbPolyline
 90
       11
 70
     1
 43
0.0
 10
-46.4
 20
25.0
 10
-31.8
 20
25.0
 42
-0.414214
 10
-30.0
 20
23.2
 10
-30.0
 20
-58.2
 42
-0.414214
 10
-31.8
 20
-60.0
 10
-48.2
 20
-60.0
 42
-0.414214
 10
-50.0
 20
-58.2
 10
-50.0
 20
43.2
 42
-0.414214
 10
-48.2
 20
45.0
 10
-48.199
 20
45.0
 42
-0.414214
 10
-46.4
 20
43.201
  0
LWPOLYLINE
  5
162
100
AcDbEntity
  8
STALPROFIL
100
AcDbPolyline
 90
       11
 70
     1
 43
1.8
 10
-46.4
 20
24.1
 10
-31.8
 20
24.1
 42
-0.414214
 10
-30.9
 20
23.2
 10
-30.9
 20
-58.2
 42
-0.414214
 10
-31.8
 20
-59.1
 10
-48.2
 20
-59.1
 42
-0.414214
 10
-49.1
 20
-58.2
 10
-49.1
 20
43.2
 42
-0.414214
 10
-48.199
 20
44.1
 42
-0.414214
 10
-47.3
 20
43.201
 10
-47.3
 20
25.0
 42
0.414214
  0
LWPOLYLINE
  5
163
100
AcDbEntity
  8
SPKONTUR
100
AcDbPolyline
 90
        8
 70
     1
 43
0.0
 10
-20.0
 20
23.2
 42
-0.414214
 10
-18.2
 20
25.0
 10
-1.8
 20
25.0
 42
-0.414214
 10
0.0
 20
23.2
 10
0.0
 20
-58.2
 42
-0.414214
 10
-1.8
 20
-60.0
 10
-18.2
 20
-60.0
 42
-0.414214
 10
-20.0
 20
-58.2
  0
LWPOLYLINE
  5
164
100
AcDbEntity
  8
STALPROFIL
100
AcDbPolyline
 90
        8
 70
     1
 43
1.8
 10
-19.1
 20
23.2
 42
-0.414214
 10
-18.2
 20
24.1
 10
-1.8
 20
24.1
 42
-0.414214
 10
-0.9
 20
23.2
 10
-0.9
 20
-58.2
 42
-0.414214
 10
-1.8
 20
-59.1
 10
-18.2
 20
-59.1
 42
-0.414214
 10
-19.1
 20
-58.2
  0
LWPOLYLINE
  5
165
100
AcDbEntity
  8
GLAS_MED_FOGNING
100
AcDbPolyline
 90
        4
 70
     0
 43
0.0
 10
-20.0
 20
-58.2
 10
-20.0
 20
-60.0
 10
-30.0
 20
-60.0
 10
-30.0
 20
-58.2
  0
LWPOLYLINE
  5
166
100
AcDbEntity
  8
GLAS_MED_FOGNING
100
AcDbPolyline
 90
        4
 70
     0
 43
0.0
 10
-20.0
 20
23.2
 10
-20.0
 20
25.0
 10
-30.0
 20
25.0
 10
-30.0
 20
23.2
  0
ENDBLK
  5
168
100
AcDbEntity
  8
0
100
AcDbBlockEnd
  0
BLOCK
  5
180
100
AcDbEntity
  8
0
100
AcDbBlockBegin
  2
SP55025-585-10
 70
     0
 10
0.0
 20
0.0
 30
0.0
  3
SP55025-585-10
  1

  0
INSERT
  5
179
100
AcDbEntity
  8
GLAS_MED_FOGNING
100
AcDbBlockReference
  2
HATSH
 10
0.0
 20
0.0
 30
0.0
  0
LWPOLYLINE
  5
17A
100
AcDbEntity
  8
STALPROFIL
100
AcDbPolyline
 90
       16
 70
     1
 43
1.8
 10
-49.1
 20
0.0
 10
-49.1
 20
-78.2
 42
0.414214
 10
-48.199
 20
-79.1
 42
0.414214
 10
-47.3
 20
-78.201
 10
-47.3
 20
-60.0
 42
-0.414214
 10
-46.4
 20
-59.1
 10
-31.8
 20
-59.1
 42
0.414214
 10
-30.9
 20
-58.2
 10
-30.9
 20
0.0
 10
-30.9
 20
23.2
 42
0.414214
 10
-31.8
 20
24.1
 10
-46.4
 20
24.1
 42
-0.414214
 10
-47.3
 20
25.0
 10
-47.3
 20
43.201
 42
0.414214
 10
-48.2
 20
44.1
 42
0.414214
 10
-49.1
 20
43.2
  0
LWPOLYLINE
  5
17B
100
AcDbEntity
  8
SPKONTUR
100
AcDbPolyline
 90
       16
 70
     1
 43
0.0
 10
-50.0
 20
0.0
 10
-50.0
 20
-78.2
 42
0.414214
 10
-48.2
 20
-80.0
 10
-48.199
 20
-80.0
 42
0.414214
 10
-46.4
 20
-78.201
 10
-46.4
 20
-60.0
 10
-31.8
 20
-60.0
 42
0.414214
 10
-30.0
 20
-58.2
 10
-30.0
 20
0.0
 10
-30.0
 20
23.2
 42
0.414214
 10
-31.8
 20
25.0
 10
-46.4
 20
25.0
 10
-46.4
 20
43.201
 42
0.414214
 10
-48.199
 20
45.0
 10
-48.2
 20
45.0
 42
0.414214
 10
-50.0
 20
43.2
  0
LWPOLYLINE
  5
17C
100
AcDbEntity
  8
STALPROFIL
100
AcDbPolyline
 90
       11
 70
     1
 43
1.8
 10
-3.6
 20
24.1
 10
-18.2
 20
24.1
 42
0.414214
 10
-19.1
 20
23.2
 10
-19.1
 20
-58.2
 42
0.414214
 10
-18.2
 20
-59.1
 10
-1.8
 20
-59.1
 42
0.414214
 10
-0.9
 20
-58.2
 10
-0.9
 20
43.2
 42
0.414214
 10
-1.801
 20
44.1
 42
0.414214
 10
-2.7
 20
43.201
 10
-2.7
 20
25.0
 42
-0.414214
  0
LWPOLYLINE
  5
17D
100
AcDbEntity
  8
SPKONTUR
100
AcDbPolyline
 90
       11
 70
     1
 43
0.0
 10
-3.6
 20
25.0
 10
-18.2
 20
25.0
 42
0.414214
 10
-20.0
 20
23.2
 10
-20.0
 20
-58.2
 42
0.414214
 10
-18.2
 20
-60.0
 10
-1.8
 20
-60.0
 42
0.414214
 10
0.0
 20
-58.2
 10
0.0
 20
43.2
 42
0.414214
 10
-1.8
 20
45.0
 10
-1.801
 20
45.0
 42
0.414214
 10
-3.6
 20
43.201
  0
LWPOLYLINE
  5
17E
100
AcDbEntity
  8
GLAS_MED_FOGNING
100
AcDbPolyline
 90
        4
 70
     0
 43
0.0
 10
-20.0
 20
-58.2
 10
-20.0
 20
-60.0
 10
-30.0
 20
-60.0
 10
-30.0
 20
-58.2
  0
LWPOLYLINE
  5
17F
100
AcDbEntity
  8
GLAS_MED_FOGNING
100
AcDbPolyline
 90
        4
 70
     0
 43
0.0
 10
-20.0
 20
23.2
 10
-20.0
 20
25.0
 10
-30.0
 20
25.0
 10
-30.0
 20
23.2
  0
ENDBLK
  5
181
100
AcDbEntity
  8
0
100
AcDbBlockEnd
  0
BLOCK
  5
157
100
AcDbEntity
  8
0
100
AcDbBlockBegin
  2
SP55013-585-10
 70
     0
 10
0.0
 20
0.0
 30
0.0
  3
SP55013-585-10
  1

  0
INSERT
  5
137
100
AcDbEntity
  8
0
100
AcDbBlockReference
  2
SP30001
 10
0.0
 20
-35.0
 30
0.0
 50
180.0
  0
LWPOLYLINE
  5
13D
100
AcDbEntity
  8
STALPROFIL
100
AcDbPolyline
 90
       11
 70
     1
 43
1.8
 10
-46.4
 20
24.1
 10
-31.8
 20
24.1
 42
-0.414214
 10
-30.9
 20
23.2
 10
-30.9
 20
-58.2
 42
-0.414214
 10
-31.8
 20
-59.1
 10
-48.2
 20
-59.1
 42
-0.414214
 10
-49.1
 20
-58.2
 10
-49.1
 20
43.2
 42
-0.414214
 10
-48.199
 20
44.1
 42
-0.414214
 10
-47.3
 20
43.201
 10
-47.3
 20
25.0
 42
0.414214
  0
LWPOLYLINE
  5
13E
100
AcDbEntity
  8
SPKONTUR
100
AcDbPolyline
 90
       11
 70
     1
 43
0.0
 10
-46.4
 20
25.0
 10
-31.8
 20
25.0
 42
-0.414214
 10
-30.0
 20
23.2
 10
-30.0
 20
-58.2
 42
-0.414214
 10
-31.8
 20
-60.0
 10
-48.2
 20
-60.0
 42
-0.414214
 10
-50.0
 20
-58.2
 10
-50.0
 20
43.2
 42
-0.414214
 10
-48.2
 20
45.0
 10
-48.199
 20
45.0
 42
-0.414214
 10
-46.4
 20
43.201
  0
INSERT
  5
13F
100
AcDbEntity
  8
GLAS_MED_FOGNING
100
AcDbBlockReference
  2
HATSH
 10
0.0
 20
0.0
 30
0.0
  0
LWPOLYLINE
  5
140
100
AcDbEntity
  8
SPKONTUR
100
AcDbPolyline
 90
       25
 70
     0
 43
0.0
 10
-8.1
 20
18.4
 10
-8.114719
 20
18.4
 10
-8.1
 20
18.4
 42
-0.414214
 10
-5.6
 20
15.9
 10
-5.6
 20
13.8
 42
0.414214
 10
-3.8
 20
12.0
 10
-3.6
 20
12.0
 42
-0.414214
 10
0.0
 20
8.4
 10
0.0
 20
-58.2
 42
-0.414214
 10
-1.8
 20
-60.0
 10
-18.2
 20
-60.0
 42
-0.414214
 10
-20.0
 20
-58.2
 10
-20.0
 20
23.2
 42
-0.414214
 10
-18.2
 20
25.0
 10
-7.9
 20
25.0
 42
-0.414214
 10
-6.1
 20
23.2
 10
-6.1
 20
23.199
 42
-0.414214
 10
-7.899
 20
21.4
 10
-12.6
 20
21.4
 42
0.414214
 10
-14.4
 20
19.6
 10
-14.4
 20
18.2
 42
0.414214
 10
-12.6
 20
16.4
 42
0.198912
 10
-10.47868
 20
17.27868
 10
-10.236039
 20
17.52132
 42
-0.198912
 10
-8.114719
 20
18.4
  0
LWPOLYLINE
  5
141
100
AcDbEntity
  8
STALPROFIL
100
AcDbPolyline
 90
       22
 70
     1
 43
1.8
 10
-8.114719
 20
17.5
 10
-8.1
 20
17.5
 42
-0.414214
 10
-6.5
 20
15.9
 10
-6.5
 20
13.8
 42
0.414214
 10
-3.8
 20
11.1
 10
-3.6
 20
11.1
 42
-0.414214
 10
-0.9
 20
8.4
 10
-0.9
 20
-58.2
 42
-0.414214
 10
-1.8
 20
-59.1
 10
-18.2
 20
-59.1
 42
-0.414214
 10
-19.1
 20
-58.2
 10
-19.1
 20
23.2
 42
-0.414214
 10
-18.2
 20
24.1
 10
-7.9
 20
24.1
 42
-0.414214
 10
-7.0
 20
23.199
 42
-0.414214
 10
-7.899
 20
22.3
 10
-12.6
 20
22.3
 42
0.414214
 10
-15.3
 20
19.6
 10
-15.3
 20
18.2
 42
0.414214
 10
-12.6
 20
15.5
 42
0.198912
 10
-9.842284
 20
16.642284
 10
-9.599643
 20
16.884924
 42
-0.198912
  0
LWPOLYLINE
  5
142
100
AcDbEntity
  8
GLAS_MED_FOGNING
100
AcDbPolyline
 90
        4
 70
     0
 43
0.0
 10
-20.0
 20
-58.2
 10
-20.0
 20
-60.0
 10
-30.0
 20
-60.0
 10
-30.0
 20
-58.2
  0
LWPOLYLINE
  5
143
100
AcDbEntity
  8
GLAS_MED_FOGNING
100
AcDbPolyline
 90
        4
 70
     0
 43
0.0
 10
-20.0
 20
23.2
 10
-20.0
 20
25.0
 10
-30.0
 20
25.0
 10
-30.0
 20
23.2
  0
INSERT
  5
144
100
AcDbEntity
  8
GLAS_MED_FOGNING
100
AcDbBlockReference
  2
SP40010
 10
0.0
 20
0.0
 30
0.0
  0
ENDBLK
  5
158
100
AcDbEntity
  8
0
100
AcDbBlockEnd
  0
BLOCK
  5
133
100
AcDbEntity
  8
0
100
AcDbBlockBegin
  2
SP55022-585-10
 70
     0
 10
0.0
 20
0.0
 30
0.0
  3
SP55022-585-10
  1

  0
LWPOLYLINE
  5
56
100
AcDbEntity
  8
SPKONTUR
100
AcDbPolyline
 90
       16
 70
     1
 43
0.0
 10
-50.0
 20
0.0
 10
-50.0
 20
-78.2
 42
0.414214
 10
-48.2
 20
-80.0
 10
-48.199
 20
-80.0
 42
0.414214
 10
-46.4
 20
-78.201
 10
-46.4
 20
-60.0
 10
-31.8
 20
-60.0
 42
0.414214
 10
-30.0
 20
-58.2
 10
-30.0
 20
0.0
 10
-30.0
 20
23.2
 42
0.414214
 10
-31.8
 20
25.0
 10
-46.4
 20
25.0
 10
-46.4
 20
43.201
 42
0.414214
 10
-48.199
 20
45.0
 10
-48.2
 20
45.0
 42
0.414214
 10
-50.0
 20
43.2
  0
LWPOLYLINE
  5
57
100
AcDbEntity
  8
STALPROFIL
100
AcDbPolyline
 90
       16
 70
     1
 43
1.8
 10
-49.1
 20
0.0
 10
-49.1
 20
-78.2
 42
0.414214
 10
-48.199
 20
-79.1
 42
0.414214
 10
-47.3
 20
-78.201
 10
-47.3
 20
-60.0
 42
-0.414214
 10
-46.4
 20
-59.1
 10
-31.8
 20
-59.1
 42
0.414214
 10
-30.9
 20
-58.2
 10
-30.9
 20
0.0
 10
-30.9
 20
23.2
 42
0.414214
 10
-31.8
 20
24.1
 10
-46.4
 20
24.1
 42
-0.414214
 10
-47.3
 20
25.0
 10
-47.3
 20
43.201
 42
0.414214
 10
-48.2
 20
44.1
 42
0.414214
 10
-49.1
 20
43.2
  0
INSERT
  5
58
100
AcDbEntity
  8
GLAS_MED_FOGNING
100
AcDbBlockReference
  2
HATSH
 10
0.0
 20
0.0
 30
0.0
  0
LWPOLYLINE
  5
12F
100
AcDbEntity
  8
STALPROFIL
100
AcDbPolyline
 90
        8
 70
     1
 43
1.8
 10
-19.1
 20
23.2
 42
-0.414214
 10
-18.2
 20
24.1
 10
-1.8
 20
24.1
 42
-0.414214
 10
-0.9
 20
23.2
 10
-0.9
 20
-58.2
 42
-0.414214
 10
-1.8
 20
-59.1
 10
-18.2
 20
-59.1
 42
-0.414214
 10
-19.1
 20
-58.2
  0
LWPOLYLINE
  5
130
100
AcDbEntity
  8
SPKONTUR
100
AcDbPolyline
 90
        8
 70
     1
 43
0.0
 10
-20.0
 20
23.2
 42
-0.414214
 10
-18.2
 20
25.0
 10
-1.8
 20
25.0
 42
-0.414214
 10
0.0
 20
23.2
 10
0.0
 20
-58.2
 42
-0.414214
 10
-1.8
 20
-60.0
 10
-18.2
 20
-60.0
 42
-0.414214
 10
-20.0
 20
-58.2
  0
LWPOLYLINE
  5
131
100
AcDbEntity
  8
GLAS_MED_FOGNING
100
AcDbPolyline
 90
        4
 70
     0
 43
0.0
 10
-20.0
 20
-58.2
 10
-20.0
 20
-60.0
 10
-30.0
 20
-60.0
 10
-30.0
 20
-58.2
  0
LWPOLYLINE
  5
132
100
AcDbEntity
  8
GLAS_MED_FOGNING
100
AcDbPolyline
 90
        4
 70
     0
 43
0.0
 10
-20.0
 20
23.2
 10
-20.0
 20
25.0
 10
-30.0
 20
25.0
 10
-30.0
 20
23.2
  0
ENDBLK
  5
134
100
AcDbEntity
  8
0
100
AcDbBlockEnd
  0
BLOCK
  5
51
100
AcDbEntity
  8
0
100
AcDbBlockBegin
  2
550XX-5180-27
 70
     0
 10
0.0
 20
0.0
 30
0.0
  3
550XX-5180-27
  1

  0
INSERT
  5
20
100
AcDbEntity
  8
0
100
AcDbBlockReference
  2
SIDA
 10
590.000001
 20
5.0
 30
0.0
  0
LWPOLYLINE
  5
34
100
AcDbEntity
  8
STALPROFIL
100
AcDbPolyline
 90
        2
 70
     0
 43
3.0
 10
475.000001
 20
351.5
 10
275.000001
 20
351.5
  0
LINE
  5
36
100
AcDbEntity
  8
SPKONTUR
100
AcDbLine
 10
475.000001
 20
350.0
 30
0.0
 11
275.000001
 21
350.0
 31
0.0
  0
LINE
  5
38
102
{ACAD_REACTORS
330
4F
102
}
100
AcDbEntity
  8
GLAS_MED_FOGNING
100
AcDbLine
 10
475.000001
 20
375.0
 30
0.0
 11
295.000001
 21
375.0
 31
0.0
  0
LINE
  5
39
102
{ACAD_REACTORS
330
4F
102
}
100
AcDbEntity
  8
GLAS_MED_FOGNING
100
AcDbLine
 10
295.000001
 20
353.0
 30
0.0
 11
475.000001
 21
353.0
 31
0.0
  0
LINE
  5
3A
102
{ACAD_REACTORS
330
50
102
}
100
AcDbEntity
  8
GLAS_MED_FOGNING
100
AcDbLine
 10
295.000001
 20
228.0
 30
0.0
 11
475.000001
 21
228.0
 31
0.0
  0
LINE
  5
3B
102
{ACAD_REACTORS
330
50
102
}
100
AcDbEntity
  8
GLAS_MED_FOGNING
100
AcDbLine
 10
475.000001
 20
250.0
 30
0.0
 11
295.000001
 21
250.0
 31
0.0
  0
LWPOLYLINE
  5
3C
100
AcDbEntity
  8
STALPROFIL
100
AcDbPolyline
 90
        2
 70
     0
 43
3.0
 10
495.000001
 20
226.5
 10
275.000001
 20
226.5
  0
LINE
  5
3D
100
AcDbEntity
  8
SPKONTUR
100
AcDbLine
 10
495.000001
 20
225.0
 30
0.0
 11
275.000001
 21
225.0
 31
0.0
  0
LWPOLYLINE
  5
3E
100
AcDbEntity
  8
STALPROFIL
100
AcDbPolyline
 90
        9
 70
     0
 43
1.8
 10
473.200001
 20
375.9
 42
0.414214
 10
474.100001
 20
376.8
 10
474.100001
 20
398.2
 42
0.414214
 10
473.200001
 20
399.1
 10
296.800001
 20
399.1
 42
0.414214
 10
295.900001
 20
398.2
 10
295.900001
 20
376.8
 42
0.414214
 10
296.800001
 20
375.9
 10
310.000001
 20
375.9
 42
0.071574
  0
LWPOLYLINE
  5
3F
100
AcDbEntity
  8
SPKONTUR
100
AcDbPolyline
 90
        9
 70
     0
 43
0.0
 10
473.200001
 20
375.0
 42
0.414214
 10
475.000001
 20
376.8
 10
475.000001
 20
398.2
 42
0.414214
 10
473.200001
 20
400.0
 10
296.800001
 20
400.0
 42
0.414214
 10
295.000001
 20
398.2
 10
295.000001
 20
376.8
 42
0.414214
 10
296.800001
 20
375.0
 10
310.000001
 20
375.0
 42
0.071574
  0
LWPOLYLINE
  5
40
100
AcDbEntity
  8
STALPROFIL
100
AcDbPolyline
 90
        9
 70
     0
 43
1.8
 10
473.200001
 20
250.9
 42
0.414214
 10
474.100001
 20
251.8
 10
474.100001
 20
273.2
 42
0.414214
 10
473.200001
 20
274.1
 10
296.800001
 20
274.1
 42
0.414214
 10
295.900001
 20
273.2
 10
295.900001
 20
251.8
 42
0.414214
 10
296.800001
 20
250.9
 10
310.000001
 20
250.9
 42
0.071574
  0
LWPOLYLINE
  5
41
100
AcDbEntity
  8
SPKONTUR
100
AcDbPolyline
 90
        9
 70
     0
 43
0.0
 10
473.200001
 20
250.0
 42
0.414214
 10
475.000001
 20
251.8
 10
475.000001
 20
273.2
 42
0.414214
 10
473.200001
 20
275.0
 10
296.800001
 20
275.0
 42
0.414214
 10
295.000001
 20
273.2
 10
295.000001
 20
251.8
 42
0.414214
 10
296.800001
 20
250.0
 10
310.000001
 20
250.0
 42
0.071574
  0
LWPOLYLINE
  5
42
100
AcDbEntity
  8
GLAS_MED_FOGNING
100
AcDbPolyline
 90
        3
 70
     0
 43
0.0
 10
296.800001
 20
250.0
 10
295.000001
 20
250.0
 10
295.000001
 20
228.0
  0
LINE
  5
43
102
{ACAD_REACTORS
330
50
102
}
100
AcDbEntity
  8
GLAS_MED_FOGNING
100
AcDbLine
 10
295.000001
 20
250.0
 30
0.0
 11
295.000001
 21
228.0
 31
0.0
  0
LWPOLYLINE
  5
44
100
AcDbEntity
  8
GLAS_MED_FOGNING
100
AcDbPolyline
 90
        3
 70
     0
 43
0.0
 10
296.800001
 20
375.0
 10
295.000001
 20
375.0
 10
295.000001
 20
353.0
  0
LINE
  5
45
102
{ACAD_REACTORS
330
4F
102
}
100
AcDbEntity
  8
GLAS_MED_FOGNING
100
AcDbLine
 10
295.000001
 20
375.0
 30
0.0
 11
295.000001
 21
353.0
 31
0.0
  0
TEXT
  5
46
100
AcDbEntity
  8
0
  6
BYBLOCK
 62
     6
100
AcDbText
 10
341.286667
 20
257.75191
 30
0.0
 40
7.0
  1
%%USP 55022-5180-22
 41
0.8
  7
ROMANS
 72
     4
 11
385.000001
 21
260.55191
 31
0.0
100
AcDbText
  0
LWPOLYLINE
  5
48
102
{ACAD_REACTORS
330
50
102
}
100
AcDbEntity
  8
SPKONTUR
100
AcDbPolyline
 90
        2
 70
     0
 43
0.0
 10
460.000001
 20
250.0
 10
473.200001
 20
250.0
 42
0.728012
  0
LWPOLYLINE
  5
49
100
AcDbEntity
  8
STALPROFIL
100
AcDbPolyline
 90
        2
 70
     0
 43
1.8
 10
460.000001
 20
250.9
 10
473.200001
 20
250.9
 42
0.728012
  0
LWPOLYLINE
  5
4A
102
{ACAD_REACTORS
330
50
102
}
100
AcDbEntity
  8
GLAS_MED_FOGNING
100
AcDbPolyline
 90
        3
 70
     0
 43
0.0
 10
473.200001
 20
250.0
 10
475.000001
 20
250.0
 10
475.000001
 20
228.0
  0
TEXT
  5
4B
100
AcDbEntity
  8
0
  6
BYBLOCK
 62
     6
100
AcDbText
 10
349.553334
 20
382.243571
 30
0.0
 40
7.0
  1
%%U55021-5180-22
 41
0.8
  7
ROMANS
 72
     4
 11
385.000001
 21
385.043571
 31
0.0
100
AcDbText
  0
LWPOLYLINE
  5
4C
102
{ACAD_REACTORS
330
4F
102
}
100
AcDbEntity
  8
SPKONTUR
100
AcDbPolyline
 90
        2
 70
     0
 43
0.0
 10
460.000001
 20
375.0
 10
473.200001
 20
375.0
 42
0.728012
  0
LWPOLYLINE
  5
4D
100
AcDbEntity
  8
STALPROFIL
100
AcDbPolyline
 90
        2
 70
     0
 43
1.8
 10
460.000001
 20
375.9
 10
473.200001
 20
375.9
 42
0.728012
  0
LWPOLYLINE
  5
4E
102
{ACAD_REACTORS
330
4F
102
}
100
AcDbEntity
  8
GLAS_MED_FOGNING
100
AcDbPolyline
 90
        3
 70
     0
 43
0.0
 10
473.200001
 20
375.0
 10
475.000001
 20
375.0
 10
475.000001
 20
353.0
  0
HATCH
  5
4F
100
AcDbEntity
  8
GLAS_MED_FOGNING
100
AcDbHatch
 10
0.0
 20
0.0
 30
0.0
210
0.0
220
0.0
230
1.0
  2
FLEX
 70
     0
 71
     1
 91
        1
 92
        7
 72
     0
 73
     1
 93
        6
 10
475.0000008059828
 20
375.0000001675039
 10
473.2000008059826
 20
375.0000001675039
 10
460.0000008059828
 20
375.0000001675039
 10
295.0000008059828
 20
375.0000001675039
 10
295.0000008059828
 20
353.0000001675039
 10
475.0000008059827
 20
353.0000001675039
 97
        5
330
4E
330
4C
330
38
330
45
330
39
 75
     0
 76
     1
 52
0.0
 41
0.5
 77
     0
 78
     2
 53
0.0
 43
0.0
 44
0.0
 45
0.0
 46
3.174999999999999
 79
     2
 49
3.175
 49
-3.175
 53
45.0
 43
3.175
 44
0.0
 45
0.0000000000000002
 46
3.175001371409153
 79
     4
 49
0.79375
 49
-2.90263
 49
0.79375
 49
-4.49013
 47
0.399501
 98
        1
 10
390.0
 20
360.0
  0
HATCH
  5
50
100
AcDbEntity
  8
GLAS_MED_FOGNING
100
AcDbHatch
 10
0.0
 20
0.0
 30
0.0
210
0.0
220
0.0
230
1.0
  2
FLEX
 70
     0
 71
     1
 91
        1
 92
        7
 72
     0
 73
     1
 93
        6
 10
475.0000008059827
 20
250.0000001675038
 10
473.2000008059826
 20
250.0000001675039
 10
460.0000008059828
 20
250.0000001675039
 10
295.0000008059828
 20
250.0000001675039
 10
295.0000008059828
 20
228.0000001675039
 10
475.0000008059827
 20
228.0000001675039
 97
        5
330
4A
330
48
330
3B
330
43
330
3A
 75
     0
 76
     1
 52
0.0
 41
0.5
 77
     0
 78
     2
 53
0.0
 43
0.0
 44
0.0
 45
0.0
 46
3.174999999999999
 79
     2
 49
3.175
 49
-3.175
 53
45.0
 43
3.175
 44
0.0
 45
0.0000000000000002
 46
3.175001371409153
 79
     4
 49
0.79375
 49
-2.90263
 49
0.79375
 49
-4.49013
 47
0.399501
 98
        1
 10
370.0
 20
240.0
  0
ENDBLK
  5
52
100
AcDbEntity
  8
0
100
AcDbBlockEnd
  0
ENDSEC
  0
SECTION
  2
ENTITIES
  0
INSERT
  5
1E
100
AcDbEntity
  8
GLAS_MED_FOGNING
100
AcDbBlockReference
  2
550XX-5180-27
 10
-960.0
 20
-5.0
 30
0.0
  0
INSERT
  5
53
100
AcDbEntity
  8
0
100
AcDbBlockReference
  2
SIDA
 10
0.0
 20
0.0
 30
0.0
  0
INSERT
  5
54
100
AcDbEntity
  8
GLAS_MED_FOGNING
100
AcDbBlockReference
  2
SP55022-585-10
 10
-175.0
 20
120.0
 30
0.0
  0
INSERT
  5
135
100
AcDbEntity
  8
GLAS_MED_FOGNING
100
AcDbBlockReference
  2
SP55013-585-10
 10
-295.0
 20
120.0
 30
0.0
  0
TEXT
  5
159
100
AcDbEntity
  8
TEXT
100
AcDbText
 10
-333.0
 20
76.442857
 30
0.0
 40
5.0
  1
%%USP 55013/585/10
 50
90.0
 41
0.8
  7
ROMANS
 72
     1
 11
-333.0
 21
105.0
 31
0.0
100
AcDbText
  0
TEXT
  5
15B
100
AcDbEntity
  8
TEXT
100
AcDbText
 10
-213.0
 20
76.442857
 30
0.0
 40
5.0
  1
%%USP 55022/585/10
 50
90.0
 41
0.8
  7
ROMANS
 72
     1
 11
-213.0
 21
105.0
 31
0.0
100
AcDbText
  0
TEXT
  5
15C
100
AcDbEntity
  8
TEXT
100
AcDbText
 10
-96.780952
 20
25.0
 30
0.0
 40
5.0
  1
File name  %%U350PAGE11
 41
0.8
  7
ROMANS
 72
     2
 11
-25.0
 21
25.0
 31
0.0
100
AcDbText
  0
TEXT
  5
15D
100
AcDbEntity
  8
TEXT
100
AcDbText
 10
-89.92381
 20
40.0
 30
0.0
 40
5.0
  1
SP 35000  %%UPAGE 11
 41
0.8
  7
ROMANS
 72
     2
 11
-25.0
 21
40.0
 31
0.0
100
AcDbText
  0
INSERT
  5
15E
100
AcDbEntity
  8
GLAS_MED_FOGNING
100
AcDbBlockReference
  2
SP55021-585-10
 10
-175.0
 20
250.0
 30
0.0
  0
TEXT
  5
169
100
AcDbEntity
  8
TEXT
100
AcDbText
 10
-213.0
 20
206.442857
 30
0.0
 40
5.0
  1
%%USP 55021/585/10
 50
90.0
 41
0.8
  7
ROMANS
 72
     1
 11
-213.0
 21
235.0
 31
0.0
100
AcDbText
  0
TEXT
  5
16A
100
AcDbEntity
  8
TEXT
100
AcDbText
 10
-333.0
 20
206.442857
 30
0.0
 40
5.0
  1
%%USP 55012/585/10
 50
90.0
 41
0.8
  7
ROMANS
 72
     1
 11
-333.0
 21
235.0
 31
0.0
100
AcDbText
  0
INSERT
  5
16B
100
AcDbEntity
  8
GLAS_MED_FOGNING
100
AcDbBlockReference
  2
SP55012-585-10
 10
-295.0
 20
250.0
 30
0.0
  0
INSERT
  5
177
100
AcDbEntity
  8
GLAS_MED_FOGNING
100
AcDbBlockReference
  2
SP55025-585-10
 10
-55.0
 20
250.0
 30
0.0
  0
TEXT
  5
182
100
AcDbEntity
  8
TEXT
100
AcDbText
 10
-93.0
 20
206.442857
 30
0.0
 40
5.0
  1
%%USP 55025/585/10
 50
90.0
 41
0.8
  7
ROMANS
 72
     1
 11
-93.0
 21
235.0
 31
0.0
100
AcDbText
  0
INSERT
  5
183
100
AcDbEntity
  8
GLAS_MED_FOGNING
100
AcDbBlockReference
  2
SP55023-585-10
 10
-55.0
 20
510.0
 30
0.0
  0
TEXT
  5
18E
100
AcDbEntity
  8
TEXT
100
AcDbText
 10
-93.0
 20
466.442857
 30
0.0
 40
5.0
  1
%%USP 55023/585/10
 50
90.0
 41
0.8
  7
ROMANS
 72
     1
 11
-93.0
 21
495.0
 31
0.0
100
AcDbText
  0
INSERT
  5
18F
100
AcDbEntity
  8
GLAS_MED_FOGNING
100
AcDbBlockReference
  2
SP55014-585-10
 10
-175.0
 20
510.0
 30
0.0
  0
INSERT
  5
19B
100
AcDbEntity
  8
GLAS_MED_FOGNING
100
AcDbBlockReference
  2
SP55010-585-10
 10
-295.0
 20
510.0
 30
0.0
  0
TEXT
  5
1A7
100
AcDbEntity
  8
TEXT
100
AcDbText
 10
-213.0
 20
466.442857
 30
0.0
 40
5.0
  1
%%USP 55014/585/10
 50
90.0
 41
0.8
  7
ROMANS
 72
     1
 11
-213.0
 21
495.0
 31
0.0
100
AcDbText
  0
TEXT
  5
1A8
100
AcDbEntity
  8
TEXT
100
AcDbText
 10
-333.0
 20
466.442857
 30
0.0
 40
5.0
  1
%%USP 55010/585/10
 50
90.0
 41
0.8
  7
ROMANS
 72
     1
 11
-333.0
 21
495.0
 31
0.0
100
AcDbText
  0
INSERT
  5
1A9
100
AcDbEntity
  8
GLAS_MED_FOGNING
100
AcDbBlockReference
  2
SP55020-585-10
 10
-175.0
 20
380.0
 30
0.0
  0
TEXT
  5
1B4
100
AcDbEntity
  8
TEXT
100
AcDbText
 10
-213.0
 20
336.442857
 30
0.0
 40
5.0
  1
%%USP 55020/585/10
 50
90.0
 41
0.8
  7
ROMANS
 72
     1
 11
-213.0
 21
365.0
 31
0.0
100
AcDbText
  0
TEXT
  5
1B5
100
AcDbEntity
  8
TEXT
100
AcDbText
 10
-333.0
 20
336.442857
 30
0.0
 40
5.0
  1
%%USP 55011/585/10
 50
90.0
 41
0.8
  7
ROMANS
 72
     1
 11
-333.0
 21
365.0
 31
0.0
100
AcDbText
  0
INSERT
  5
1B6
100
AcDbEntity
  8
GLAS_MED_FOGNING
100
AcDbBlockReference
  2
SP55011-585-10
 10
-295.0
 20
380.0
 30
0.0
  0
INSERT
  5
1C2
100
AcDbEntity
  8
GLAS_MED_FOGNING
100
AcDbBlockReference
  2
SP55024-585-10
 10
-55.0
 20
380.0
 30
0.0
  0
TEXT
  5
1CD
100
AcDbEntity
  8
TEXT
100
AcDbText
 10
-93.0
 20
336.442857
 30
0.0
 40
5.0
  1
%%USP 55024/585/10
 50
90.0
 41
0.8
  7
ROMANS
 72
     1
 11
-93.0
 21
365.0
 31
0.0
100
AcDbText
  0
ENDSEC
  0
SECTION
  2
OBJECTS
  0
DICTIONARY
  5
1A
100
AcDbDictionary
  3
ACAD_GROUP
350
18
  3
ACAD_LAYOUT
350
1D7
  3
ACAD_MLINESTYLE
350
19
  3
ACAD_PLOTSETTINGS
350
1D8
  3
ACAD_PLOTSTYLENAME
350
1D5
  3
ACDBHEADERROUNDTRIPXREC
350
1E1
  0
DICTIONARY
  5
1DF
100
AcDbDictionary
280
     1
  3
ACAD_XREC_ROUNDTRIP
360
1E0
  0
DICTIONARY
  5
201
100
AcDbDictionary
280
     1
  3
ACAD_LAYOUTSELFREF
360
202
  0
DICTIONARY
  5
203
100
AcDbDictionary
280
     1
  3
ACAD_LAYOUTSELFREF
360
204
  0
DICTIONARY
  5
18
102
{ACAD_REACTORS
330
1A
102
}
100
AcDbDictionary
  0
DICTIONARY
  5
1D7
102
{ACAD_XDICTIONARY
360
208
102
}
102
{ACAD_REACTORS
330
1A
102
}
100
AcDbDictionary
  3
LAYOUT1
350
1DA
  3
MODEL
350
1D9
  0
DICTIONARY
  5
19
102
{ACAD_REACTORS
330
1A
102
}
100
AcDbDictionary
  3
STANDARD
350
1C
  0
DICTIONARY
  5
1D8
102
{ACAD_REACTORS
330
1A
102
}
100
AcDbDictionary
  0
ACAD_PROXY_OBJECT
  5
1D5
102
{ACAD_REACTORS
330
1A
102
}
100
AcDbProxyObject
 90
      499
 91
      502
 93
       86
310
405010041939BDC9B585B0
350
1D6
340
1D6
 94
        0
  0
DICTIONARY
  5
1E1
102
{ACAD_REACTORS
330
1A
102
}
100
AcDbDictionary
  3
CEPSNTYPE
350
1EB
  3
FINGERPRINTGUID
350
1EC
  3
HYPERLINKBASE
350
1E4
  3
INSUNITS
350
1EA
  3
LAYOUTDICT
350
1E6
  3
LWETCUNION
350
1E9
  3
PLOTSETDICT
350
1E7
  3
PLOTSTYLNAMDICT
350
1E8
  3
PSVPSCALE
350
1EE
  3
PUCSBASE
350
1F1
  3
PUCSORGBACK
350
1F7
  3
PUCSORGBOTTOM
350
1F3
  3
PUCSORGFRONT
350
1F6
  3
PUCSORGLEFT
350
1F4
  3
PUCSORGRIGHT
350
1F5
  3
PUCSORGTOP
350
1F2
  3
PUCSORTHOREF
350
1EF
  3
PUCSORTHOVIEW
350
1F0
  3
STYLESHEET
350
1E5
  3
TSTACKALIGN
350
1E2
  3
TSTACKSIZE
350
1E3
  3
UCSBASE
350
1FA
  3
UCSORGBACK
350
200
  3
UCSORGBOTTOM
350
1FC
  3
UCSORGFRONT
350
1FF
  3
UCSORGLEFT
350
1FD
  3
UCSORGRIGHT
350
1FE
  3
UCSORGTOP
350
1FB
  3
UCSORTHOREF
350
1F8
  3
UCSORTHOVIEW
350
1F9
  3
VERSIONGUID
350
1ED
  0
XRECORD
  5
1E0
102
{ACAD_REACTORS
330
1DF
102
}
100
AcDbXrecord
102
EXTNAMES
  1
*ACTIVE
  2
*Active
102
UCS
 74
     0
 71
     1
 10
0.0
 20
0.0
 30
0.0
 10
1.0
 20
0.0
 30
0.0
 10
0.0
 20
1.0
 30
0.0
146
0.0
 79
     0
102
VIEW
281
     0
  0
XRECORD
  5
202
102
{ACAD_REACTORS
330
201
102
}
100
AcDbXrecord
340
2
  0
XRECORD
  5
204
102
{ACAD_REACTORS
330
203
102
}
100
AcDbXrecord
340
7
  0
DICTIONARY
  5
208
100
AcDbDictionary
280
     1
  3
ACAD_XREC_ROUNDTRIP
360
209
  0
ACAD_PROXY_OBJECT
  5
1DA
102
{ACAD_REACTORS
330
1D7
102
}
100
AcDbProxyObject
 90
      499
 91
      504
 93
     1092
310
91D4850204C617365724A65742034562F344D5620506F73745363726970742C00AAAAAA416AA591069074C61796F75743140501A800000000000000000000000000000000000000000101E900000000000241C902A6A6A10232D5E076BC5510408CB5781DAF154410232D5E076BC5510408CB5781DAF15C410232D5E076BC5
310
710408CB5781DAF15C41
330
7
330
0
340
0
340
0
 94
        0
  0
ACAD_PROXY_OBJECT
  5
1D9
102
{ACAD_REACTORS
330
1D7
102
}
100
AcDbProxyObject
 90
      499
 91
      504
 93
      668
310
91D4850204C617365724A65742034562F344D5620506F73745363726970742C01AAAAAAAAA5A69054D6F64656C901A800000000000000000000000000000000000000000000A1000000000000008902A6A6AAAA0
330
2
330
0
340
0
340
0
 94
        0
  0
MLINESTYLE
  5
1C
102
{ACAD_REACTORS
330
19
102
}
100
AcDbMlineStyle
  2
STANDARD
 70
     0
  3

 62
     0
 51
90.0
 52
90.0
 71
     2
 49
0.5
 62
   256
  6
BYLAYER
 49
-0.5
 62
   256
  6
BYLAYER
  0
ACAD_PROXY_OBJECT
  5
1D6
102
{ACAD_REACTORS
330
1D5
102
}
100
AcDbProxyObject
 90
      499
 91
      503
 93
        0
 94
        0
  0
XRECORD
  5
1EB
102
{ACAD_REACTORS
330
1E1
102
}
100
AcDbXrecord
 90
        0
  0
XRECORD
  5
1EC
102
{ACAD_REACTORS
330
1E1
102
}
100
AcDbXrecord
  1
{DCFA0834-0BE8-11D6-AA0B-00D0B7E2A69D}
  0
XRECORD
  5
1E4
102
{ACAD_REACTORS
330
1E1
102
}
100
AcDbXrecord
  1

  0
XRECORD
  5
1EA
102
{ACAD_REACTORS
330
1E1
102
}
100
AcDbXrecord
 90
        0
  0
XRECORD
  5
1E6
102
{ACAD_REACTORS
330
1E1
102
}
100
AcDbXrecord
340
1D7
  0
XRECORD
  5
1E9
102
{ACAD_REACTORS
330
1E1
102
}
100
AcDbXrecord
 90
    14877
  0
XRECORD
  5
1E7
102
{ACAD_REACTORS
330
1E1
102
}
100
AcDbXrecord
340
1D8
  0
XRECORD
  5
1E8
102
{ACAD_REACTORS
330
1E1
102
}
100
AcDbXrecord
340
1D5
  0
XRECORD
  5
1EE
102
{ACAD_REACTORS
330
1E1
102
}
100
AcDbXrecord
 40
0.0
  0
XRECORD
  5
1F1
102
{ACAD_REACTORS
330
1E1
102
}
100
AcDbXrecord
340
0
  0
XRECORD
  5
1F7
102
{ACAD_REACTORS
330
1E1
102
}
100
AcDbXrecord
 10
0.0
 20
0.0
 30
0.0
  0
XRECORD
  5
1F3
102
{ACAD_REACTORS
330
1E1
102
}
100
AcDbXrecord
 10
0.0
 20
0.0
 30
0.0
  0
XRECORD
  5
1F6
102
{ACAD_REACTORS
330
1E1
102
}
100
AcDbXrecord
 10
0.0
 20
0.0
 30
0.0
  0
XRECORD
  5
1F4
102
{ACAD_REACTORS
330
1E1
102
}
100
AcDbXrecord
 10
0.0
 20
0.0
 30
0.0
  0
XRECORD
  5
1F5
102
{ACAD_REACTORS
330
1E1
102
}
100
AcDbXrecord
 10
0.0
 20
0.0
 30
0.0
  0
XRECORD
  5
1F2
102
{ACAD_REACTORS
330
1E1
102
}
100
AcDbXrecord
 10
0.0
 20
0.0
 30
0.0
  0
XRECORD
  5
1EF
102
{ACAD_REACTORS
330
1E1
102
}
100
AcDbXrecord
340
0
  0
XRECORD
  5
1F0
102
{ACAD_REACTORS
330
1E1
102
}
100
AcDbXrecord
 70
     0
  0
XRECORD
  5
1E5
102
{ACAD_REACTORS
330
1E1
102
}
100
AcDbXrecord
  1

  0
XRECORD
  5
1E2
102
{ACAD_REACTORS
330
1E1
102
}
100
AcDbXrecord
 90
        1
  0
XRECORD
  5
1E3
102
{ACAD_REACTORS
330
1E1
102
}
100
AcDbXrecord
 90
       70
  0
XRECORD
  5
1FA
102
{ACAD_REACTORS
330
1E1
102
}
100
AcDbXrecord
340
0
  0
XRECORD
  5
200
102
{ACAD_REACTORS
330
1E1
102
}
100
AcDbXrecord
 10
0.0
 20
0.0
 30
0.0
  0
XRECORD
  5
1FC
102
{ACAD_REACTORS
330
1E1
102
}
100
AcDbXrecord
 10
0.0
 20
0.0
 30
0.0
  0
XRECORD
  5
1FF
102
{ACAD_REACTORS
330
1E1
102
}
100
AcDbXrecord
 10
0.0
 20
0.0
 30
0.0
  0
XRECORD
  5
1FD
102
{ACAD_REACTORS
330
1E1
102
}
100
AcDbXrecord
 10
0.0
 20
0.0
 30
0.0
  0
XRECORD
  5
1FE
102
{ACAD_REACTORS
330
1E1
102
}
100
AcDbXrecord
 10
0.0
 20
0.0
 30
0.0
  0
XRECORD
  5
1FB
102
{ACAD_REACTORS
330
1E1
102
}
100
AcDbXrecord
 10
0.0
 20
0.0
 30
0.0
  0
XRECORD
  5
1F8
102
{ACAD_REACTORS
330
1E1
102
}
100
AcDbXrecord
340
0
  0
XRECORD
  5
1F9
102
{ACAD_REACTORS
330
1E1
102
}
100
AcDbXrecord
 70
     0
  0
XRECORD
  5
1ED
102
{ACAD_REACTORS
330
1E1
102
}
100
AcDbXrecord
  1
{DCFA0836-0BE8-11D6-AA0B-00D0B7E2A69D}
  0
XRECORD
  5
209
102
{ACAD_REACTORS
330
208
102
}
100
AcDbXrecord
102
EXTNAMES
  1
LAYOUT1
  2
Layout1
  1
MODEL
  2
Model
  0
ENDSEC
  0
EOF
