  0
SECTION
  2
HEADER
  9
$ACADVER
  1
AC1014
  9
$ACADMAINTVER
 70
     0
  9
$DWGCODEPAGE
  3
ANSI_1252
  9
$INSBASE
 10
-5.0
 20
20.0
 30
0.0
  9
$EXTMIN
 10
-380.0
 20
23.333333
 30
0.0
  9
$EXTMAX
 10
-20.0
 20
560.0
 30
0.0
  9
$LIMMIN
 10
0.0
 20
0.0
  9
$LIMMAX
 10
840.0
 20
600.0
  9
$ORTHOMODE
 70
     0
  9
$REGENMODE
 70
     1
  9
$FILLMODE
 70
     1
  9
$QTEXTMODE
 70
     0
  9
$MIRRTEXT
 70
     1
  9
$DRAGMODE
 70
     2
  9
$LTSCALE
 40
5.0
  9
$OSMODE
 70
   547
  9
$ATTMODE
 70
     1
  9
$TEXTSIZE
 40
3.15
  9
$TRACEWID
 40
0.05
  9
$TEXTSTYLE
  7
STANDARD
  9
$CLAYER
  8
0
  9
$CELTYPE
  6
BYLAYER
  9
$CECOLOR
 62
   256
  9
$CELTSCALE
 40
1.0
  9
$DELOBJ
 70
     1
  9
$DISPSILH
 70
     0
  9
$DIMSCALE
 40
1.0
  9
$DIMASZ
 40
0.0
  9
$DIMEXO
 40
1.0
  9
$DIMDLI
 40
10.0
  9
$DIMRND
 40
0.0
  9
$DIMDLE
 40
0.0
  9
$DIMEXE
 40
2.0
  9
$DIMTP
 40
0.0
  9
$DIMTM
 40
0.0
  9
$DIMTXT
 40
3.5
  9
$DIMCEN
 40
2.5
  9
$DIMTSZ
 40
1.0
  9
$DIMTOL
 70
     0
  9
$DIMLIM
 70
     0
  9
$DIMTIH
 70
     0
  9
$DIMTOH
 70
     0
  9
$DIMSE1
 70
     0
  9
$DIMSE2
 70
     0
  9
$DIMTAD
 70
     1
  9
$DIMZIN
 70
     8
  9
$DIMBLK
  1

  9
$DIMASO
 70
     1
  9
$DIMSHO
 70
     1
  9
$DIMPOST
  1

  9
$DIMAPOST
  1

  9
$DIMALT
 70
     0
  9
$DIMALTD
 70
     2
  9
$DIMALTF
 40
25.4
  9
$DIMLFAC
 40
1.0
  9
$DIMTOFL
 70
     1
  9
$DIMTVP
 40
0.0
  9
$DIMTIX
 70
     0
  9
$DIMSOXD
 70
     0
  9
$DIMSAH
 70
     0
  9
$DIMBLK1
  1

  9
$DIMBLK2
  1

  9
$DIMSTYLE
  2
STANDARD
  9
$DIMCLRD
 70
     0
  9
$DIMCLRE
 70
     0
  9
$DIMCLRT
 70
     6
  9
$DIMTFAC
 40
1.0
  9
$DIMGAP
 40
0.1
  9
$DIMJUST
 70
     0
  9
$DIMSD1
 70
     0
  9
$DIMSD2
 70
     0
  9
$DIMTOLJ
 70
     1
  9
$DIMTZIN
 70
     0
  9
$DIMALTZ
 70
     0
  9
$DIMALTTZ
 70
     0
  9
$DIMFIT
 70
     3
  9
$DIMUPT
 70
     0
  9
$DIMUNIT
 70
     2
  9
$DIMDEC
 70
     4
  9
$DIMTDEC
 70
     4
  9
$DIMALTU
 70
     2
  9
$DIMALTTD
 70
     2
  9
$DIMTXSTY
  7
STANDARD
  9
$DIMAUNIT
 70
     0
  9
$LUNITS
 70
     2
  9
$LUPREC
 70
     2
  9
$SKETCHINC
 40
0.1
  9
$FILLETRAD
 40
0.5
  9
$AUNITS
 70
     0
  9
$AUPREC
 70
     4
  9
$MENU
  1
acad
  9
$ELEVATION
 40
0.0
  9
$PELEVATION
 40
0.0
  9
$THICKNESS
 40
0.0
  9
$LIMCHECK
 70
     0
  9
$BLIPMODE
 70
     0
  9
$CHAMFERA
 40
10.0
  9
$CHAMFERB
 40
10.0
  9
$CHAMFERC
 40
0.0
  9
$CHAMFERD
 40
0.0
  9
$SKPOLY
 70
     0
  9
$TDCREATE
 40
2450609.790522106
  9
$TDUPDATE
 40
2452293.356247106
  9
$TDINDWG
 40
0.0025790509
  9
$TDUSRTIMER
 40
0.0025790509
  9
$USRTIMER
 70
     1
  9
$ANGBASE
 50
0.0
  9
$ANGDIR
 70
     0
  9
$PDMODE
 70
    35
  9
$PDSIZE
 40
0.0
  9
$PLINEWID
 40
0.0
  9
$COORDS
 70
     1
  9
$SPLFRAME
 70
     0
  9
$SPLINETYPE
 70
     6
  9
$SPLINESEGS
 70
     8
  9
$ATTDIA
 70
     0
  9
$ATTREQ
 70
     1
  9
$HANDLING
 70
     1
  9
$HANDSEED
  5
159
  9
$SURFTAB1
 70
     6
  9
$SURFTAB2
 70
     6
  9
$SURFTYPE
 70
     6
  9
$SURFU
 70
     6
  9
$SURFV
 70
     6
  9
$UCSNAME
  2

  9
$UCSORG
 10
0.0
 20
0.0
 30
0.0
  9
$UCSXDIR
 10
1.0
 20
0.0
 30
0.0
  9
$UCSYDIR
 10
0.0
 20
1.0
 30
0.0
  9
$PUCSNAME
  2

  9
$PUCSORG
 10
0.0
 20
0.0
 30
0.0
  9
$PUCSXDIR
 10
1.0
 20
0.0
 30
0.0
  9
$PUCSYDIR
 10
0.0
 20
1.0
 30
0.0
  9
$USERI1
 70
     0
  9
$USERI2
 70
     0
  9
$USERI3
 70
     0
  9
$USERI4
 70
     0
  9
$USERI5
 70
     0
  9
$USERR1
 40
0.0
  9
$USERR2
 40
0.0
  9
$USERR3
 40
0.0
  9
$USERR4
 40
0.0
  9
$USERR5
 40
0.0
  9
$WORLDVIEW
 70
     1
  9
$SHADEDGE
 70
     3
  9
$SHADEDIF
 70
    70
  9
$TILEMODE
 70
     1
  9
$MAXACTVP
 70
    16
  9
$PINSBASE
 10
0.0
 20
0.0
 30
0.0
  9
$PLIMCHECK
 70
     0
  9
$PEXTMIN
 10
1.000000E+20
 20
1.000000E+20
 30
1.000000E+20
  9
$PEXTMAX
 10
-1.000000E+20
 20
-1.000000E+20
 30
-1.000000E+20
  9
$PLIMMIN
 10
0.0
 20
0.0
  9
$PLIMMAX
 10
420.0
 20
297.0
  9
$UNITMODE
 70
     0
  9
$VISRETAIN
 70
     0
  9
$PLINEGEN
 70
     0
  9
$PSLTSCALE
 70
     1
  9
$TREEDEPTH
 70
  3020
  9
$PICKSTYLE
 70
     1
  9
$CMLSTYLE
  2
STANDARD
  9
$CMLJUST
 70
     0
  9
$CMLSCALE
 40
1.0
  9
$PROXYGRAPHICS
 70
     1
  9
$MEASUREMENT
 70
     0
  0
ENDSEC
  0
SECTION
  2
CLASSES
  0
CLASS
  1
LWPOLYLINE
  2
AcDbPolyline
  3
"AutoCAD"
 90
        0
280
     0
281
     1
  0
CLASS
  1
ACDBDICTIONARYWDFLT
  2
AcDbDictionaryWithDefault
  3
AutoCAD 2000
 90
        0
280
     0
281
     0
  0
CLASS
  1
ACDBPLACEHOLDER
  2
AcDbPlaceHolder
  3
AutoCAD 2000
 90
        0
280
     0
281
     0
  0
CLASS
  1
LAYOUT
  2
AcDbLayout
  3
AutoCAD 2000
 90
        0
280
     0
281
     0
  0
CLASS
  1
LONG_TRANSACTION
  2
AcDbLongTransaction
  3
AutoCAD 2000
 90
        0
280
     0
281
     0
  0
CLASS
  1
LWPOLYLINE
  2
AcDbPolyline
  3
"AutoCAD"
 90
        0
280
     0
281
     1
  0
CLASS
  1
HATCH
  2
AcDbHatch
  3
"ACAD_SEDONA"
 90
        0
280
     0
281
     1
  0
CLASS
  1
XRECORD
  2
AcDbXrecord
  3
"<Built In>"
 90
        0
280
     0
281
     0
  0
ENDSEC
  0
SECTION
  2
TABLES
  0
TABLE
  2
VPORT
  5
12
100
AcDbSymbolTable
 70
     1
  0
VPORT
  5
12C
102
{ACAD_XDICTIONARY
360
12D
102
}
100
AcDbSymbolTableRecord
100
AcDbViewportTableRecord
  2
*ACTIVE
 70
     0
 10
0.0
 20
0.0
 11
1.0
 21
1.0
 12
-115.518514
 22
276.302883
 13
0.0
 23
0.0
 14
5.0
 24
5.0
 15
10.0
 25
10.0
 16
0.0
 26
0.0
 36
1.0
 17
0.0
 27
0.0
 37
0.0
 40
717.913044
 41
1.630435
 42
50.0
 43
0.0
 44
0.0
 50
0.0
 51
0.0
 71
     0
 72
   100
 73
     1
 74
     1
 75
     1
 76
     0
 77
     0
 78
     0
  0
ENDTAB
  0
TABLE
  2
LTYPE
  5
D
100
AcDbSymbolTable
 70
     2
  0
LTYPE
  5
E
100
AcDbSymbolTableRecord
100
AcDbLinetypeTableRecord
  2
BYBLOCK
 70
     0
  3

 72
    65
 73
     0
 40
0.0
  0
LTYPE
  5
F
100
AcDbSymbolTableRecord
100
AcDbLinetypeTableRecord
  2
BYLAYER
 70
     0
  3

 72
    65
 73
     0
 40
0.0
  0
LTYPE
  5
5
100
AcDbSymbolTableRecord
100
AcDbLinetypeTableRecord
  2
CONTINUOUS
 70
     0
  3
Solid line
 72
    65
 73
     0
 40
0.0
  0
LTYPE
  5
22
100
AcDbSymbolTableRecord
100
AcDbLinetypeTableRecord
  2
DASHDOT
 70
     0
  3
__ . __ . __ . __ . __ . __ . __ . __ . __ . __
 72
    65
 73
     4
 40
1.0
 49
0.5
 74
     0
 49
-0.25
 74
     0
 49
0.0
 74
     0
 49
-0.25
 74
     0
  0
ENDTAB
  0
TABLE
  2
LAYER
  5
A
100
AcDbSymbolTable
 70
     6
  0
LAYER
  5
4
100
AcDbSymbolTableRecord
100
AcDbLayerTableRecord
  2
0
 70
     0
 62
     7
  6
CONTINUOUS
  0
LAYER
  5
35
100
AcDbSymbolTableRecord
100
AcDbLayerTableRecord
  2
STALPROFIL
 70
     0
 62
     1
  6
CONTINUOUS
  0
LAYER
  5
33
100
AcDbSymbolTableRecord
100
AcDbLayerTableRecord
  2
SPKONTUR
 70
     0
 62
     7
  6
CONTINUOUS
  0
LAYER
  5
37
100
AcDbSymbolTableRecord
100
AcDbLayerTableRecord
  2
GLAS_MED_FOGNING
 70
     0
 62
     2
  6
CONTINUOUS
  0
LAYER
  5
7F
100
AcDbSymbolTableRecord
100
AcDbLayerTableRecord
  2
TEXT
 70
     0
 62
     6
  6
CONTINUOUS
  0
LAYER
  5
20
100
AcDbSymbolTableRecord
100
AcDbLayerTableRecord
  2
RAM
 70
     0
 62
     5
  6
CONTINUOUS
  0
ENDTAB
  0
TABLE
  2
STYLE
  5
B
100
AcDbSymbolTable
 70
     2
  0
STYLE
  5
C
100
AcDbSymbolTableRecord
100
AcDbTextStyleTableRecord
  2
STANDARD
 70
     0
 40
0.0
 41
1.0
 50
0.0
 71
     0
 42
5.0
  3
txt
  4

  0
STYLE
  5
80
100
AcDbSymbolTableRecord
100
AcDbTextStyleTableRecord
  2
ROMANS
 70
     0
 40
0.0
 41
0.8
 50
0.0
 71
     0
 42
5.0
  3
romans
  4

  0
ENDTAB
  0
TABLE
  2
VIEW
  5
10
100
AcDbSymbolTable
 70
     0
  0
ENDTAB
  0
TABLE
  2
UCS
  5
11
100
AcDbSymbolTable
 70
     0
  0
ENDTAB
  0
TABLE
  2
APPID
  5
14
100
AcDbSymbolTable
 70
     1
  0
APPID
  5
15
100
AcDbSymbolTableRecord
100
AcDbRegAppTableRecord
  2
ACAD
 70
     0
  0
ENDTAB
  0
TABLE
  2
DIMSTYLE
  5
16
100
AcDbSymbolTable
 70
     1
  0
DIMSTYLE
105
1C
100
AcDbSymbolTableRecord
100
AcDbDimStyleTableRecord
  2
STANDARD
 70
     0
  3

  4

  5

  6

  7

 40
1.0
 41
0.18
 42
0.0625
 43
0.38
 44
0.18
 45
0.0
 46
0.0
 47
0.0
 48
0.0
140
0.18
141
0.09
142
0.0
143
25.4
144
1.0
145
0.0
146
1.0
147
0.09
 71
     0
 72
     0
 73
     1
 74
     1
 75
     0
 76
     0
 77
     0
 78
     0
170
     0
171
     2
172
     0
173
     0
174
     0
175
     0
176
     0
177
     0
178
     0
270
     2
271
     4
272
     4
273
     2
274
     2
340
C
275
     0
280
     0
281
     0
282
     0
283
     1
284
     0
285
     0
286
     0
287
     3
288
     0
  0
ENDTAB
  0
TABLE
  2
BLOCK_RECORD
  5
1
100
AcDbSymbolTable
 70
    18
  0
BLOCK_RECORD
  5
2
102
{ACAD_XDICTIONARY
360
14F
102
}
100
AcDbSymbolTableRecord
100
AcDbBlockTableRecord
  2
*MODEL_SPACE
  0
BLOCK_RECORD
  5
7
102
{ACAD_XDICTIONARY
360
151
102
}
100
AcDbSymbolTableRecord
100
AcDbBlockTableRecord
  2
*PAPER_SPACE
  0
BLOCK_RECORD
  5
1E
100
AcDbSymbolTableRecord
100
AcDbBlockTableRecord
  2
SIDA
  0
BLOCK_RECORD
  5
6C
100
AcDbSymbolTableRecord
100
AcDbBlockTableRecord
  2
*X1
  0
BLOCK_RECORD
  5
69
100
AcDbSymbolTableRecord
100
AcDbBlockTableRecord
  2
SP40010
  0
BLOCK_RECORD
  5
38
100
AcDbSymbolTableRecord
100
AcDbBlockTableRecord
  2
*X3
  0
BLOCK_RECORD
  5
DD
100
AcDbSymbolTableRecord
100
AcDbBlockTableRecord
  2
SP75010-750-10
  0
BLOCK_RECORD
  5
EB
100
AcDbSymbolTableRecord
100
AcDbBlockTableRecord
  2
SP75011-750-10
  0
BLOCK_RECORD
  5
83
100
AcDbSymbolTableRecord
100
AcDbBlockTableRecord
  2
SP75012-750-10
  0
BLOCK_RECORD
  5
D1
100
AcDbSymbolTableRecord
100
AcDbBlockTableRecord
  2
SP75014-750-10
  0
BLOCK_RECORD
  5
AB
100
AcDbSymbolTableRecord
100
AcDbBlockTableRecord
  2
SP75020-750-10
  0
BLOCK_RECORD
  5
31
100
AcDbSymbolTableRecord
100
AcDbBlockTableRecord
  2
SP75021-750-10
  0
BLOCK_RECORD
  5
105
100
AcDbSymbolTableRecord
100
AcDbBlockTableRecord
  2
SP75022-750-10
  0
BLOCK_RECORD
  5
112
100
AcDbSymbolTableRecord
100
AcDbBlockTableRecord
  2
SP75023-750-10
  0
BLOCK_RECORD
  5
C6
100
AcDbSymbolTableRecord
100
AcDbBlockTableRecord
  2
SP75024-750-10
  0
BLOCK_RECORD
  5
B7
100
AcDbSymbolTableRecord
100
AcDbBlockTableRecord
  2
SP75025-750-10
  0
BLOCK_RECORD
  5
61
100
AcDbSymbolTableRecord
100
AcDbBlockTableRecord
  2
SP75013-750-10
  0
BLOCK_RECORD
  5
F9
100
AcDbSymbolTableRecord
100
AcDbBlockTableRecord
  2
SP75015-750-10
  0
BLOCK_RECORD
  5
94
100
AcDbSymbolTableRecord
100
AcDbBlockTableRecord
  2
*X16
  0
BLOCK_RECORD
  5
90
100
AcDbSymbolTableRecord
100
AcDbBlockTableRecord
  2
SP75020-20-10
  0
ENDTAB
  0
ENDSEC
  0
SECTION
  2
BLOCKS
  0
BLOCK
  5
3
100
AcDbEntity
  8
0
100
AcDbBlockBegin
  2
*MODEL_SPACE
 70
     0
 10
0.0
 20
0.0
 30
0.0
  3
*MODEL_SPACE
  1

  0
ENDBLK
  5
6
100
AcDbEntity
  8
0
100
AcDbBlockEnd
  0
BLOCK
  5
8
100
AcDbEntity
 67
     1
  8
0
100
AcDbBlockBegin
  2
*PAPER_SPACE
 70
     0
 10
0.0
 20
0.0
 30
0.0
  3
*PAPER_SPACE
  1

  0
ENDBLK
  5
9
100
AcDbEntity
 67
     1
  8
0
100
AcDbBlockEnd
  0
BLOCK
  5
2E
100
AcDbEntity
  8
0
100
AcDbBlockBegin
  2
SIDA
 70
     0
 10
0.0
 20
0.0
 30
0.0
  3
SIDA
  1

  0
LWPOLYLINE
  5
1F
100
AcDbEntity
  8
RAM
 62
     5
100
AcDbPolyline
 90
        4
 70
     1
 43
0.0
 10
-20.0
 20
35.0
 10
-20.0
 20
560.0
 10
-380.0
 20
560.0
 10
-380.0
 20
35.0
  0
LINE
  5
21
100
AcDbEntity
  8
RAM
  6
DASHDOT
 62
     6
100
AcDbLine
 10
-260.0
 20
307.5
 30
0.0
 11
-260.0
 21
287.5
 31
0.0
  0
LINE
  5
23
100
AcDbEntity
  8
RAM
  6
DASHDOT
 62
     6
100
AcDbLine
 10
-270.0
 20
167.5
 30
0.0
 11
-250.0
 21
167.5
 31
0.0
  0
LINE
  5
24
100
AcDbEntity
  8
RAM
  6
DASHDOT
 62
     6
100
AcDbLine
 10
-260.0
 20
177.5
 30
0.0
 11
-260.0
 21
157.5
 31
0.0
  0
LINE
  5
25
100
AcDbEntity
  8
RAM
  6
DASHDOT
 62
     6
100
AcDbLine
 10
-270.0
 20
297.5
 30
0.0
 11
-250.0
 21
297.5
 31
0.0
  0
LINE
  5
26
100
AcDbEntity
  8
RAM
  6
DASHDOT
 62
     6
100
AcDbLine
 10
-270.0
 20
427.5
 30
0.0
 11
-250.0
 21
427.5
 31
0.0
  0
LINE
  5
27
100
AcDbEntity
  8
RAM
  6
DASHDOT
 62
     6
100
AcDbLine
 10
-260.0
 20
437.5
 30
0.0
 11
-260.0
 21
417.5
 31
0.0
  0
LINE
  5
28
100
AcDbEntity
  8
RAM
  6
DASHDOT
 62
     6
100
AcDbLine
 10
-140.0
 20
307.5
 30
0.0
 11
-140.0
 21
287.5
 31
0.0
  0
LINE
  5
29
100
AcDbEntity
  8
RAM
  6
DASHDOT
 62
     6
100
AcDbLine
 10
-140.0
 20
177.5
 30
0.0
 11
-140.0
 21
157.5
 31
0.0
  0
LINE
  5
2A
100
AcDbEntity
  8
RAM
  6
DASHDOT
 62
     6
100
AcDbLine
 10
-150.0
 20
167.5
 30
0.0
 11
-130.0
 21
167.5
 31
0.0
  0
LINE
  5
2B
100
AcDbEntity
  8
RAM
  6
DASHDOT
 62
     6
100
AcDbLine
 10
-150.0
 20
297.5
 30
0.0
 11
-130.0
 21
297.5
 31
0.0
  0
LINE
  5
2C
100
AcDbEntity
  8
RAM
  6
DASHDOT
 62
     6
100
AcDbLine
 10
-150.0
 20
427.5
 30
0.0
 11
-130.0
 21
427.5
 31
0.0
  0
LINE
  5
2D
100
AcDbEntity
  8
RAM
  6
DASHDOT
 62
     6
100
AcDbLine
 10
-140.0
 20
437.5
 30
0.0
 11
-140.0
 21
417.5
 31
0.0
  0
ENDBLK
  5
2F
100
AcDbEntity
  8
0
100
AcDbBlockEnd
  0
BLOCK
  5
77
100
AcDbEntity
  8
0
100
AcDbBlockBegin
  2
*X1
 70
     1
 10
0.0
 20
0.0
 30
0.0
  3
*X1
  1

  0
LINE
  5
6D
100
AcDbEntity
  8
0
 62
     0
100
AcDbLine
 10
418.490967
 20
310.1066
 30
0.0
 11
421.167604
 21
313.296491
 31
0.0
  0
LINE
  5
6E
100
AcDbEntity
  8
0
 62
     0
100
AcDbLine
 10
423.349042
 20
315.896228
 30
0.0
 11
424.080112
 21
316.767482
 31
0.0
  0
LINE
  5
6F
100
AcDbEntity
  8
0
 62
     0
100
AcDbLine
 10
422.064957
 20
314.365914
 30
0.0
 11
422.918328
 21
315.382923
 31
0.0
  0
LINE
  5
70
100
AcDbEntity
  8
0
 62
     0
100
AcDbLine
 10
418.226804
 20
311.736438
 30
0.0
 11
420.663771
 21
314.640701
 31
0.0
  0
LINE
  5
71
100
AcDbEntity
  8
0
 62
     0
100
AcDbLine
 10
421.575811
 20
315.727628
 30
0.0
 11
422.569739
 21
316.912145
 31
0.0
  0
LINE
  5
72
100
AcDbEntity
  8
0
 62
     0
100
AcDbLine
 10
417.857133
 20
313.240535
 30
0.0
 11
420.696467
 21
316.624321
 31
0.0
  0
LINE
  5
73
100
AcDbEntity
  8
0
 62
     0
100
AcDbLine
 10
416.898348
 20
314.042554
 30
0.0
 11
418.169933
 21
315.55797
 31
0.0
  0
LINE
  5
74
100
AcDbEntity
  8
0
 62
     0
100
AcDbLine
 10
418.751032
 20
308.471878
 30
0.0
 11
420.838188
 21
310.959254
 31
0.0
  0
LINE
  5
75
100
AcDbEntity
  8
0
 62
     0
100
AcDbLine
 10
419.246616
 20
307.117837
 30
0.0
 11
421.130916
 21
309.363458
 31
0.0
  0
LINE
  5
76
100
AcDbEntity
  8
0
 62
     0
100
AcDbLine
 10
421.204244
 20
307.506193
 30
0.0
 11
422.301392
 21
308.813723
 31
0.0
  0
ENDBLK
  5
78
100
AcDbEntity
  8
0
100
AcDbBlockEnd
  0
BLOCK
  5
79
100
AcDbEntity
  8
0
100
AcDbBlockBegin
  2
SP40010
 70
     0
 10
0.0
 20
0.0
 30
0.0
  3
SP40010
  1

  0
LWPOLYLINE
  5
6A
100
AcDbEntity
  8
GLAS_MED_FOGNING
100
AcDbPolyline
 90
       27
 70
     0
 43
0.0
 10
-8.905528
 20
18.626989
 10
-11.04147
 20
18.263989
 42
0.47758
 10
-11.422076
 20
17.585713
 10
-11.282581
 20
17.236207
 42
-1.066974
 10
-12.209806
 20
16.934105
 10
-12.855648
 20
19.46147
 10
-12.95764
 20
20.795213
 42
-0.851446
 10
-12.019738
 20
21.021209
 42
0.34625
 10
-11.479327
 20
20.720659
 10
-7.420891
 20
21.324081
 42
0.253088
 10
-6.015863
 20
22.369183
 10
-5.627377
 20
23.238611
 42
-0.653084
 10
-5.261375
 20
23.225047
 10
-4.446993
 20
21.166246
 42
0.887127
 10
-4.490032
 20
20.572081
 42
-0.212108
 10
-4.15725
 20
20.339586
 42
-0.212173
 10
-3.459619
 20
14.779472
 42
-0.418069
 10
-3.711416
 20
14.646619
 10
-4.293984
 20
14.830968
 42
-0.397156
 10
-4.360758
 20
14.950843
 42
0.194939
 10
-4.977068
 20
19.415768
 42
1.053912
 10
-5.578133
 20
19.061579
 10
-4.456808
 20
16.774085
 42
-0.459605
 10
-4.576654
 20
16.495183
 10
-5.081649
 20
16.337131
 42
-0.312484
 10
-5.190355
 20
16.371046
 42
0.373013
 10
-9.071884
 20
18.598717
  0
INSERT
  5
6B
100
AcDbEntity
  8
GLAS_MED_FOGNING
100
AcDbBlockReference
  2
*X1
 10
-314.5231
 20
443.46412
 30
0.0
 50
269.250599
1001
ACAD
1000
HATCH
1002
{
1070
    16
1000
ANSI31
1040
10.0
1040
0.087266
1002
}
  0
ENDBLK
  5
7A
100
AcDbEntity
  8
0
100
AcDbBlockEnd
  0
BLOCK
  5
58
100
AcDbEntity
  8
0
100
AcDbBlockBegin
  2
*X3
 70
     1
 10
0.0
 20
0.0
 30
0.0
  3
*X3
  1

  0
LINE
  5
39
100
AcDbEntity
  8
0
 62
     0
100
AcDbLine
 10
-21.146165
 20
-6.412563
 30
0.0
 11
-22.466847
 21
-3.580351
 31
0.0
  0
LINE
  5
3A
100
AcDbEntity
  8
0
 62
     0
100
AcDbLine
 10
-23.787529
 20
-0.748139
 30
0.0
 11
-25.108211
 21
2.084073
 31
0.0
  0
LINE
  5
3B
100
AcDbEntity
  8
0
 62
     0
100
AcDbLine
 10
-26.428893
 20
4.916285
 30
0.0
 11
-27.749575
 21
7.748497
 31
0.0
  0
LINE
  5
3C
100
AcDbEntity
  8
0
 62
     0
100
AcDbLine
 10
-29.070257
 20
10.580708
 30
0.0
 11
-30.0
 21
12.574548
 31
0.0
  0
LINE
  5
3D
100
AcDbEntity
  8
0
 62
     0
100
AcDbLine
 10
-20.016331
 20
-16.22988
 30
0.0
 11
-21.337013
 21
-13.397668
 31
0.0
  0
LINE
  5
3E
100
AcDbEntity
  8
0
 62
     0
100
AcDbLine
 10
-22.657695
 20
-10.565457
 30
0.0
 11
-23.978377
 21
-7.733245
 31
0.0
  0
LINE
  5
3F
100
AcDbEntity
  8
0
 62
     0
100
AcDbLine
 10
-25.299059
 20
-4.901033
 30
0.0
 11
-26.619741
 21
-2.068821
 31
0.0
  0
LINE
  5
40
100
AcDbEntity
  8
0
 62
     0
100
AcDbLine
 10
-27.940423
 20
0.763391
 30
0.0
 11
-29.261105
 21
3.595603
 31
0.0
  0
LINE
  5
41
100
AcDbEntity
  8
0
 62
     0
100
AcDbLine
 10
-20.0
 20
-23.659281
 30
0.0
 11
-20.207178
 21
-23.214986
 31
0.0
  0
LINE
  5
42
100
AcDbEntity
  8
0
 62
     0
100
AcDbLine
 10
-21.52786
 20
-20.382774
 30
0.0
 11
-22.848542
 21
-17.550562
 31
0.0
  0
LINE
  5
43
100
AcDbEntity
  8
0
 62
     0
100
AcDbLine
 10
-24.169224
 20
-14.71835
 30
0.0
 11
-25.489907
 21
-11.886139
 31
0.0
  0
LINE
  5
44
100
AcDbEntity
  8
0
 62
     0
100
AcDbLine
 10
-26.810589
 20
-9.053927
 30
0.0
 11
-28.131271
 21
-6.221715
 31
0.0
  0
LINE
  5
45
100
AcDbEntity
  8
0
 62
     0
100
AcDbLine
 10
-29.451953
 20
-3.389503
 30
0.0
 11
-30.0
 21
-2.214212
 31
0.0
  0
LINE
  5
46
100
AcDbEntity
  8
0
 62
     0
100
AcDbLine
 10
-23.03939
 20
-24.535668
 30
0.0
 11
-24.360072
 21
-21.703456
 31
0.0
  0
LINE
  5
47
100
AcDbEntity
  8
0
 62
     0
100
AcDbLine
 10
-25.680754
 20
-18.871244
 30
0.0
 11
-27.001436
 21
-16.039033
 31
0.0
  0
LINE
  5
48
100
AcDbEntity
  8
0
 62
     0
100
AcDbLine
 10
-28.322118
 20
-13.206821
 30
0.0
 11
-29.6428
 21
-10.374609
 31
0.0
  0
LINE
  5
49
100
AcDbEntity
  8
0
 62
     0
100
AcDbLine
 10
-27.192284
 20
-23.024138
 30
0.0
 11
-28.512966
 21
-20.191926
 31
0.0
  0
LINE
  5
4A
100
AcDbEntity
  8
0
 62
     0
100
AcDbLine
 10
-29.833648
 20
-17.359715
 30
0.0
 11
-30.0
 21
-17.002972
 31
0.0
  0
LINE
  5
4B
100
AcDbEntity
  8
0
 62
     0
100
AcDbLine
 10
-29.718981
 20
-25.0
 30
0.0
 11
-30.0
 21
-24.397352
 31
0.0
  0
LINE
  5
4C
100
AcDbEntity
  8
0
 62
     0
100
AcDbLine
 10
-20.0
 20
-1.476141
 30
0.0
 11
-20.955317
 21
0.572543
 31
0.0
  0
LINE
  5
4D
100
AcDbEntity
  8
0
 62
     0
100
AcDbLine
 10
-22.275999
 20
3.404755
 30
0.0
 11
-23.596681
 21
6.236967
 31
0.0
  0
LINE
  5
4E
100
AcDbEntity
  8
0
 62
     0
100
AcDbLine
 10
-24.917363
 20
9.069179
 30
0.0
 11
-26.238045
 21
11.90139
 31
0.0
  0
LINE
  5
4F
100
AcDbEntity
  8
0
 62
     0
100
AcDbLine
 10
-27.558728
 20
14.733602
 30
0.0
 11
-28.87941
 21
17.565814
 31
0.0
  0
LINE
  5
50
100
AcDbEntity
  8
0
 62
     0
100
AcDbLine
 10
-20.76447
 20
7.557649
 30
0.0
 11
-22.085152
 21
10.389861
 31
0.0
  0
LINE
  5
51
100
AcDbEntity
  8
0
 62
     0
100
AcDbLine
 10
-23.405834
 20
13.222073
 30
0.0
 11
-24.726516
 21
16.054284
 31
0.0
  0
LINE
  5
52
100
AcDbEntity
  8
0
 62
     0
100
AcDbLine
 10
-26.047198
 20
18.886496
 30
0.0
 11
-27.36788
 21
21.718708
 31
0.0
  0
LINE
  5
53
100
AcDbEntity
  8
0
 62
     0
100
AcDbLine
 10
-28.688562
 20
24.55092
 30
0.0
 11
-28.897971
 21
25.0
 31
0.0
  0
LINE
  5
54
100
AcDbEntity
  8
0
 62
     0
100
AcDbLine
 10
-20.0
 20
13.312619
 30
0.0
 11
-20.573622
 21
14.542755
 31
0.0
  0
LINE
  5
55
100
AcDbEntity
  8
0
 62
     0
100
AcDbLine
 10
-21.894304
 20
17.374966
 30
0.0
 11
-23.214986
 21
20.207178
 31
0.0
  0
LINE
  5
56
100
AcDbEntity
  8
0
 62
     0
100
AcDbLine
 10
-24.535668
 20
23.03939
 30
0.0
 11
-25.449915
 21
25.0
 31
0.0
  0
LINE
  5
57
100
AcDbEntity
  8
0
 62
     0
100
AcDbLine
 10
-20.382774
 20
21.52786
 30
0.0
 11
-21.703456
 21
24.360072
 31
0.0
  0
ENDBLK
  5
59
100
AcDbEntity
  8
0
100
AcDbBlockEnd
  0
BLOCK
  5
E6
100
AcDbEntity
  8
0
100
AcDbBlockBegin
  2
SP75010-750-10
 70
     0
 10
0.0
 20
0.0
 30
0.0
  3
SP75010-750-10
  1

  0
LWPOLYLINE
  5
DE
100
AcDbEntity
  8
SPKONTUR
100
AcDbPolyline
 90
        8
 70
     1
 43
0.0
 10
-50.0
 20
23.2
 42
-0.414214
 10
-48.2
 20
25.0
 10
-31.8
 20
25.0
 42
-0.414214
 10
-30.0
 20
23.2
 10
-30.0
 20
-23.2
 42
-0.414214
 10
-31.8
 20
-25.0
 10
-48.2
 20
-25.0
 42
-0.414214
 10
-50.0
 20
-23.2
  0
LWPOLYLINE
  5
DF
100
AcDbEntity
  8
STALPROFIL
100
AcDbPolyline
 90
        8
 70
     1
 43
1.8
 10
-49.1
 20
23.2
 42
-0.414214
 10
-48.2
 20
24.1
 10
-31.8
 20
24.1
 42
-0.414214
 10
-30.9
 20
23.2
 10
-30.9
 20
-23.2
 42
-0.414214
 10
-31.8
 20
-24.1
 10
-48.2
 20
-24.1
 42
-0.414214
 10
-49.1
 20
-23.2
  0
LWPOLYLINE
  5
E0
100
AcDbEntity
  8
SPKONTUR
100
AcDbPolyline
 90
       25
 70
     0
 43
0.0
 10
-8.1
 20
18.4
 10
-8.114719
 20
18.4
 10
-8.1
 20
18.4
 42
-0.414214
 10
-5.6
 20
15.9
 10
-5.6
 20
13.8
 42
0.414214
 10
-3.8
 20
12.0
 10
-3.6
 20
12.0
 42
-0.414214
 10
0.0
 20
8.4
 10
0.0
 20
-23.2
 42
-0.414214
 10
-1.8
 20
-25.0
 10
-18.2
 20
-25.0
 42
-0.414214
 10
-20.0
 20
-23.2
 10
-20.0
 20
23.2
 42
-0.414214
 10
-18.2
 20
25.0
 10
-7.9
 20
25.0
 42
-0.414214
 10
-6.1
 20
23.2
 10
-6.1
 20
23.199
 42
-0.414214
 10
-7.899
 20
21.4
 10
-12.6
 20
21.4
 42
0.414214
 10
-14.4
 20
19.6
 10
-14.4
 20
18.2
 42
0.414214
 10
-12.6
 20
16.4
 42
0.198912
 10
-10.47868
 20
17.27868
 10
-10.236039
 20
17.52132
 42
-0.198912
 10
-8.114719
 20
18.4
  0
INSERT
  5
E1
100
AcDbEntity
  8
GLAS_MED_FOGNING
100
AcDbBlockReference
  2
*X3
 10
0.0
 20
0.0
 30
0.0
1001
ACAD
1000
HATCH
1002
{
1070
    16
1000
DASH
1040
25.0
1040
2.007129
1002
}
  0
LWPOLYLINE
  5
E2
100
AcDbEntity
  8
STALPROFIL
100
AcDbPolyline
 90
       22
 70
     1
 43
1.8
 10
-8.114719
 20
17.5
 10
-8.1
 20
17.5
 42
-0.414214
 10
-6.5
 20
15.9
 10
-6.5
 20
13.8
 42
0.414214
 10
-3.8
 20
11.1
 10
-3.6
 20
11.1
 42
-0.414214
 10
-0.9
 20
8.4
 10
-0.9
 20
-23.2
 42
-0.414214
 10
-1.8
 20
-24.1
 10
-18.2
 20
-24.1
 42
-0.414214
 10
-19.1
 20
-23.2
 10
-19.1
 20
23.2
 42
-0.414214
 10
-18.2
 20
24.1
 10
-7.9
 20
24.1
 42
-0.414214
 10
-7.0
 20
23.199
 42
-0.414214
 10
-7.899
 20
22.3
 10
-12.6
 20
22.3
 42
0.414214
 10
-15.3
 20
19.6
 10
-15.3
 20
18.2
 42
0.414214
 10
-12.6
 20
15.5
 42
0.198912
 10
-9.842284
 20
16.642284
 10
-9.599643
 20
16.884924
 42
-0.198912
  0
LWPOLYLINE
  5
E3
100
AcDbEntity
  8
GLAS_MED_FOGNING
100
AcDbPolyline
 90
        4
 70
     0
 43
0.0
 10
-20.0
 20
-23.2
 10
-20.0
 20
-25.0
 10
-30.0
 20
-25.0
 10
-30.0
 20
-23.2
  0
LWPOLYLINE
  5
E4
100
AcDbEntity
  8
GLAS_MED_FOGNING
100
AcDbPolyline
 90
        4
 70
     0
 43
0.0
 10
-20.0
 20
23.2
 10
-20.0
 20
25.0
 10
-30.0
 20
25.0
 10
-30.0
 20
23.2
  0
INSERT
  5
E5
100
AcDbEntity
  8
GLAS_MED_FOGNING
100
AcDbBlockReference
  2
SP40010
 10
0.0
 20
0.0
 30
0.0
  0
ENDBLK
  5
E7
100
AcDbEntity
  8
0
100
AcDbBlockEnd
  0
BLOCK
  5
F4
100
AcDbEntity
  8
0
100
AcDbBlockBegin
  2
SP75011-750-10
 70
     0
 10
0.0
 20
0.0
 30
0.0
  3
SP75011-750-10
  1

  0
LWPOLYLINE
  5
EC
100
AcDbEntity
  8
STALPROFIL
100
AcDbPolyline
 90
       11
 70
     1
 43
1.8
 10
-46.4
 20
24.1
 10
-31.8
 20
24.1
 42
-0.414214
 10
-30.9
 20
23.2
 10
-30.9
 20
-23.2
 42
-0.414214
 10
-31.8
 20
-24.1
 10
-48.2
 20
-24.1
 42
-0.414214
 10
-49.1
 20
-23.2
 10
-49.1
 20
43.2
 42
-0.414214
 10
-48.199
 20
44.1
 42
-0.414214
 10
-47.3
 20
43.201
 10
-47.3
 20
25.0
 42
0.414214
  0
LWPOLYLINE
  5
ED
100
AcDbEntity
  8
SPKONTUR
100
AcDbPolyline
 90
       11
 70
     1
 43
0.0
 10
-46.4
 20
25.0
 10
-31.8
 20
25.0
 42
-0.414214
 10
-30.0
 20
23.2
 10
-30.0
 20
-23.2
 42
-0.414214
 10
-31.8
 20
-25.0
 10
-48.2
 20
-25.0
 42
-0.414214
 10
-50.0
 20
-23.2
 10
-50.0
 20
43.2
 42
-0.414214
 10
-48.2
 20
45.0
 10
-48.199
 20
45.0
 42
-0.414214
 10
-46.4
 20
43.201
  0
INSERT
  5
EE
100
AcDbEntity
  8
GLAS_MED_FOGNING
100
AcDbBlockReference
  2
*X3
 10
0.0
 20
0.0
 30
0.0
1001
ACAD
1000
HATCH
1002
{
1070
    16
1000
DASH
1040
25.0
1040
2.007129
1002
}
  0
LWPOLYLINE
  5
EF
100
AcDbEntity
  8
SPKONTUR
100
AcDbPolyline
 90
       25
 70
     0
 43
0.0
 10
-8.1
 20
18.4
 10
-8.114719
 20
18.4
 10
-8.1
 20
18.4
 42
-0.414214
 10
-5.6
 20
15.9
 10
-5.6
 20
13.8
 42
0.414214
 10
-3.8
 20
12.0
 10
-3.6
 20
12.0
 42
-0.414214
 10
0.0
 20
8.4
 10
0.0
 20
-23.2
 42
-0.414214
 10
-1.8
 20
-25.0
 10
-18.2
 20
-25.0
 42
-0.414214
 10
-20.0
 20
-23.2
 10
-20.0
 20
23.2
 42
-0.414214
 10
-18.2
 20
25.0
 10
-7.9
 20
25.0
 42
-0.414214
 10
-6.1
 20
23.2
 10
-6.1
 20
23.199
 42
-0.414214
 10
-7.899
 20
21.4
 10
-12.6
 20
21.4
 42
0.414214
 10
-14.4
 20
19.6
 10
-14.4
 20
18.2
 42
0.414214
 10
-12.6
 20
16.4
 42
0.198912
 10
-10.47868
 20
17.27868
 10
-10.236039
 20
17.52132
 42
-0.198912
 10
-8.114719
 20
18.4
  0
LWPOLYLINE
  5
F0
100
AcDbEntity
  8
STALPROFIL
100
AcDbPolyline
 90
       22
 70
     1
 43
1.8
 10
-8.114719
 20
17.5
 10
-8.1
 20
17.5
 42
-0.414214
 10
-6.5
 20
15.9
 10
-6.5
 20
13.8
 42
0.414214
 10
-3.8
 20
11.1
 10
-3.6
 20
11.1
 42
-0.414214
 10
-0.9
 20
8.4
 10
-0.9
 20
-23.2
 42
-0.414214
 10
-1.8
 20
-24.1
 10
-18.2
 20
-24.1
 42
-0.414214
 10
-19.1
 20
-23.2
 10
-19.1
 20
23.2
 42
-0.414214
 10
-18.2
 20
24.1
 10
-7.9
 20
24.1
 42
-0.414214
 10
-7.0
 20
23.199
 42
-0.414214
 10
-7.899
 20
22.3
 10
-12.6
 20
22.3
 42
0.414214
 10
-15.3
 20
19.6
 10
-15.3
 20
18.2
 42
0.414214
 10
-12.6
 20
15.5
 42
0.198912
 10
-9.842284
 20
16.642284
 10
-9.599643
 20
16.884924
 42
-0.198912
  0
LWPOLYLINE
  5
F1
100
AcDbEntity
  8
GLAS_MED_FOGNING
100
AcDbPolyline
 90
        4
 70
     0
 43
0.0
 10
-20.0
 20
-23.2
 10
-20.0
 20
-25.0
 10
-30.0
 20
-25.0
 10
-30.0
 20
-23.2
  0
LWPOLYLINE
  5
F2
100
AcDbEntity
  8
GLAS_MED_FOGNING
100
AcDbPolyline
 90
        4
 70
     0
 43
0.0
 10
-20.0
 20
23.2
 10
-20.0
 20
25.0
 10
-30.0
 20
25.0
 10
-30.0
 20
23.2
  0
INSERT
  5
F3
100
AcDbEntity
  8
GLAS_MED_FOGNING
100
AcDbBlockReference
  2
SP40010
 10
0.0
 20
0.0
 30
0.0
  0
ENDBLK
  5
F5
100
AcDbEntity
  8
0
100
AcDbBlockEnd
  0
BLOCK
  5
8C
100
AcDbEntity
  8
0
100
AcDbBlockBegin
  2
SP75012-750-10
 70
     0
 10
0.0
 20
0.0
 30
0.0
  3
SP75012-750-10
  1

  0
LWPOLYLINE
  5
84
100
AcDbEntity
  8
STALPROFIL
100
AcDbPolyline
 90
       16
 70
     1
 43
1.8
 10
-49.1
 20
0.0
 10
-49.1
 20
-43.2
 42
0.414214
 10
-48.199
 20
-44.1
 42
0.414214
 10
-47.3
 20
-43.201
 10
-47.3
 20
-25.0
 42
-0.414214
 10
-46.4
 20
-24.1
 10
-31.8
 20
-24.1
 42
0.414214
 10
-30.9
 20
-23.2
 10
-30.9
 20
0.0
 10
-30.9
 20
23.2
 42
0.414214
 10
-31.8
 20
24.1
 10
-46.4
 20
24.1
 42
-0.414214
 10
-47.3
 20
25.0
 10
-47.3
 20
43.201
 42
0.414214
 10
-48.2
 20
44.1
 42
0.414214
 10
-49.1
 20
43.2
  0
LWPOLYLINE
  5
85
100
AcDbEntity
  8
SPKONTUR
100
AcDbPolyline
 90
       16
 70
     1
 43
0.0
 10
-50.0
 20
0.0
 10
-50.0
 20
-43.2
 42
0.414214
 10
-48.2
 20
-45.0
 10
-48.199
 20
-45.0
 42
0.414214
 10
-46.4
 20
-43.201
 10
-46.4
 20
-25.0
 10
-31.8
 20
-25.0
 42
0.414214
 10
-30.0
 20
-23.2
 10
-30.0
 20
0.0
 10
-30.0
 20
23.2
 42
0.414214
 10
-31.8
 20
25.0
 10
-46.4
 20
25.0
 10
-46.4
 20
43.201
 42
0.414214
 10
-48.199
 20
45.0
 10
-48.2
 20
45.0
 42
0.414214
 10
-50.0
 20
43.2
  0
INSERT
  5
86
100
AcDbEntity
  8
GLAS_MED_FOGNING
100
AcDbBlockReference
  2
*X3
 10
0.0
 20
0.0
 30
0.0
1001
ACAD
1000
HATCH
1002
{
1070
    16
1000
DASH
1040
25.0
1040
2.007129
1002
}
  0
LWPOLYLINE
  5
87
100
AcDbEntity
  8
SPKONTUR
100
AcDbPolyline
 90
       25
 70
     0
 43
0.0
 10
-8.1
 20
18.4
 10
-8.114719
 20
18.4
 10
-8.1
 20
18.4
 42
-0.414214
 10
-5.6
 20
15.9
 10
-5.6
 20
13.8
 42
0.414214
 10
-3.8
 20
12.0
 10
-3.6
 20
12.0
 42
-0.414214
 10
0.0
 20
8.4
 10
0.0
 20
-23.2
 42
-0.414214
 10
-1.8
 20
-25.0
 10
-18.2
 20
-25.0
 42
-0.414214
 10
-20.0
 20
-23.2
 10
-20.0
 20
23.2
 42
-0.414214
 10
-18.2
 20
25.0
 10
-7.9
 20
25.0
 42
-0.414214
 10
-6.1
 20
23.2
 10
-6.1
 20
23.199
 42
-0.414214
 10
-7.899
 20
21.4
 10
-12.6
 20
21.4
 42
0.414214
 10
-14.4
 20
19.6
 10
-14.4
 20
18.2
 42
0.414214
 10
-12.6
 20
16.4
 42
0.198912
 10
-10.47868
 20
17.27868
 10
-10.236039
 20
17.52132
 42
-0.198912
 10
-8.114719
 20
18.4
  0
LWPOLYLINE
  5
88
100
AcDbEntity
  8
STALPROFIL
100
AcDbPolyline
 90
       22
 70
     1
 43
1.8
 10
-8.114719
 20
17.5
 10
-8.1
 20
17.5
 42
-0.414214
 10
-6.5
 20
15.9
 10
-6.5
 20
13.8
 42
0.414214
 10
-3.8
 20
11.1
 10
-3.6
 20
11.1
 42
-0.414214
 10
-0.9
 20
8.4
 10
-0.9
 20
-23.2
 42
-0.414214
 10
-1.8
 20
-24.1
 10
-18.2
 20
-24.1
 42
-0.414214
 10
-19.1
 20
-23.2
 10
-19.1
 20
23.2
 42
-0.414214
 10
-18.2
 20
24.1
 10
-7.9
 20
24.1
 42
-0.414214
 10
-7.0
 20
23.199
 42
-0.414214
 10
-7.899
 20
22.3
 10
-12.6
 20
22.3
 42
0.414214
 10
-15.3
 20
19.6
 10
-15.3
 20
18.2
 42
0.414214
 10
-12.6
 20
15.5
 42
0.198912
 10
-9.842284
 20
16.642284
 10
-9.599643
 20
16.884924
 42
-0.198912
  0
LWPOLYLINE
  5
89
100
AcDbEntity
  8
GLAS_MED_FOGNING
100
AcDbPolyline
 90
        4
 70
     0
 43
0.0
 10
-20.0
 20
-23.2
 10
-20.0
 20
-25.0
 10
-30.0
 20
-25.0
 10
-30.0
 20
-23.2
  0
LWPOLYLINE
  5
8A
100
AcDbEntity
  8
GLAS_MED_FOGNING
100
AcDbPolyline
 90
        4
 70
     0
 43
0.0
 10
-20.0
 20
23.2
 10
-20.0
 20
25.0
 10
-30.0
 20
25.0
 10
-30.0
 20
23.2
  0
INSERT
  5
8B
100
AcDbEntity
  8
GLAS_MED_FOGNING
100
AcDbBlockReference
  2
SP40010
 10
0.0
 20
0.0
 30
0.0
  0
ENDBLK
  5
8D
100
AcDbEntity
  8
0
100
AcDbBlockEnd
  0
BLOCK
  5
DA
100
AcDbEntity
  8
0
100
AcDbBlockBegin
  2
SP75014-750-10
 70
     0
 10
0.0
 20
0.0
 30
0.0
  3
SP75014-750-10
  1

  0
LWPOLYLINE
  5
D2
100
AcDbEntity
  8
SPKONTUR
100
AcDbPolyline
 90
       11
 70
     1
 43
0.0
 10
-46.4
 20
-25.0
 10
-31.8
 20
-25.0
 42
0.414214
 10
-30.0
 20
-23.2
 10
-30.0
 20
23.2
 42
0.414214
 10
-31.8
 20
25.0
 10
-48.2
 20
25.0
 42
0.414214
 10
-50.0
 20
23.2
 10
-50.0
 20
-43.2
 42
0.414214
 10
-48.2
 20
-45.0
 10
-48.199
 20
-45.0
 42
0.414214
 10
-46.4
 20
-43.201
  0
LWPOLYLINE
  5
D3
100
AcDbEntity
  8
STALPROFIL
100
AcDbPolyline
 90
       11
 70
     1
 43
1.8
 10
-46.4
 20
-24.1
 10
-31.8
 20
-24.1
 42
0.414214
 10
-30.9
 20
-23.2
 10
-30.9
 20
23.2
 42
0.414214
 10
-31.8
 20
24.1
 10
-48.2
 20
24.1
 42
0.414214
 10
-49.1
 20
23.2
 10
-49.1
 20
-43.2
 42
0.414214
 10
-48.199
 20
-44.1
 42
0.414214
 10
-47.3
 20
-43.201
 10
-47.3
 20
-25.0
 42
-0.414214
  0
INSERT
  5
D4
100
AcDbEntity
  8
GLAS_MED_FOGNING
100
AcDbBlockReference
  2
*X3
 10
0.0
 20
0.0
 30
0.0
1001
ACAD
1000
HATCH
1002
{
1070
    16
1000
DASH
1040
25.0
1040
2.007129
1002
}
  0
LWPOLYLINE
  5
D5
100
AcDbEntity
  8
STALPROFIL
100
AcDbPolyline
 90
       22
 70
     1
 43
1.8
 10
-8.114719
 20
17.5
 10
-8.1
 20
17.5
 42
-0.414214
 10
-6.5
 20
15.9
 10
-6.5
 20
13.8
 42
0.414214
 10
-3.8
 20
11.1
 10
-3.6
 20
11.1
 42
-0.414214
 10
-0.9
 20
8.4
 10
-0.9
 20
-23.2
 42
-0.414214
 10
-1.8
 20
-24.1
 10
-18.2
 20
-24.1
 42
-0.414214
 10
-19.1
 20
-23.2
 10
-19.1
 20
23.2
 42
-0.414214
 10
-18.2
 20
24.1
 10
-7.9
 20
24.1
 42
-0.414214
 10
-7.0
 20
23.199
 42
-0.414214
 10
-7.899
 20
22.3
 10
-12.6
 20
22.3
 42
0.414214
 10
-15.3
 20
19.6
 10
-15.3
 20
18.2
 42
0.414214
 10
-12.6
 20
15.5
 42
0.198912
 10
-9.842284
 20
16.642284
 10
-9.599643
 20
16.884924
 42
-0.198912
  0
LWPOLYLINE
  5
D6
100
AcDbEntity
  8
SPKONTUR
100
AcDbPolyline
 90
       25
 70
     0
 43
0.0
 10
-8.1
 20
18.4
 10
-8.114719
 20
18.4
 10
-8.1
 20
18.4
 42
-0.414214
 10
-5.6
 20
15.9
 10
-5.6
 20
13.8
 42
0.414214
 10
-3.8
 20
12.0
 10
-3.6
 20
12.0
 42
-0.414214
 10
0.0
 20
8.4
 10
0.0
 20
-23.2
 42
-0.414214
 10
-1.8
 20
-25.0
 10
-18.2
 20
-25.0
 42
-0.414214
 10
-20.0
 20
-23.2
 10
-20.0
 20
23.2
 42
-0.414214
 10
-18.2
 20
25.0
 10
-7.9
 20
25.0
 42
-0.414214
 10
-6.1
 20
23.2
 10
-6.1
 20
23.199
 42
-0.414214
 10
-7.899
 20
21.4
 10
-12.6
 20
21.4
 42
0.414214
 10
-14.4
 20
19.6
 10
-14.4
 20
18.2
 42
0.414214
 10
-12.6
 20
16.4
 42
0.198912
 10
-10.47868
 20
17.27868
 10
-10.236039
 20
17.52132
 42
-0.198912
 10
-8.114719
 20
18.4
  0
LWPOLYLINE
  5
D7
100
AcDbEntity
  8
GLAS_MED_FOGNING
100
AcDbPolyline
 90
        4
 70
     0
 43
0.0
 10
-20.0
 20
-23.2
 10
-20.0
 20
-25.0
 10
-30.0
 20
-25.0
 10
-30.0
 20
-23.2
  0
LWPOLYLINE
  5
D8
100
AcDbEntity
  8
GLAS_MED_FOGNING
100
AcDbPolyline
 90
        4
 70
     0
 43
0.0
 10
-20.0
 20
23.2
 10
-20.0
 20
25.0
 10
-30.0
 20
25.0
 10
-30.0
 20
23.2
  0
INSERT
  5
D9
100
AcDbEntity
  8
GLAS_MED_FOGNING
100
AcDbBlockReference
  2
SP40010
 10
0.0
 20
0.0
 30
0.0
  0
ENDBLK
  5
DB
100
AcDbEntity
  8
0
100
AcDbBlockEnd
  0
BLOCK
  5
B3
100
AcDbEntity
  8
0
100
AcDbBlockBegin
  2
SP75020-750-10
 70
     0
 10
0.0
 20
0.0
 30
0.0
  3
SP75020-750-10
  1

  0
LWPOLYLINE
  5
AC
100
AcDbEntity
  8
STALPROFIL
100
AcDbPolyline
 90
        8
 70
     1
 43
1.8
 10
-49.1
 20
23.2
 42
-0.414214
 10
-48.2
 20
24.1
 10
-31.8
 20
24.1
 42
-0.414214
 10
-30.9
 20
23.2
 10
-30.9
 20
-23.2
 42
-0.414214
 10
-31.8
 20
-24.1
 10
-48.2
 20
-24.1
 42
-0.414214
 10
-49.1
 20
-23.2
  0
LWPOLYLINE
  5
AD
100
AcDbEntity
  8
SPKONTUR
100
AcDbPolyline
 90
        8
 70
     1
 43
0.0
 10
-50.0
 20
23.2
 42
-0.414214
 10
-48.2
 20
25.0
 10
-31.8
 20
25.0
 42
-0.414214
 10
-30.0
 20
23.2
 10
-30.0
 20
-23.2
 42
-0.414214
 10
-31.8
 20
-25.0
 10
-48.2
 20
-25.0
 42
-0.414214
 10
-50.0
 20
-23.2
  0
INSERT
  5
AE
100
AcDbEntity
  8
GLAS_MED_FOGNING
100
AcDbBlockReference
  2
*X3
 10
0.0
 20
0.0
 30
0.0
1001
ACAD
1000
HATCH
1002
{
1070
    16
1000
DASH
1040
25.0
1040
2.007129
1002
}
  0
LWPOLYLINE
  5
AF
100
AcDbEntity
  8
SPKONTUR
100
AcDbPolyline
 90
        8
 70
     1
 43
0.0
 10
-20.0
 20
23.2
 42
-0.414214
 10
-18.2
 20
25.0
 10
-1.8
 20
25.0
 42
-0.414214
 10
0.0
 20
23.2
 10
0.0
 20
-23.2
 42
-0.414214
 10
-1.8
 20
-25.0
 10
-18.2
 20
-25.0
 42
-0.414214
 10
-20.0
 20
-23.2
  0
LWPOLYLINE
  5
B0
100
AcDbEntity
  8
STALPROFIL
100
AcDbPolyline
 90
        8
 70
     1
 43
1.8
 10
-19.1
 20
23.2
 42
-0.414214
 10
-18.2
 20
24.1
 10
-1.8
 20
24.1
 42
-0.414214
 10
-0.9
 20
23.2
 10
-0.9
 20
-23.2
 42
-0.414214
 10
-1.8
 20
-24.1
 10
-18.2
 20
-24.1
 42
-0.414214
 10
-19.1
 20
-23.2
  0
LWPOLYLINE
  5
B1
100
AcDbEntity
  8
GLAS_MED_FOGNING
100
AcDbPolyline
 90
        4
 70
     0
 43
0.0
 10
-20.0
 20
-23.2
 10
-20.0
 20
-25.0
 10
-30.0
 20
-25.0
 10
-30.0
 20
-23.2
  0
LWPOLYLINE
  5
B2
100
AcDbEntity
  8
GLAS_MED_FOGNING
100
AcDbPolyline
 90
        4
 70
     0
 43
0.0
 10
-20.0
 20
23.2
 10
-20.0
 20
25.0
 10
-30.0
 20
25.0
 10
-30.0
 20
23.2
  0
ENDBLK
  5
B4
100
AcDbEntity
  8
0
100
AcDbBlockEnd
  0
BLOCK
  5
5E
100
AcDbEntity
  8
0
100
AcDbBlockBegin
  2
SP75021-750-10
 70
     0
 10
0.0
 20
0.0
 30
0.0
  3
SP75021-750-10
  1

  0
LWPOLYLINE
  5
32
100
AcDbEntity
  8
SPKONTUR
100
AcDbPolyline
 90
       11
 70
     1
 43
0.0
 10
-46.4
 20
25.0
 10
-31.8
 20
25.0
 42
-0.414214
 10
-30.0
 20
23.2
 10
-30.0
 20
-23.2
 42
-0.414214
 10
-31.8
 20
-25.0
 10
-48.2
 20
-25.0
 42
-0.414214
 10
-50.0
 20
-23.2
 10
-50.0
 20
43.2
 42
-0.414214
 10
-48.2
 20
45.0
 10
-48.199
 20
45.0
 42
-0.414214
 10
-46.4
 20
43.201
  0
LWPOLYLINE
  5
34
100
AcDbEntity
  8
STALPROFIL
100
AcDbPolyline
 90
       11
 70
     1
 43
1.8
 10
-46.4
 20
24.1
 10
-31.8
 20
24.1
 42
-0.414214
 10
-30.9
 20
23.2
 10
-30.9
 20
-23.2
 42
-0.414214
 10
-31.8
 20
-24.1
 10
-48.2
 20
-24.1
 42
-0.414214
 10
-49.1
 20
-23.2
 10
-49.1
 20
43.2
 42
-0.414214
 10
-48.199
 20
44.1
 42
-0.414214
 10
-47.3
 20
43.201
 10
-47.3
 20
25.0
 42
0.414214
  0
INSERT
  5
36
100
AcDbEntity
  8
GLAS_MED_FOGNING
100
AcDbBlockReference
  2
*X3
 10
0.0
 20
0.0
 30
0.0
1001
ACAD
1000
HATCH
1002
{
1070
    16
1000
DASH
1040
25.0
1040
2.007129
1002
}
  0
LWPOLYLINE
  5
5A
100
AcDbEntity
  8
SPKONTUR
100
AcDbPolyline
 90
        8
 70
     1
 43
0.0
 10
-20.0
 20
23.2
 42
-0.414214
 10
-18.2
 20
25.0
 10
-1.8
 20
25.0
 42
-0.414214
 10
0.0
 20
23.2
 10
0.0
 20
-23.2
 42
-0.414214
 10
-1.8
 20
-25.0
 10
-18.2
 20
-25.0
 42
-0.414214
 10
-20.0
 20
-23.2
  0
LWPOLYLINE
  5
5B
100
AcDbEntity
  8
STALPROFIL
100
AcDbPolyline
 90
        8
 70
     1
 43
1.8
 10
-19.1
 20
23.2
 42
-0.414214
 10
-18.2
 20
24.1
 10
-1.8
 20
24.1
 42
-0.414214
 10
-0.9
 20
23.2
 10
-0.9
 20
-23.2
 42
-0.414214
 10
-1.8
 20
-24.1
 10
-18.2
 20
-24.1
 42
-0.414214
 10
-19.1
 20
-23.2
  0
LWPOLYLINE
  5
5C
100
AcDbEntity
  8
GLAS_MED_FOGNING
100
AcDbPolyline
 90
        4
 70
     0
 43
0.0
 10
-20.0
 20
-23.2
 10
-20.0
 20
-25.0
 10
-30.0
 20
-25.0
 10
-30.0
 20
-23.2
  0
LWPOLYLINE
  5
5D
100
AcDbEntity
  8
GLAS_MED_FOGNING
100
AcDbPolyline
 90
        4
 70
     0
 43
0.0
 10
-20.0
 20
23.2
 10
-20.0
 20
25.0
 10
-30.0
 20
25.0
 10
-30.0
 20
23.2
  0
ENDBLK
  5
5F
100
AcDbEntity
  8
0
100
AcDbBlockEnd
  0
BLOCK
  5
10D
100
AcDbEntity
  8
0
100
AcDbBlockBegin
  2
SP75022-750-10
 70
     0
 10
0.0
 20
0.0
 30
0.0
  3
SP75022-750-10
  1

  0
LWPOLYLINE
  5
106
100
AcDbEntity
  8
SPKONTUR
100
AcDbPolyline
 90
       16
 70
     1
 43
0.0
 10
-50.0
 20
0.0
 10
-50.0
 20
-43.2
 42
0.414214
 10
-48.2
 20
-45.0
 10
-48.199
 20
-45.0
 42
0.414214
 10
-46.4
 20
-43.201
 10
-46.4
 20
-25.0
 10
-31.8
 20
-25.0
 42
0.414214
 10
-30.0
 20
-23.2
 10
-30.0
 20
0.0
 10
-30.0
 20
23.2
 42
0.414214
 10
-31.8
 20
25.0
 10
-46.4
 20
25.0
 10
-46.4
 20
43.201
 42
0.414214
 10
-48.199
 20
45.0
 10
-48.2
 20
45.0
 42
0.414214
 10
-50.0
 20
43.2
  0
LWPOLYLINE
  5
107
100
AcDbEntity
  8
STALPROFIL
100
AcDbPolyline
 90
       16
 70
     1
 43
1.8
 10
-49.1
 20
0.0
 10
-49.1
 20
-43.2
 42
0.414214
 10
-48.199
 20
-44.1
 42
0.414214
 10
-47.3
 20
-43.201
 10
-47.3
 20
-25.0
 42
-0.414214
 10
-46.4
 20
-24.1
 10
-31.8
 20
-24.1
 42
0.414214
 10
-30.9
 20
-23.2
 10
-30.9
 20
0.0
 10
-30.9
 20
23.2
 42
0.414214
 10
-31.8
 20
24.1
 10
-46.4
 20
24.1
 42
-0.414214
 10
-47.3
 20
25.0
 10
-47.3
 20
43.201
 42
0.414214
 10
-48.2
 20
44.1
 42
0.414214
 10
-49.1
 20
43.2
  0
INSERT
  5
108
100
AcDbEntity
  8
GLAS_MED_FOGNING
100
AcDbBlockReference
  2
*X3
 10
0.0
 20
0.0
 30
0.0
1001
ACAD
1000
HATCH
1002
{
1070
    16
1000
DASH
1040
25.0
1040
2.007129
1002
}
  0
LWPOLYLINE
  5
109
100
AcDbEntity
  8
STALPROFIL
100
AcDbPolyline
 90
        8
 70
     1
 43
1.8
 10
-19.1
 20
23.2
 42
-0.414214
 10
-18.2
 20
24.1
 10
-1.8
 20
24.1
 42
-0.414214
 10
-0.9
 20
23.2
 10
-0.9
 20
-23.2
 42
-0.414214
 10
-1.8
 20
-24.1
 10
-18.2
 20
-24.1
 42
-0.414214
 10
-19.1
 20
-23.2
  0
LWPOLYLINE
  5
10A
100
AcDbEntity
  8
SPKONTUR
100
AcDbPolyline
 90
        8
 70
     1
 43
0.0
 10
-20.0
 20
23.2
 42
-0.414214
 10
-18.2
 20
25.0
 10
-1.8
 20
25.0
 42
-0.414214
 10
0.0
 20
23.2
 10
0.0
 20
-23.2
 42
-0.414214
 10
-1.8
 20
-25.0
 10
-18.2
 20
-25.0
 42
-0.414214
 10
-20.0
 20
-23.2
  0
LWPOLYLINE
  5
10B
100
AcDbEntity
  8
GLAS_MED_FOGNING
100
AcDbPolyline
 90
        4
 70
     0
 43
0.0
 10
-20.0
 20
-23.2
 10
-20.0
 20
-25.0
 10
-30.0
 20
-25.0
 10
-30.0
 20
-23.2
  0
LWPOLYLINE
  5
10C
100
AcDbEntity
  8
GLAS_MED_FOGNING
100
AcDbPolyline
 90
        4
 70
     0
 43
0.0
 10
-20.0
 20
23.2
 10
-20.0
 20
25.0
 10
-30.0
 20
25.0
 10
-30.0
 20
23.2
  0
ENDBLK
  5
10E
100
AcDbEntity
  8
0
100
AcDbBlockEnd
  0
BLOCK
  5
11A
100
AcDbEntity
  8
0
100
AcDbBlockBegin
  2
SP75023-750-10
 70
     0
 10
0.0
 20
0.0
 30
0.0
  3
SP75023-750-10
  1

  0
LWPOLYLINE
  5
113
100
AcDbEntity
  8
STALPROFIL
100
AcDbPolyline
 90
       11
 70
     1
 43
1.8
 10
-46.4
 20
24.1
 10
-31.8
 20
24.1
 42
-0.414214
 10
-30.9
 20
23.2
 10
-30.9
 20
-23.2
 42
-0.414214
 10
-31.8
 20
-24.1
 10
-48.2
 20
-24.1
 42
-0.414214
 10
-49.1
 20
-23.2
 10
-49.1
 20
43.2
 42
-0.414214
 10
-48.199
 20
44.1
 42
-0.414214
 10
-47.3
 20
43.201
 10
-47.3
 20
25.0
 42
0.414214
  0
LWPOLYLINE
  5
114
100
AcDbEntity
  8
SPKONTUR
100
AcDbPolyline
 90
       11
 70
     1
 43
0.0
 10
-46.4
 20
25.0
 10
-31.8
 20
25.0
 42
-0.414214
 10
-30.0
 20
23.2
 10
-30.0
 20
-23.2
 42
-0.414214
 10
-31.8
 20
-25.0
 10
-48.2
 20
-25.0
 42
-0.414214
 10
-50.0
 20
-23.2
 10
-50.0
 20
43.2
 42
-0.414214
 10
-48.2
 20
45.0
 10
-48.199
 20
45.0
 42
-0.414214
 10
-46.4
 20
43.201
  0
LWPOLYLINE
  5
115
100
AcDbEntity
  8
STALPROFIL
100
AcDbPolyline
 90
       11
 70
     1
 43
1.8
 10
-3.6
 20
-24.1
 10
-18.2
 20
-24.1
 42
-0.414214
 10
-19.1
 20
-23.2
 10
-19.1
 20
23.2
 42
-0.414214
 10
-18.2
 20
24.1
 10
-1.8
 20
24.1
 42
-0.414214
 10
-0.9
 20
23.2
 10
-0.9
 20
-43.2
 42
-0.414214
 10
-1.801
 20
-44.1
 42
-0.414214
 10
-2.7
 20
-43.201
 10
-2.7
 20
-25.0
 42
0.414214
  0
LWPOLYLINE
  5
116
100
AcDbEntity
  8
SPKONTUR
100
AcDbPolyline
 90
       11
 70
     1
 43
0.0
 10
-3.6
 20
-25.0
 10
-18.2
 20
-25.0
 42
-0.414214
 10
-20.0
 20
-23.2
 10
-20.0
 20
23.2
 42
-0.414214
 10
-18.2
 20
25.0
 10
-1.8
 20
25.0
 42
-0.414214
 10
0.0
 20
23.2
 10
0.0
 20
-43.2
 42
-0.414214
 10
-1.8
 20
-45.0
 10
-1.801
 20
-45.0
 42
-0.414214
 10
-3.6
 20
-43.201
  0
INSERT
  5
117
100
AcDbEntity
  8
GLAS_MED_FOGNING
100
AcDbBlockReference
  2
*X3
 10
0.0
 20
0.0
 30
0.0
1001
ACAD
1000
HATCH
1002
{
1070
    16
1000
DASH
1040
25.0
1040
2.007129
1002
}
  0
LWPOLYLINE
  5
118
100
AcDbEntity
  8
GLAS_MED_FOGNING
100
AcDbPolyline
 90
        4
 70
     0
 43
0.0
 10
-20.0
 20
-23.2
 10
-20.0
 20
-25.0
 10
-30.0
 20
-25.0
 10
-30.0
 20
-23.2
  0
LWPOLYLINE
  5
119
100
AcDbEntity
  8
GLAS_MED_FOGNING
100
AcDbPolyline
 90
        4
 70
     0
 43
0.0
 10
-20.0
 20
23.2
 10
-20.0
 20
25.0
 10
-30.0
 20
25.0
 10
-30.0
 20
23.2
  0
ENDBLK
  5
11B
100
AcDbEntity
  8
0
100
AcDbBlockEnd
  0
BLOCK
  5
CE
100
AcDbEntity
  8
0
100
AcDbBlockBegin
  2
SP75024-750-10
 70
     0
 10
0.0
 20
0.0
 30
0.0
  3
SP75024-750-10
  1

  0
LWPOLYLINE
  5
C7
100
AcDbEntity
  8
SPKONTUR
100
AcDbPolyline
 90
       11
 70
     1
 43
0.0
 10
-46.4
 20
25.0
 10
-31.8
 20
25.0
 42
-0.414214
 10
-30.0
 20
23.2
 10
-30.0
 20
-23.2
 42
-0.414214
 10
-31.8
 20
-25.0
 10
-48.2
 20
-25.0
 42
-0.414214
 10
-50.0
 20
-23.2
 10
-50.0
 20
43.2
 42
-0.414214
 10
-48.2
 20
45.0
 10
-48.199
 20
45.0
 42
-0.414214
 10
-46.4
 20
43.201
  0
LWPOLYLINE
  5
C8
100
AcDbEntity
  8
STALPROFIL
100
AcDbPolyline
 90
       11
 70
     1
 43
1.8
 10
-46.4
 20
24.1
 10
-31.8
 20
24.1
 42
-0.414214
 10
-30.9
 20
23.2
 10
-30.9
 20
-23.2
 42
-0.414214
 10
-31.8
 20
-24.1
 10
-48.2
 20
-24.1
 42
-0.414214
 10
-49.1
 20
-23.2
 10
-49.1
 20
43.2
 42
-0.414214
 10
-48.199
 20
44.1
 42
-0.414214
 10
-47.3
 20
43.201
 10
-47.3
 20
25.0
 42
0.414214
  0
LWPOLYLINE
  5
C9
100
AcDbEntity
  8
SPKONTUR
100
AcDbPolyline
 90
       11
 70
     1
 43
0.0
 10
-3.6
 20
25.0
 10
-18.2
 20
25.0
 42
0.414214
 10
-20.0
 20
23.2
 10
-20.0
 20
-23.2
 42
0.414214
 10
-18.2
 20
-25.0
 10
-1.8
 20
-25.0
 42
0.414214
 10
0.0
 20
-23.2
 10
0.0
 20
43.2
 42
0.414214
 10
-1.8
 20
45.0
 10
-1.801
 20
45.0
 42
0.414214
 10
-3.6
 20
43.201
  0
LWPOLYLINE
  5
CA
100
AcDbEntity
  8
STALPROFIL
100
AcDbPolyline
 90
       11
 70
     1
 43
1.8
 10
-3.6
 20
24.1
 10
-18.2
 20
24.1
 42
0.414214
 10
-19.1
 20
23.2
 10
-19.1
 20
-23.2
 42
0.414214
 10
-18.2
 20
-24.1
 10
-1.8
 20
-24.1
 42
0.414214
 10
-0.9
 20
-23.2
 10
-0.9
 20
43.2
 42
0.414214
 10
-1.801
 20
44.1
 42
0.414214
 10
-2.7
 20
43.201
 10
-2.7
 20
25.0
 42
-0.414214
  0
INSERT
  5
CB
100
AcDbEntity
  8
GLAS_MED_FOGNING
100
AcDbBlockReference
  2
*X3
 10
0.0
 20
0.0
 30
0.0
1001
ACAD
1000
HATCH
1002
{
1070
    16
1000
DASH
1040
25.0
1040
2.007129
1002
}
  0
LWPOLYLINE
  5
CC
100
AcDbEntity
  8
GLAS_MED_FOGNING
100
AcDbPolyline
 90
        4
 70
     0
 43
0.0
 10
-20.0
 20
-23.2
 10
-20.0
 20
-25.0
 10
-30.0
 20
-25.0
 10
-30.0
 20
-23.2
  0
LWPOLYLINE
  5
CD
100
AcDbEntity
  8
GLAS_MED_FOGNING
100
AcDbPolyline
 90
        4
 70
     0
 43
0.0
 10
-20.0
 20
23.2
 10
-20.0
 20
25.0
 10
-30.0
 20
25.0
 10
-30.0
 20
23.2
  0
ENDBLK
  5
CF
100
AcDbEntity
  8
0
100
AcDbBlockEnd
  0
BLOCK
  5
BF
100
AcDbEntity
  8
0
100
AcDbBlockBegin
  2
SP75025-750-10
 70
     0
 10
0.0
 20
0.0
 30
0.0
  3
SP75025-750-10
  1

  0
LWPOLYLINE
  5
B8
100
AcDbEntity
  8
STALPROFIL
100
AcDbPolyline
 90
       16
 70
     1
 43
1.8
 10
-49.1
 20
0.0
 10
-49.1
 20
-43.2
 42
0.414214
 10
-48.199
 20
-44.1
 42
0.414214
 10
-47.3
 20
-43.201
 10
-47.3
 20
-25.0
 42
-0.414214
 10
-46.4
 20
-24.1
 10
-31.8
 20
-24.1
 42
0.414214
 10
-30.9
 20
-23.2
 10
-30.9
 20
0.0
 10
-30.9
 20
23.2
 42
0.414214
 10
-31.8
 20
24.1
 10
-46.4
 20
24.1
 42
-0.414214
 10
-47.3
 20
25.0
 10
-47.3
 20
43.201
 42
0.414214
 10
-48.2
 20
44.1
 42
0.414214
 10
-49.1
 20
43.2
  0
LWPOLYLINE
  5
B9
100
AcDbEntity
  8
SPKONTUR
100
AcDbPolyline
 90
       16
 70
     1
 43
0.0
 10
-50.0
 20
0.0
 10
-50.0
 20
-43.2
 42
0.414214
 10
-48.2
 20
-45.0
 10
-48.199
 20
-45.0
 42
0.414214
 10
-46.4
 20
-43.201
 10
-46.4
 20
-25.0
 10
-31.8
 20
-25.0
 42
0.414214
 10
-30.0
 20
-23.2
 10
-30.0
 20
0.0
 10
-30.0
 20
23.2
 42
0.414214
 10
-31.8
 20
25.0
 10
-46.4
 20
25.0
 10
-46.4
 20
43.201
 42
0.414214
 10
-48.199
 20
45.0
 10
-48.2
 20
45.0
 42
0.414214
 10
-50.0
 20
43.2
  0
LWPOLYLINE
  5
BA
100
AcDbEntity
  8
STALPROFIL
100
AcDbPolyline
 90
       11
 70
     1
 43
1.8
 10
-3.6
 20
24.1
 10
-18.2
 20
24.1
 42
0.414214
 10
-19.1
 20
23.2
 10
-19.1
 20
-23.2
 42
0.414214
 10
-18.2
 20
-24.1
 10
-1.8
 20
-24.1
 42
0.414214
 10
-0.9
 20
-23.2
 10
-0.9
 20
43.2
 42
0.414214
 10
-1.801
 20
44.1
 42
0.414214
 10
-2.7
 20
43.201
 10
-2.7
 20
25.0
 42
-0.414214
  0
LWPOLYLINE
  5
BB
100
AcDbEntity
  8
SPKONTUR
100
AcDbPolyline
 90
       11
 70
     1
 43
0.0
 10
-3.6
 20
25.0
 10
-18.2
 20
25.0
 42
0.414214
 10
-20.0
 20
23.2
 10
-20.0
 20
-23.2
 42
0.414214
 10
-18.2
 20
-25.0
 10
-1.8
 20
-25.0
 42
0.414214
 10
0.0
 20
-23.2
 10
0.0
 20
43.2
 42
0.414214
 10
-1.8
 20
45.0
 10
-1.801
 20
45.0
 42
0.414214
 10
-3.6
 20
43.201
  0
INSERT
  5
BC
100
AcDbEntity
  8
GLAS_MED_FOGNING
100
AcDbBlockReference
  2
*X3
 10
0.0
 20
0.0
 30
0.0
1001
ACAD
1000
HATCH
1002
{
1070
    16
1000
DASH
1040
25.0
1040
2.007129
1002
}
  0
LWPOLYLINE
  5
BD
100
AcDbEntity
  8
GLAS_MED_FOGNING
100
AcDbPolyline
 90
        4
 70
     0
 43
0.0
 10
-20.0
 20
-23.2
 10
-20.0
 20
-25.0
 10
-30.0
 20
-25.0
 10
-30.0
 20
-23.2
  0
LWPOLYLINE
  5
BE
100
AcDbEntity
  8
GLAS_MED_FOGNING
100
AcDbPolyline
 90
        4
 70
     0
 43
0.0
 10
-20.0
 20
23.2
 10
-20.0
 20
25.0
 10
-30.0
 20
25.0
 10
-30.0
 20
23.2
  0
ENDBLK
  5
C0
100
AcDbEntity
  8
0
100
AcDbBlockEnd
  0
BLOCK
  5
7C
100
AcDbEntity
  8
0
100
AcDbBlockBegin
  2
SP75013-750-10
 70
     0
 10
0.0
 20
0.0
 30
0.0
  3
SP75013-750-10
  1

  0
LWPOLYLINE
  5
62
100
AcDbEntity
  8
SPKONTUR
100
AcDbPolyline
 90
       11
 70
     1
 43
0.0
 10
-46.4
 20
25.0
 10
-31.8
 20
25.0
 42
-0.414214
 10
-30.0
 20
23.2
 10
-30.0
 20
-23.2
 42
-0.414214
 10
-31.8
 20
-25.0
 10
-48.2
 20
-25.0
 42
-0.414214
 10
-50.0
 20
-23.2
 10
-50.0
 20
43.2
 42
-0.414214
 10
-48.2
 20
45.0
 10
-48.199
 20
45.0
 42
-0.414214
 10
-46.4
 20
43.201
  0
LWPOLYLINE
  5
63
100
AcDbEntity
  8
STALPROFIL
100
AcDbPolyline
 90
       11
 70
     1
 43
1.8
 10
-46.4
 20
24.1
 10
-31.8
 20
24.1
 42
-0.414214
 10
-30.9
 20
23.2
 10
-30.9
 20
-23.2
 42
-0.414214
 10
-31.8
 20
-24.1
 10
-48.2
 20
-24.1
 42
-0.414214
 10
-49.1
 20
-23.2
 10
-49.1
 20
43.2
 42
-0.414214
 10
-48.199
 20
44.1
 42
-0.414214
 10
-47.3
 20
43.201
 10
-47.3
 20
25.0
 42
0.414214
  0
INSERT
  5
64
100
AcDbEntity
  8
GLAS_MED_FOGNING
100
AcDbBlockReference
  2
*X3
 10
0.0
 20
0.0
 30
0.0
1001
ACAD
1000
HATCH
1002
{
1070
    16
1000
DASH
1040
25.0
1040
2.007129
1002
}
  0
LWPOLYLINE
  5
65
100
AcDbEntity
  8
STALPROFIL
100
AcDbPolyline
 90
       25
 70
     1
 43
1.8
 10
-8.114719
 20
17.5
 10
-8.1
 20
17.5
 42
-0.414214
 10
-6.5
 20
15.9
 10
-6.5
 20
13.8
 42
0.414214
 10
-3.8
 20
11.1
 10
-3.6
 20
11.1
 42
-0.414214
 10
-0.9
 20
8.4
 10
-0.9
 20
-43.2
 42
-0.414214
 10
-1.801
 20
-44.1
 42
-0.414214
 10
-2.7
 20
-43.201
 10
-2.7
 20
-25.0
 42
0.414214
 10
-3.6
 20
-24.1
 10
-18.2
 20
-24.1
 42
-0.414214
 10
-19.1
 20
-23.2
 10
-19.1
 20
23.2
 42
-0.414214
 10
-18.2
 20
24.1
 10
-7.9
 20
24.1
 42
-0.414214
 10
-7.0
 20
23.199
 42
-0.414214
 10
-7.899
 20
22.3
 10
-12.6
 20
22.3
 42
0.414214
 10
-15.3
 20
19.6
 10
-15.3
 20
18.2
 42
0.414214
 10
-12.6
 20
15.5
 42
0.198912
 10
-9.842284
 20
16.642284
 10
-9.599643
 20
16.884924
 42
-0.198912
  0
LWPOLYLINE
  5
66
100
AcDbEntity
  8
SPKONTUR
100
AcDbPolyline
 90
       28
 70
     0
 43
0.0
 10
-8.1
 20
18.4
 10
-8.114719
 20
18.4
 10
-8.1
 20
18.4
 42
-0.414214
 10
-5.6
 20
15.9
 10
-5.6
 20
13.8
 42
0.414214
 10
-3.8
 20
12.0
 10
-3.6
 20
12.0
 42
-0.414214
 10
0.0
 20
8.4
 10
0.0
 20
-43.2
 42
-0.414214
 10
-1.8
 20
-45.0
 10
-1.801
 20
-45.0
 42
-0.414214
 10
-3.6
 20
-43.201
 10
-3.6
 20
-25.0
 10
-18.2
 20
-25.0
 42
-0.414214
 10
-20.0
 20
-23.2
 10
-20.0
 20
23.2
 42
-0.414214
 10
-18.2
 20
25.0
 10
-7.9
 20
25.0
 42
-0.414214
 10
-6.1
 20
23.2
 10
-6.1
 20
23.199
 42
-0.414214
 10
-7.899
 20
21.4
 10
-12.6
 20
21.4
 42
0.414214
 10
-14.4
 20
19.6
 10
-14.4
 20
18.2
 42
0.414214
 10
-12.6
 20
16.4
 42
0.198912
 10
-10.47868
 20
17.27868
 10
-10.236039
 20
17.52132
 42
-0.198912
 10
-8.114719
 20
18.4
  0
LWPOLYLINE
  5
67
100
AcDbEntity
  8
GLAS_MED_FOGNING
100
AcDbPolyline
 90
        4
 70
     0
 43
0.0
 10
-20.0
 20
-23.2
 10
-20.0
 20
-25.0
 10
-30.0
 20
-25.0
 10
-30.0
 20
-23.2
  0
INSERT
  5
68
100
AcDbEntity
  8
GLAS_MED_FOGNING
100
AcDbBlockReference
  2
SP40010
 10
0.0
 20
0.0
 30
0.0
  0
LWPOLYLINE
  5
7B
100
AcDbEntity
  8
GLAS_MED_FOGNING
100
AcDbPolyline
 90
        4
 70
     0
 43
0.0
 10
-20.0
 20
23.2
 10
-20.0
 20
25.0
 10
-30.0
 20
25.0
 10
-30.0
 20
23.2
  0
ENDBLK
  5
7D
100
AcDbEntity
  8
0
100
AcDbBlockEnd
  0
BLOCK
  5
102
100
AcDbEntity
  8
0
100
AcDbBlockBegin
  2
SP75015-750-10
 70
     0
 10
0.0
 20
0.0
 30
0.0
  3
SP75015-750-10
  1

  0
LWPOLYLINE
  5
FA
100
AcDbEntity
  8
SPKONTUR
100
AcDbPolyline
 90
        8
 70
     1
 43
0.0
 10
-50.0
 20
23.2
 42
-0.414214
 10
-48.2
 20
25.0
 10
-31.8
 20
25.0
 42
-0.414214
 10
-30.0
 20
23.2
 10
-30.0
 20
-23.2
 42
-0.414214
 10
-31.8
 20
-25.0
 10
-48.2
 20
-25.0
 42
-0.414214
 10
-50.0
 20
-23.2
  0
LWPOLYLINE
  5
FB
100
AcDbEntity
  8
STALPROFIL
100
AcDbPolyline
 90
        8
 70
     1
 43
1.8
 10
-49.1
 20
23.2
 42
-0.414214
 10
-48.2
 20
24.1
 10
-31.8
 20
24.1
 42
-0.414214
 10
-30.9
 20
23.2
 10
-30.9
 20
-23.2
 42
-0.414214
 10
-31.8
 20
-24.1
 10
-48.2
 20
-24.1
 42
-0.414214
 10
-49.1
 20
-23.2
  0
LWPOLYLINE
  5
FC
100
AcDbEntity
  8
SPKONTUR
100
AcDbPolyline
 90
       28
 70
     0
 43
0.0
 10
-8.1
 20
18.4
 10
-8.114719
 20
18.4
 10
-8.1
 20
18.4
 42
-0.414214
 10
-5.6
 20
15.9
 10
-5.6
 20
13.8
 42
0.414214
 10
-3.8
 20
12.0
 10
-3.6
 20
12.0
 42
-0.414214
 10
0.0
 20
8.4
 10
0.0
 20
-43.2
 42
-0.414214
 10
-1.8
 20
-45.0
 10
-1.801
 20
-45.0
 42
-0.414214
 10
-3.6
 20
-43.201
 10
-3.6
 20
-25.0
 10
-18.2
 20
-25.0
 42
-0.414214
 10
-20.0
 20
-23.2
 10
-20.0
 20
23.2
 42
-0.414214
 10
-18.2
 20
25.0
 10
-7.9
 20
25.0
 42
-0.414214
 10
-6.1
 20
23.2
 10
-6.1
 20
23.199
 42
-0.414214
 10
-7.899
 20
21.4
 10
-12.6
 20
21.4
 42
0.414214
 10
-14.4
 20
19.6
 10
-14.4
 20
18.2
 42
0.414214
 10
-12.6
 20
16.4
 42
0.198912
 10
-10.47868
 20
17.27868
 10
-10.236039
 20
17.52132
 42
-0.198912
 10
-8.114719
 20
18.4
  0
LWPOLYLINE
  5
FD
100
AcDbEntity
  8
STALPROFIL
100
AcDbPolyline
 90
       25
 70
     1
 43
1.8
 10
-8.114719
 20
17.5
 10
-8.1
 20
17.5
 42
-0.414214
 10
-6.5
 20
15.9
 10
-6.5
 20
13.8
 42
0.414214
 10
-3.8
 20
11.1
 10
-3.6
 20
11.1
 42
-0.414214
 10
-0.9
 20
8.4
 10
-0.9
 20
-43.2
 42
-0.414214
 10
-1.801
 20
-44.1
 42
-0.414214
 10
-2.7
 20
-43.201
 10
-2.7
 20
-25.0
 42
0.414214
 10
-3.6
 20
-24.1
 10
-18.2
 20
-24.1
 42
-0.414214
 10
-19.1
 20
-23.2
 10
-19.1
 20
23.2
 42
-0.414214
 10
-18.2
 20
24.1
 10
-7.9
 20
24.1
 42
-0.414214
 10
-7.0
 20
23.199
 42
-0.414214
 10
-7.899
 20
22.3
 10
-12.6
 20
22.3
 42
0.414214
 10
-15.3
 20
19.6
 10
-15.3
 20
18.2
 42
0.414214
 10
-12.6
 20
15.5
 42
0.198912
 10
-9.842284
 20
16.642284
 10
-9.599643
 20
16.884924
 42
-0.198912
  0
INSERT
  5
FE
100
AcDbEntity
  8
GLAS_MED_FOGNING
100
AcDbBlockReference
  2
*X3
 10
0.0
 20
0.0
 30
0.0
1001
ACAD
1000
HATCH
1002
{
1070
    16
1000
DASH
1040
25.0
1040
2.007129
1002
}
  0
LWPOLYLINE
  5
FF
100
AcDbEntity
  8
GLAS_MED_FOGNING
100
AcDbPolyline
 90
        4
 70
     0
 43
0.0
 10
-20.0
 20
-23.2
 10
-20.0
 20
-25.0
 10
-30.0
 20
-25.0
 10
-30.0
 20
-23.2
  0
INSERT
  5
100
100
AcDbEntity
  8
GLAS_MED_FOGNING
100
AcDbBlockReference
  2
SP40010
 10
0.0
 20
0.0
 30
0.0
  0
LWPOLYLINE
  5
101
100
AcDbEntity
  8
GLAS_MED_FOGNING
100
AcDbPolyline
 90
        4
 70
     0
 43
0.0
 10
-20.0
 20
23.2
 10
-20.0
 20
25.0
 10
-30.0
 20
25.0
 10
-30.0
 20
23.2
  0
ENDBLK
  5
103
100
AcDbEntity
  8
0
100
AcDbBlockEnd
  0
BLOCK
  5
A1
100
AcDbEntity
  8
0
100
AcDbBlockBegin
  2
*X16
 70
     1
 10
0.0
 20
0.0
 30
0.0
  3
*X16
  1

  0
LINE
  5
95
100
AcDbEntity
  8
0
 62
     0
100
AcDbLine
 10
-21.146165
 20
-6.412563
 30
0.0
 11
-22.466847
 21
-3.580351
 31
0.0
  0
LINE
  5
96
100
AcDbEntity
  8
0
 62
     0
100
AcDbLine
 10
-23.787529
 20
-0.748139
 30
0.0
 11
-25.108211
 21
2.084073
 31
0.0
  0
LINE
  5
97
100
AcDbEntity
  8
0
 62
     0
100
AcDbLine
 10
-26.428893
 20
4.916285
 30
0.0
 11
-27.749575
 21
7.748497
 31
0.0
  0
LINE
  5
98
100
AcDbEntity
  8
0
 62
     0
100
AcDbLine
 10
-22.921371
 20
-10.0
 30
0.0
 11
-23.978377
 21
-7.733245
 31
0.0
  0
LINE
  5
99
100
AcDbEntity
  8
0
 62
     0
100
AcDbLine
 10
-25.299059
 20
-4.901033
 30
0.0
 11
-26.619741
 21
-2.068821
 31
0.0
  0
LINE
  5
9A
100
AcDbEntity
  8
0
 62
     0
100
AcDbLine
 10
-27.940423
 20
0.763391
 30
0.0
 11
-29.261105
 21
3.595603
 31
0.0
  0
LINE
  5
9B
100
AcDbEntity
  8
0
 62
     0
100
AcDbLine
 10
-26.810589
 20
-9.053927
 30
0.0
 11
-28.131271
 21
-6.221715
 31
0.0
  0
LINE
  5
9C
100
AcDbEntity
  8
0
 62
     0
100
AcDbLine
 10
-29.451953
 20
-3.389503
 30
0.0
 11
-30.0
 21
-2.214212
 31
0.0
  0
LINE
  5
9D
100
AcDbEntity
  8
0
 62
     0
100
AcDbLine
 10
-20.0
 20
-1.476141
 30
0.0
 11
-20.955317
 21
0.572543
 31
0.0
  0
LINE
  5
9E
100
AcDbEntity
  8
0
 62
     0
100
AcDbLine
 10
-22.275999
 20
3.404755
 30
0.0
 11
-23.596681
 21
6.236967
 31
0.0
  0
LINE
  5
9F
100
AcDbEntity
  8
0
 62
     0
100
AcDbLine
 10
-24.917363
 20
9.069179
 30
0.0
 11
-25.351413
 21
10.0
 31
0.0
  0
LINE
  5
A0
100
AcDbEntity
  8
0
 62
     0
100
AcDbLine
 10
-20.76447
 20
7.557649
 30
0.0
 11
-21.903357
 21
10.0
 31
0.0
  0
ENDBLK
  5
A2
100
AcDbEntity
  8
0
100
AcDbBlockEnd
  0
BLOCK
  5
A7
100
AcDbEntity
  8
0
100
AcDbBlockBegin
  2
SP75020-20-10
 70
     0
 10
0.0
 20
0.0
 30
0.0
  3
SP75020-20-10
  1

  0
LWPOLYLINE
  5
91
100
AcDbEntity
  8
SPKONTUR
100
AcDbPolyline
 90
        8
 70
     1
 43
0.0
 10
-50.0
 20
8.2
 42
-0.414214
 10
-48.2
 20
10.0
 10
-31.8
 20
10.0
 42
-0.414214
 10
-30.0
 20
8.2
 10
-30.0
 20
-8.2
 42
-0.414214
 10
-31.8
 20
-10.0
 10
-48.2
 20
-10.0
 42
-0.414214
 10
-50.0
 20
-8.2
  0
LWPOLYLINE
  5
92
100
AcDbEntity
  8
SPKONTUR
100
AcDbPolyline
 90
        8
 70
     1
 43
0.0
 10
-20.0
 20
8.2
 42
-0.414214
 10
-18.2
 20
10.0
 10
-1.8
 20
10.0
 42
-0.414214
 10
0.0
 20
8.2
 10
0.0
 20
-8.2
 42
-0.414214
 10
-1.8
 20
-10.0
 10
-18.2
 20
-10.0
 42
-0.414214
 10
-20.0
 20
-8.2
  0
INSERT
  5
93
100
AcDbEntity
  8
GLAS_MED_FOGNING
100
AcDbBlockReference
  2
*X16
 10
0.0
 20
0.0
 30
0.0
1001
ACAD
1000
HATCH
1002
{
1070
    16
1000
DASH
1040
25.0
1040
2.007129
1002
}
  0
LWPOLYLINE
  5
A3
100
AcDbEntity
  8
STALPROFIL
100
AcDbPolyline
 90
        8
 70
     1
 43
1.8
 10
-49.1
 20
8.2
 42
-0.414214
 10
-48.2
 20
9.1
 10
-31.8
 20
9.1
 42
-0.414214
 10
-30.9
 20
8.2
 10
-30.9
 20
-8.2
 42
-0.414214
 10
-31.8
 20
-9.1
 10
-48.2
 20
-9.1
 42
-0.414214
 10
-49.1
 20
-8.2
  0
LWPOLYLINE
  5
A4
100
AcDbEntity
  8
STALPROFIL
100
AcDbPolyline
 90
        8
 70
     1
 43
1.8
 10
-19.1
 20
8.2
 42
-0.414214
 10
-18.2
 20
9.1
 10
-1.8
 20
9.1
 42
-0.414214
 10
-0.9
 20
8.2
 10
-0.9
 20
-8.2
 42
-0.414214
 10
-1.8
 20
-9.1
 10
-18.2
 20
-9.1
 42
-0.414214
 10
-19.1
 20
-8.2
  0
LWPOLYLINE
  5
A5
100
AcDbEntity
  8
GLAS_MED_FOGNING
100
AcDbPolyline
 90
        4
 70
     0
 43
0.0
 10
-20.0
 20
-8.2
 10
-20.0
 20
-10.0
 10
-30.0
 20
-10.0
 10
-30.0
 20
-8.2
  0
LWPOLYLINE
  5
A6
100
AcDbEntity
  8
GLAS_MED_FOGNING
100
AcDbPolyline
 90
        4
 70
     0
 43
0.0
 10
-20.0
 20
8.2
 10
-20.0
 20
10.0
 10
-30.0
 20
10.0
 10
-30.0
 20
8.2
  0
ENDBLK
  5
A8
100
AcDbEntity
  8
0
100
AcDbBlockEnd
  0
ENDSEC
  0
SECTION
  2
ENTITIES
  0
INSERT
  5
1D
100
AcDbEntity
  8
0
100
AcDbBlockReference
  2
SIDA
 10
0.0
 20
0.0
 30
0.0
  0
INSERT
  5
30
100
AcDbEntity
  8
0
100
AcDbBlockReference
  2
SP75021-750-10
 10
-175.0
 20
105.0
 30
0.0
  0
INSERT
  5
60
100
AcDbEntity
  8
0
100
AcDbBlockReference
  2
SP75013-750-10
 10
-295.0
 20
105.0
 30
0.0
  0
TEXT
  5
7E
100
AcDbEntity
  8
TEXT
100
AcDbText
 10
-353.0
 20
76.442857
 30
0.0
 40
5.0
  1
%%USP 75013/750/10
 50
90.0
 41
0.8
  7
ROMANS
 72
     1
 11
-353.0
 21
105.0
 31
0.0
100
AcDbText
  0
TEXT
  5
81
100
AcDbEntity
  8
TEXT
100
AcDbText
 10
-233.0
 20
76.442857
 30
0.0
 40
5.0
  1
%%USP 75021/750/10
 50
90.0
 41
0.8
  7
ROMANS
 72
     1
 11
-233.0
 21
105.0
 31
0.0
100
AcDbText
  0
INSERT
  5
82
100
AcDbEntity
  8
0
100
AcDbBlockReference
  2
SP75012-750-10
 10
-295.0
 20
235.0
 30
0.0
  0
TEXT
  5
8E
100
AcDbEntity
  8
TEXT
100
AcDbText
 10
-353.0
 20
206.442857
 30
0.0
 40
5.0
  1
%%USP 75012/750/10
 50
90.0
 41
0.8
  7
ROMANS
 72
     1
 11
-353.0
 21
235.0
 31
0.0
100
AcDbText
  0
INSERT
  5
8F
100
AcDbEntity
  8
0
100
AcDbBlockReference
  2
SP75020-20-10
 10
-175.0
 20
200.0
 30
0.0
  0
TEXT
  5
A9
100
AcDbEntity
  8
TEXT
100
AcDbText
 10
-233.0
 20
173.347619
 30
0.0
 40
5.0
  1
%%USP 75020/20/10
 50
90.0
 41
0.8
  7
ROMANS
 72
     1
 11
-233.0
 21
200.0
 31
0.0
100
AcDbText
  0
INSERT
  5
AA
100
AcDbEntity
  8
0
100
AcDbBlockReference
  2
SP75020-750-10
 10
-175.0
 20
265.0
 30
0.0
  0
TEXT
  5
B5
100
AcDbEntity
  8
TEXT
100
AcDbText
 10
-233.0
 20
236.442857
 30
0.0
 40
5.0
  1
%%USP 75020/750/10
 50
90.0
 41
0.8
  7
ROMANS
 72
     1
 11
-233.0
 21
265.0
 31
0.0
100
AcDbText
  0
INSERT
  5
B6
100
AcDbEntity
  8
0
100
AcDbBlockReference
  2
SP75025-750-10
 10
-55.0
 20
105.0
 30
0.0
  0
TEXT
  5
C1
100
AcDbEntity
  8
TEXT
100
AcDbText
 10
-113.0
 20
76.442857
 30
0.0
 40
5.0
  1
%%USP 75025/750/10
 50
90.0
 41
0.8
  7
ROMANS
 72
     1
 11
-113.0
 21
105.0
 31
0.0
100
AcDbText
  0
TEXT
  5
C2
100
AcDbEntity
  8
TEXT
100
AcDbText
 10
-89.952381
 20
40.0
 30
0.0
 40
5.0
  1
SP 35000  %%UPAGE 12
 41
0.8
  7
ROMANS
 72
     2
 11
-25.0
 21
40.0
 31
0.0
100
AcDbText
  0
TEXT
  5
C3
100
AcDbEntity
  8
TEXT
100
AcDbText
 10
-96.428571
 20
25.0
 30
0.0
 40
5.0
  1
File name  %%U350Page12
 41
0.8
  7
ROMANS
 72
     2
 11
-25.0
 21
25.0
 31
0.0
100
AcDbText
  0
TEXT
  5
C4
100
AcDbEntity
  8
TEXT
100
AcDbText
 10
-113.0
 20
206.442857
 30
0.0
 40
5.0
  1
%%USP 75024/750/10
 50
90.0
 41
0.8
  7
ROMANS
 72
     1
 11
-113.0
 21
235.0
 31
0.0
100
AcDbText
  0
INSERT
  5
C5
100
AcDbEntity
  8
0
100
AcDbBlockReference
  2
SP75024-750-10
 10
-55.0
 20
235.0
 30
0.0
  0
INSERT
  5
D0
100
AcDbEntity
  8
0
100
AcDbBlockReference
  2
SP75014-750-10
 10
-175.0
 20
495.0
 30
0.0
  0
INSERT
  5
DC
100
AcDbEntity
  8
0
100
AcDbBlockReference
  2
SP75010-750-10
 10
-295.0
 20
495.0
 30
0.0
  0
TEXT
  5
E8
100
AcDbEntity
  8
TEXT
100
AcDbText
 10
-353.0
 20
466.442857
 30
0.0
 40
5.0
  1
%%USP 75010/750/10
 50
90.0
 41
0.8
  7
ROMANS
 72
     1
 11
-353.0
 21
495.0
 31
0.0
100
AcDbText
  0
TEXT
  5
E9
100
AcDbEntity
  8
TEXT
100
AcDbText
 10
-233.0
 20
466.442857
 30
0.0
 40
5.0
  1
%%USP 75014/750/10
 50
90.0
 41
0.8
  7
ROMANS
 72
     1
 11
-233.0
 21
495.0
 31
0.0
100
AcDbText
  0
INSERT
  5
EA
100
AcDbEntity
  8
0
100
AcDbBlockReference
  2
SP75011-750-10
 10
-295.0
 20
365.0
 30
0.0
  0
TEXT
  5
F6
100
AcDbEntity
  8
TEXT
100
AcDbText
 10
-353.0
 20
336.442857
 30
0.0
 40
5.0
  1
%%USP 75011/750/10
 50
90.0
 41
0.8
  7
ROMANS
 72
     1
 11
-353.0
 21
365.0
 31
0.0
100
AcDbText
  0
TEXT
  5
F7
100
AcDbEntity
  8
TEXT
100
AcDbText
 10
-233.0
 20
336.442857
 30
0.0
 40
5.0
  1
%%USP 75015/750/10
 50
90.0
 41
0.8
  7
ROMANS
 72
     1
 11
-233.0
 21
365.0
 31
0.0
100
AcDbText
  0
INSERT
  5
F8
100
AcDbEntity
  8
0
100
AcDbBlockReference
  2
SP75015-750-10
 10
-175.0
 20
365.0
 30
0.0
  0
INSERT
  5
104
100
AcDbEntity
  8
0
100
AcDbBlockReference
  2
SP75022-750-10
 10
-55.0
 20
495.0
 30
0.0
  0
TEXT
  5
10F
100
AcDbEntity
  8
TEXT
100
AcDbText
 10
-113.0
 20
466.442857
 30
0.0
 40
5.0
  1
%%USP 75022/750/10
 50
90.0
 41
0.8
  7
ROMANS
 72
     1
 11
-113.0
 21
495.0
 31
0.0
100
AcDbText
  0
TEXT
  5
110
100
AcDbEntity
  8
TEXT
100
AcDbText
 10
-113.0
 20
336.442857
 30
0.0
 40
5.0
  1
%%USP 75023/750/10
 50
90.0
 41
0.8
  7
ROMANS
 72
     1
 11
-113.0
 21
365.0
 31
0.0
100
AcDbText
  0
INSERT
  5
111
100
AcDbEntity
  8
0
100
AcDbBlockReference
  2
SP75023-750-10
 10
-55.0
 20
365.0
 30
0.0
  0
ENDSEC
  0
SECTION
  2
OBJECTS
  0
DICTIONARY
  5
1A
100
AcDbDictionary
  3
ACAD_GROUP
350
18
  3
ACAD_LAYOUT
350
125
  3
ACAD_MLINESTYLE
350
19
  3
ACAD_PLOTSETTINGS
350
126
  3
ACAD_PLOTSTYLENAME
350
123
  3
ACDBHEADERROUNDTRIPXREC
350
12F
  0
DICTIONARY
  5
12D
100
AcDbDictionary
280
     1
  3
ACAD_XREC_ROUNDTRIP
360
12E
  0
DICTIONARY
  5
14F
100
AcDbDictionary
280
     1
  3
ACAD_LAYOUTSELFREF
360
150
  0
DICTIONARY
  5
151
100
AcDbDictionary
280
     1
  3
ACAD_LAYOUTSELFREF
360
152
  0
DICTIONARY
  5
18
102
{ACAD_REACTORS
330
1A
102
}
100
AcDbDictionary
  0
DICTIONARY
  5
125
102
{ACAD_XDICTIONARY
360
153
102
}
102
{ACAD_REACTORS
330
1A
102
}
100
AcDbDictionary
  3
LAYOUT1
350
128
  3
MODEL
350
127
  0
DICTIONARY
  5
19
102
{ACAD_REACTORS
330
1A
102
}
100
AcDbDictionary
  3
STANDARD
350
1B
  0
DICTIONARY
  5
126
102
{ACAD_REACTORS
330
1A
102
}
100
AcDbDictionary
  0
ACAD_PROXY_OBJECT
  5
123
102
{ACAD_REACTORS
330
1A
102
}
100
AcDbProxyObject
 90
      499
 91
      501
 93
       86
310
405010041939BDC9B585B0
350
124
340
124
 94
        0
  0
DICTIONARY
  5
12F
102
{ACAD_REACTORS
330
1A
102
}
100
AcDbDictionary
  3
CEPSNTYPE
350
139
  3
FINGERPRINTGUID
350
13A
  3
HYPERLINKBASE
350
132
  3
INSUNITS
350
138
  3
LAYOUTDICT
350
134
  3
LWETCUNION
350
137
  3
PLOTSETDICT
350
135
  3
PLOTSTYLNAMDICT
350
136
  3
PSVPSCALE
350
13C
  3
PUCSBASE
350
13F
  3
PUCSORGBACK
350
145
  3
PUCSORGBOTTOM
350
141
  3
PUCSORGFRONT
350
144
  3
PUCSORGLEFT
350
142
  3
PUCSORGRIGHT
350
143
  3
PUCSORGTOP
350
140
  3
PUCSORTHOREF
350
13D
  3
PUCSORTHOVIEW
350
13E
  3
STYLESHEET
350
133
  3
TSTACKALIGN
350
130
  3
TSTACKSIZE
350
131
  3
UCSBASE
350
148
  3
UCSORGBACK
350
14E
  3
UCSORGBOTTOM
350
14A
  3
UCSORGFRONT
350
14D
  3
UCSORGLEFT
350
14B
  3
UCSORGRIGHT
350
14C
  3
UCSORGTOP
350
149
  3
UCSORTHOREF
350
146
  3
UCSORTHOVIEW
350
147
  3
VERSIONGUID
350
13B
  0
XRECORD
  5
12E
102
{ACAD_REACTORS
330
12D
102
}
100
AcDbXrecord
102
EXTNAMES
  1
*ACTIVE
  2
*Active
102
UCS
 74
     0
 71
     1
 10
0.0
 20
0.0
 30
0.0
 10
1.0
 20
0.0
 30
0.0
 10
0.0
 20
1.0
 30
0.0
146
0.0
 79
     0
102
VIEW
281
     0
  0
XRECORD
  5
150
102
{ACAD_REACTORS
330
14F
102
}
100
AcDbXrecord
340
2
  0
XRECORD
  5
152
102
{ACAD_REACTORS
330
151
102
}
100
AcDbXrecord
340
7
  0
DICTIONARY
  5
153
100
AcDbDictionary
280
     1
  3
ACAD_XREC_ROUNDTRIP
360
154
  0
ACAD_PROXY_OBJECT
  5
128
102
{ACAD_REACTORS
330
125
102
}
100
AcDbProxyObject
 90
      499
 91
      503
 93
     1092
310
91D4850204C617365724A65742034562F344D5620506F73745363726970742C00AAAAAA416AA591069074C61796F75743140501A800000000000000000000000000000000000000000101E900000000000241C902A6A6A10232D5E076BC5510408CB5781DAF154410232D5E076BC5510408CB5781DAF15C410232D5E076BC5
310
710408CB5781DAF15C4B
330
7
330
0
340
0
340
0
 94
        0
  0
ACAD_PROXY_OBJECT
  5
127
102
{ACAD_REACTORS
330
125
102
}
100
AcDbProxyObject
 90
      499
 91
      503
 93
      668
310
91D4850204C617365724A65742034562F344D5620506F73745363726970742C01AAAAAAAAA5A69054D6F64656C901A800000000000000000000000000000000000000000000A1000000000000008902A6A6AAAA6
330
2
330
0
340
0
340
0
 94
        0
  0
MLINESTYLE
  5
1B
102
{ACAD_REACTORS
330
19
102
}
100
AcDbMlineStyle
  2
STANDARD
 70
     0
  3

 62
     0
 51
90.0
 52
90.0
 71
     2
 49
0.5
 62
   256
  6
BYLAYER
 49
-0.5
 62
   256
  6
BYLAYER
  0
ACAD_PROXY_OBJECT
  5
124
102
{ACAD_REACTORS
330
123
102
}
100
AcDbProxyObject
 90
      499
 91
      502
 93
        0
 94
        0
  0
XRECORD
  5
139
102
{ACAD_REACTORS
330
12F
102
}
100
AcDbXrecord
 90
        0
  0
XRECORD
  5
13A
102
{ACAD_REACTORS
330
12F
102
}
100
AcDbXrecord
  1
{DCFA0839-0BE8-11D6-AA0B-00D0B7E2A69D}
  0
XRECORD
  5
132
102
{ACAD_REACTORS
330
12F
102
}
100
AcDbXrecord
  1

  0
XRECORD
  5
138
102
{ACAD_REACTORS
330
12F
102
}
100
AcDbXrecord
 90
        0
  0
XRECORD
  5
134
102
{ACAD_REACTORS
330
12F
102
}
100
AcDbXrecord
340
125
  0
XRECORD
  5
137
102
{ACAD_REACTORS
330
12F
102
}
100
AcDbXrecord
 90
    14877
  0
XRECORD
  5
135
102
{ACAD_REACTORS
330
12F
102
}
100
AcDbXrecord
340
126
  0
XRECORD
  5
136
102
{ACAD_REACTORS
330
12F
102
}
100
AcDbXrecord
340
123
  0
XRECORD
  5
13C
102
{ACAD_REACTORS
330
12F
102
}
100
AcDbXrecord
 40
0.0
  0
XRECORD
  5
13F
102
{ACAD_REACTORS
330
12F
102
}
100
AcDbXrecord
340
0
  0
XRECORD
  5
145
102
{ACAD_REACTORS
330
12F
102
}
100
AcDbXrecord
 10
0.0
 20
0.0
 30
0.0
  0
XRECORD
  5
141
102
{ACAD_REACTORS
330
12F
102
}
100
AcDbXrecord
 10
0.0
 20
0.0
 30
0.0
  0
XRECORD
  5
144
102
{ACAD_REACTORS
330
12F
102
}
100
AcDbXrecord
 10
0.0
 20
0.0
 30
0.0
  0
XRECORD
  5
142
102
{ACAD_REACTORS
330
12F
102
}
100
AcDbXrecord
 10
0.0
 20
0.0
 30
0.0
  0
XRECORD
  5
143
102
{ACAD_REACTORS
330
12F
102
}
100
AcDbXrecord
 10
0.0
 20
0.0
 30
0.0
  0
XRECORD
  5
140
102
{ACAD_REACTORS
330
12F
102
}
100
AcDbXrecord
 10
0.0
 20
0.0
 30
0.0
  0
XRECORD
  5
13D
102
{ACAD_REACTORS
330
12F
102
}
100
AcDbXrecord
340
0
  0
XRECORD
  5
13E
102
{ACAD_REACTORS
330
12F
102
}
100
AcDbXrecord
 70
     0
  0
XRECORD
  5
133
102
{ACAD_REACTORS
330
12F
102
}
100
AcDbXrecord
  1

  0
XRECORD
  5
130
102
{ACAD_REACTORS
330
12F
102
}
100
AcDbXrecord
 90
        1
  0
XRECORD
  5
131
102
{ACAD_REACTORS
330
12F
102
}
100
AcDbXrecord
 90
       70
  0
XRECORD
  5
148
102
{ACAD_REACTORS
330
12F
102
}
100
AcDbXrecord
340
0
  0
XRECORD
  5
14E
102
{ACAD_REACTORS
330
12F
102
}
100
AcDbXrecord
 10
0.0
 20
0.0
 30
0.0
  0
XRECORD
  5
14A
102
{ACAD_REACTORS
330
12F
102
}
100
AcDbXrecord
 10
0.0
 20
0.0
 30
0.0
  0
XRECORD
  5
14D
102
{ACAD_REACTORS
330
12F
102
}
100
AcDbXrecord
 10
0.0
 20
0.0
 30
0.0
  0
XRECORD
  5
14B
102
{ACAD_REACTORS
330
12F
102
}
100
AcDbXrecord
 10
0.0
 20
0.0
 30
0.0
  0
XRECORD
  5
14C
102
{ACAD_REACTORS
330
12F
102
}
100
AcDbXrecord
 10
0.0
 20
0.0
 30
0.0
  0
XRECORD
  5
149
102
{ACAD_REACTORS
330
12F
102
}
100
AcDbXrecord
 10
0.0
 20
0.0
 30
0.0
  0
XRECORD
  5
146
102
{ACAD_REACTORS
330
12F
102
}
100
AcDbXrecord
340
0
  0
XRECORD
  5
147
102
{ACAD_REACTORS
330
12F
102
}
100
AcDbXrecord
 70
     0
  0
XRECORD
  5
13B
102
{ACAD_REACTORS
330
12F
102
}
100
AcDbXrecord
  1
{DCFA083B-0BE8-11D6-AA0B-00D0B7E2A69D}
  0
XRECORD
  5
154
102
{ACAD_REACTORS
330
153
102
}
100
AcDbXrecord
102
EXTNAMES
  1
LAYOUT1
  2
Layout1
  1
MODEL
  2
Model
  0
ENDSEC
  0
EOF
