  0
SECTION
  2
HEADER
  9
$ACADVER
  1
AC1014
  9
$ACADMAINTVER
 70
     0
  9
$DWGCODEPAGE
  3
ANSI_1252
  9
$INSBASE
 10
-5.0
 20
20.0
 30
0.0
  9
$EXTMIN
 10
-380.0
 20
24.0
 30
0.0
  9
$EXTMAX
 10
-20.0
 20
560.0
 30
0.0
  9
$LIMMIN
 10
-28.0
 20
-1.0
  9
$LIMMAX
 10
820.0
 20
580.0
  9
$ORTHOMODE
 70
     0
  9
$REGENMODE
 70
     1
  9
$FILLMODE
 70
     1
  9
$QTEXTMODE
 70
     0
  9
$MIRRTEXT
 70
     1
  9
$DRAGMODE
 70
     2
  9
$LTSCALE
 40
5.0
  9
$OSMODE
 70
   547
  9
$ATTMODE
 70
     1
  9
$TEXTSIZE
 40
5.0
  9
$TRACEWID
 40
0.05
  9
$TEXTSTYLE
  7
ROMANS
  9
$CLAYER
  8
ISOLERING
  9
$CELTYPE
  6
BYLAYER
  9
$CECOLOR
 62
   256
  9
$CELTSCALE
 40
1.0
  9
$DELOBJ
 70
     1
  9
$DISPSILH
 70
     0
  9
$DIMSCALE
 40
1.2
  9
$DIMASZ
 40
0.0
  9
$DIMEXO
 40
1.0
  9
$DIMDLI
 40
10.0
  9
$DIMRND
 40
0.0
  9
$DIMDLE
 40
0.0
  9
$DIMEXE
 40
2.0
  9
$DIMTP
 40
0.0
  9
$DIMTM
 40
0.0
  9
$DIMTXT
 40
3.5
  9
$DIMCEN
 40
2.5
  9
$DIMTSZ
 40
1.0
  9
$DIMTOL
 70
     0
  9
$DIMLIM
 70
     0
  9
$DIMTIH
 70
     0
  9
$DIMTOH
 70
     0
  9
$DIMSE1
 70
     0
  9
$DIMSE2
 70
     0
  9
$DIMTAD
 70
     1
  9
$DIMZIN
 70
     8
  9
$DIMBLK
  1

  9
$DIMASO
 70
     1
  9
$DIMSHO
 70
     1
  9
$DIMPOST
  1

  9
$DIMAPOST
  1

  9
$DIMALT
 70
     0
  9
$DIMALTD
 70
     2
  9
$DIMALTF
 40
25.4
  9
$DIMLFAC
 40
1.0
  9
$DIMTOFL
 70
     1
  9
$DIMTVP
 40
0.0
  9
$DIMTIX
 70
     0
  9
$DIMSOXD
 70
     0
  9
$DIMSAH
 70
     0
  9
$DIMBLK1
  1

  9
$DIMBLK2
  1

  9
$DIMSTYLE
  2
STANDARD
  9
$DIMCLRD
 70
     0
  9
$DIMCLRE
 70
     0
  9
$DIMCLRT
 70
     6
  9
$DIMTFAC
 40
1.0
  9
$DIMGAP
 40
0.1
  9
$DIMJUST
 70
     0
  9
$DIMSD1
 70
     0
  9
$DIMSD2
 70
     0
  9
$DIMTOLJ
 70
     1
  9
$DIMTZIN
 70
     0
  9
$DIMALTZ
 70
     0
  9
$DIMALTTZ
 70
     0
  9
$DIMFIT
 70
     3
  9
$DIMUPT
 70
     0
  9
$DIMUNIT
 70
     2
  9
$DIMDEC
 70
     4
  9
$DIMTDEC
 70
     4
  9
$DIMALTU
 70
     2
  9
$DIMALTTD
 70
     2
  9
$DIMTXSTY
  7
ROMANS
  9
$DIMAUNIT
 70
     0
  9
$LUNITS
 70
     2
  9
$LUPREC
 70
     2
  9
$SKETCHINC
 40
29.186267
  9
$FILLETRAD
 40
0.5
  9
$AUNITS
 70
     0
  9
$AUPREC
 70
     4
  9
$MENU
  1
acad
  9
$ELEVATION
 40
0.0
  9
$PELEVATION
 40
0.0
  9
$THICKNESS
 40
0.0
  9
$LIMCHECK
 70
     0
  9
$BLIPMODE
 70
     0
  9
$CHAMFERA
 40
10.0
  9
$CHAMFERB
 40
10.0
  9
$CHAMFERC
 40
0.0
  9
$CHAMFERD
 40
0.0
  9
$SKPOLY
 70
     0
  9
$TDCREATE
 40
2450609.791805555
  9
$TDUPDATE
 40
2452293.357548958
  9
$TDINDWG
 40
0.0037732639
  9
$TDUSRTIMER
 40
0.0037732639
  9
$USRTIMER
 70
     1
  9
$ANGBASE
 50
0.0
  9
$ANGDIR
 70
     0
  9
$PDMODE
 70
    35
  9
$PDSIZE
 40
0.0
  9
$PLINEWID
 40
0.0
  9
$COORDS
 70
     1
  9
$SPLFRAME
 70
     0
  9
$SPLINETYPE
 70
     6
  9
$SPLINESEGS
 70
     8
  9
$ATTDIA
 70
     0
  9
$ATTREQ
 70
     1
  9
$HANDLING
 70
     1
  9
$HANDSEED
  5
127
  9
$SURFTAB1
 70
     6
  9
$SURFTAB2
 70
     6
  9
$SURFTYPE
 70
     6
  9
$SURFU
 70
     6
  9
$SURFV
 70
     6
  9
$UCSNAME
  2

  9
$UCSORG
 10
0.0
 20
0.0
 30
0.0
  9
$UCSXDIR
 10
1.0
 20
0.0
 30
0.0
  9
$UCSYDIR
 10
0.0
 20
1.0
 30
0.0
  9
$PUCSNAME
  2

  9
$PUCSORG
 10
0.0
 20
0.0
 30
0.0
  9
$PUCSXDIR
 10
1.0
 20
0.0
 30
0.0
  9
$PUCSYDIR
 10
0.0
 20
1.0
 30
0.0
  9
$USERI1
 70
     0
  9
$USERI2
 70
     0
  9
$USERI3
 70
     0
  9
$USERI4
 70
     0
  9
$USERI5
 70
     0
  9
$USERR1
 40
0.0
  9
$USERR2
 40
0.0
  9
$USERR3
 40
0.0
  9
$USERR4
 40
0.0
  9
$USERR5
 40
0.0
  9
$WORLDVIEW
 70
     1
  9
$SHADEDGE
 70
     3
  9
$SHADEDIF
 70
    70
  9
$TILEMODE
 70
     1
  9
$MAXACTVP
 70
    16
  9
$PINSBASE
 10
0.0
 20
0.0
 30
0.0
  9
$PLIMCHECK
 70
     0
  9
$PEXTMIN
 10
1.000000E+20
 20
1.000000E+20
 30
1.000000E+20
  9
$PEXTMAX
 10
-1.000000E+20
 20
-1.000000E+20
 30
-1.000000E+20
  9
$PLIMMIN
 10
0.0
 20
0.0
  9
$PLIMMAX
 10
420.0
 20
297.0
  9
$UNITMODE
 70
     0
  9
$VISRETAIN
 70
     0
  9
$PLINEGEN
 70
     0
  9
$PSLTSCALE
 70
     1
  9
$TREEDEPTH
 70
  3020
  9
$PICKSTYLE
 70
     1
  9
$CMLSTYLE
  2
STANDARD
  9
$CMLJUST
 70
     0
  9
$CMLSCALE
 40
1.0
  9
$PROXYGRAPHICS
 70
     1
  9
$MEASUREMENT
 70
     0
  0
ENDSEC
  0
SECTION
  2
CLASSES
  0
CLASS
  1
LWPOLYLINE
  2
AcDbPolyline
  3
"AutoCAD"
 90
        0
280
     0
281
     1
  0
CLASS
  1
ACDBDICTIONARYWDFLT
  2
AcDbDictionaryWithDefault
  3
AutoCAD 2000
 90
        0
280
     0
281
     0
  0
CLASS
  1
ACDBPLACEHOLDER
  2
AcDbPlaceHolder
  3
AutoCAD 2000
 90
        0
280
     0
281
     0
  0
CLASS
  1
LAYOUT
  2
AcDbLayout
  3
AutoCAD 2000
 90
        0
280
     0
281
     0
  0
CLASS
  1
LONG_TRANSACTION
  2
AcDbLongTransaction
  3
AutoCAD 2000
 90
        0
280
     0
281
     0
  0
CLASS
  1
LWPOLYLINE
  2
AcDbPolyline
  3
"AutoCAD"
 90
        0
280
     0
281
     1
  0
CLASS
  1
HATCH
  2
AcDbHatch
  3
"ACAD_SEDONA"
 90
        0
280
     0
281
     1
  0
CLASS
  1
XRECORD
  2
AcDbXrecord
  3
"<Built In>"
 90
        0
280
     0
281
     0
  0
ENDSEC
  0
SECTION
  2
TABLES
  0
TABLE
  2
VPORT
  5
12
100
AcDbSymbolTable
 70
     1
  0
VPORT
  5
F7
102
{ACAD_XDICTIONARY
360
F8
102
}
100
AcDbSymbolTableRecord
100
AcDbViewportTableRecord
  2
*ACTIVE
 70
     0
 10
0.0
 20
0.0
 11
1.0
 21
1.0
 12
-142.400951
 22
292.5
 13
0.0
 23
0.0
 14
5.0
 24
5.0
 15
10.0
 25
10.0
 16
0.0
 26
0.0
 36
1.0
 17
0.0
 27
0.0
 37
0.0
 40
585.0
 41
1.630435
 42
50.0
 43
0.0
 44
0.0
 50
0.0
 51
0.0
 71
     0
 72
   100
 73
     1
 74
     1
 75
     1
 76
     0
 77
     0
 78
     1
  0
ENDTAB
  0
TABLE
  2
LTYPE
  5
D
100
AcDbSymbolTable
 70
     1
  0
LTYPE
  5
E
100
AcDbSymbolTableRecord
100
AcDbLinetypeTableRecord
  2
BYBLOCK
 70
     0
  3

 72
    65
 73
     0
 40
0.0
  0
LTYPE
  5
F
100
AcDbSymbolTableRecord
100
AcDbLinetypeTableRecord
  2
BYLAYER
 70
     0
  3

 72
    65
 73
     0
 40
0.0
  0
LTYPE
  5
5
100
AcDbSymbolTableRecord
100
AcDbLinetypeTableRecord
  2
CONTINUOUS
 70
     0
  3
Solid line
 72
    65
 73
     0
 40
0.0
  0
ENDTAB
  0
TABLE
  2
LAYER
  5
A
100
AcDbSymbolTable
 70
     7
  0
LAYER
  5
4
100
AcDbSymbolTableRecord
100
AcDbLayerTableRecord
  2
0
 70
     0
 62
     7
  6
CONTINUOUS
  0
LAYER
  5
2C
100
AcDbSymbolTableRecord
100
AcDbLayerTableRecord
  2
STALPROFIL
 70
     0
 62
     1
  6
CONTINUOUS
  0
LAYER
  5
8D
100
AcDbSymbolTableRecord
100
AcDbLayerTableRecord
  2
GLAS_MED_FOGNING
 70
     0
 62
     2
  6
CONTINUOUS
  0
LAYER
  5
22
100
AcDbSymbolTableRecord
100
AcDbLayerTableRecord
  2
TEXT
 70
     0
 62
     6
  6
CONTINUOUS
  0
LAYER
  5
1B
100
AcDbSymbolTableRecord
100
AcDbLayerTableRecord
  2
ISOLERING
 70
     0
 62
     3
  6
CONTINUOUS
  0
LAYER
  5
2E
100
AcDbSymbolTableRecord
100
AcDbLayerTableRecord
  2
DIMENSION
 70
     0
 62
     2
  6
CONTINUOUS
  0
LAYER
  5
20
100
AcDbSymbolTableRecord
100
AcDbLayerTableRecord
  2
RAM
 70
     0
 62
     5
  6
CONTINUOUS
  0
ENDTAB
  0
TABLE
  2
STYLE
  5
B
100
AcDbSymbolTable
 70
     2
  0
STYLE
  5
C
100
AcDbSymbolTableRecord
100
AcDbTextStyleTableRecord
  2
STANDARD
 70
     0
 40
0.0
 41
0.8
 50
0.0
 71
     0
 42
5.0
  3
C:/ACADWIN/FONTS/ROMANS.SHX
  4

  0
STYLE
  5
1C
100
AcDbSymbolTableRecord
100
AcDbTextStyleTableRecord
  2
ROMANS
 70
     0
 40
0.0
 41
0.8
 50
0.0
 71
     0
 42
5.0
  3
romans
  4

  0
ENDTAB
  0
TABLE
  2
VIEW
  5
10
100
AcDbSymbolTable
 70
     0
  0
ENDTAB
  0
TABLE
  2
UCS
  5
11
100
AcDbSymbolTable
 70
     0
  0
ENDTAB
  0
TABLE
  2
APPID
  5
14
100
AcDbSymbolTable
 70
     2
  0
APPID
  5
15
100
AcDbSymbolTableRecord
100
AcDbRegAppTableRecord
  2
ACAD
 70
     0
  0
APPID
  5
95
100
AcDbSymbolTableRecord
100
AcDbRegAppTableRecord
  2
CONTENTBLOCKICON
 70
     0
  0
ENDTAB
  0
TABLE
  2
DIMSTYLE
  5
16
100
AcDbSymbolTable
 70
     1
  0
DIMSTYLE
105
1E
100
AcDbSymbolTableRecord
100
AcDbDimStyleTableRecord
  2
STANDARD
 70
     0
  3

  4

  5

  6

  7

 40
1.0
 41
0.18
 42
0.0625
 43
0.38
 44
0.18
 45
0.0
 46
0.0
 47
0.0
 48
0.0
140
0.18
141
0.09
142
0.0
143
25.4
144
1.0
145
0.0
146
1.0
147
0.09
 71
     0
 72
     0
 73
     1
 74
     1
 75
     0
 76
     0
 77
     0
 78
     0
170
     0
171
     2
172
     0
173
     0
174
     0
175
     0
176
     0
177
     0
178
     0
270
     2
271
     4
272
     4
273
     2
274
     2
340
C
275
     0
280
     0
281
     0
282
     0
283
     1
284
     0
285
     0
286
     0
287
     3
288
     0
  0
ENDTAB
  0
TABLE
  2
BLOCK_RECORD
  5
1
100
AcDbSymbolTable
 70
     6
  0
BLOCK_RECORD
  5
2
102
{ACAD_XDICTIONARY
360
11A
102
}
100
AcDbSymbolTableRecord
100
AcDbBlockTableRecord
  2
*MODEL_SPACE
  0
BLOCK_RECORD
  5
7
102
{ACAD_XDICTIONARY
360
11C
102
}
100
AcDbSymbolTableRecord
100
AcDbBlockTableRecord
  2
*PAPER_SPACE
  0
BLOCK_RECORD
  5
9D
100
AcDbSymbolTableRecord
100
AcDbBlockTableRecord
  2
*X0
  0
BLOCK_RECORD
  5
2F
100
AcDbSymbolTableRecord
100
AcDbBlockTableRecord
  2
*X1
  0
BLOCK_RECORD
  5
99
100
AcDbSymbolTableRecord
100
AcDbBlockTableRecord
  2
SP_75021_720_32
1001
CONTENTBLOCKICON
1071
        0
1004
2800000020000000200000000100040000000000000200000000000000000000000000000000000000000000000080000080000000808000800000008000800080800000C0C0C000808080000000FF0000FF000000FFFF00FF000000FF00FF00FFFF0000FFFFFF00FFFFFFFFFFFFFFFFFFFFFFFFFFFFFFFFFFF99999999999
1004
99999999999999FFFFFFF9999999999999999999999999FFFFFFFBFFBFFFBFBFFFBFFFFFFFFFFFFFFFFFFBBFFBFFFFBFFBBFFFFFFFFFFFFFFFFFFBFFFFFFFFFBFFBFFFFFFFFFFFFFFFFFFBBFFBFFBFFFFFBFFFFFFFFFFFFFFFFFFBFBFFFFFFFFFBBFFFFFFFFFFFFFFFFFFBFFFBFFBFFBFFBFFFFFFFFFFFFFFFFFFBFBFFBFFB
1004
FFFFBFFFFFFFFFFFFFFFFFFBFFFFFFFFFBFFBFFFFFFFFFFFFFFFFFFBFBFFFFFBFFBFBFFFFFFFFFFFFFFFFFFBFFBFBFFFFFFFBFFFFFFFFFFFFFFFFFFBFFFFBFFBFFBFBFFFFFFFFFFFFFFFFFFBFFFFFBFFBFFFBFFFFFFFFFFFFFFFFFFBBFBFFFFFFFBFBFFFFFFFFFFFFFFFFFFBFFFFFFFBFFFBBFFFFFFFFFFFFFFFFFFBFFBFFB
1004
FFBFFFBFFFFFFFFFFFFFFFFFFBBFFBFFFFBFFFBFFFFFFFFFFFFFFFFFFBFFFFFBFFFBFBBFFFFFFFFFFFFFFFFFFBFFFBFFBFFFFBBFFFFFFFFFFFFFFFFFFBBFFFFFFFFFFFBFFFFFFFFFFFFFFFFFFBBBBBBBBBBBBBBFFFFFFFFFFFFFFFFFF9999999999999FFFFFFFFFFFFFFFFFFF9FFFFFFFFFF99FFFFFFFFFFFFFFFFFFF9FFFF
1004
FFFFFF99FFFFFFFFFFFFFFFFFFF9FFFFFFFFFF99FFFFFFFFFFFFFFFFFFF9FFFFFFFFFF99FFFFFFFFFFFFFFFFFFF9FFFFFFFFFF99FFFFFFFFFFFFFFFFFFF9FFFFFFFFFF99FFFFFFFFFFFFFFFFFFF9FFFFFFFFFF99FFFFFFFFFFFFFFFFFFFF9999999999FFFFFFFFFFFFFFFFFF
  0
BLOCK_RECORD
  5
DD
100
AcDbSymbolTableRecord
100
AcDbBlockTableRecord
  2
SP_75022_720_32
1001
CONTENTBLOCKICON
1071
        0
1004
2800000020000000200000000100040000000000000200000000000000000000000000000000000000000000000080000080000000808000800000008000800080800000C0C0C000808080000000FF0000FF000000FFFF00FF000000FF00FF00FFFF0000FFFFFF00FFFFFFFFFFFFFFFFFFFFFFFFFFFFFFFFFFFFFFFFFFFFFF
1004
FFFFFFFFFFFFFFFFFFFFFFFFFFFFFFFFFFFFFFFFFFFFFFFFFFFFFFFFFFFFFFFFFFFFFFFFFFFFFFFFFF9999999999999999999999999999999F99999999999BBBBBBBBBBB999999999FFFFFFFFFFFBBFFBFBFFFBBFFFFFFFFFFFFFFFFFFFFBFFFFFFFFFFBFFFFFFFFFFFFFFFFFFFFBBFFBFBFBFFBFFFFFFFFFFFFFFFFFFFFBF
1004
BFFFBFBFFBFFFFFFFFFFFFFFFFFFFFBFFFFFFBFBFBFFFFFFFFFFFFFFFFFFFFBFBFBFFFFFFBFFFFFFFFFFFFFFFFFFFFBFFFBFFBFBFBFFFFFFFFFFFFFFFFFFFFBFBFFBFFFBFBFFFFFFFFFFFFFFFFFFFFBFFFFFFFFFBBFFFFFFFFFFFFFFFFFFFFBFFBFBFBFFFBFFFFFFFFFFFFFFFFFFFFBBFFFFFBFFFBFFFFFFFFFFFFFFFFFFFF
1004
BFFFFBFFBFBBFFFFFFFFFFFFFFFFFFFFBBFBFFFFFFFBFFFFFFFFFFFFFFFFFFFFBFFBFFFFBFBBFFFFFFFFFFFFFFFFFFFFBBFFBFBFFFBBFFFFFFFFFFFFFFFFFFFFBBBBBBBBBBBBFFFFFFFFFFFFFFFFFFFF99999999999FFFFFFFFFFFFFFFFFFFFF9FFFFFFFFF9FFFFFFFFFFFFFFFFFFFFF9FFFFFFFFF9FFFFFFFFFFFFFFFFFFF
1004
FF9FFFFFFFFF9FFFFFFFFFFFFFFFFFFFFF9FFFFFFFFF9FFFFFFFFFFFFFFFFFFFFF9FFFFFFFFF9FFFFFFFFFFFFFFFFFFFFF9FFFFFFFFF9FFFFFFFFFFFFFFFFFFFFFF999999999FFFFFFFFFFFFFFFFFFFFFFFFFFFFFFFFFFFFFFFFFFFFFFFFFFFFFFFFFFFFFFFFFFFFFFFFFFFF
  0
BLOCK_RECORD
  5
2A
100
AcDbSymbolTableRecord
100
AcDbBlockTableRecord
  2
SP_75021_750_32
1001
CONTENTBLOCKICON
1071
        0
1004
2800000020000000200000000100040000000000000200000000000000000000000000000000000000000000000080000080000000808000800000008000800080800000C0C0C000808080000000FF0000FF000000FFFF00FF000000FF00FF00FFFF0000FFFFFF00FFFFFFFFFFFFFFFFFFFFFFFFFFFFFFFFFFFFFFFFFFFFFF
1004
FFFFFFFFFFFFFFFFFFFFFFFFFFFFFFFFFFFFFFFFFFFFFFFFFFFFFFFFFFFFFFFFFFFFFFFFFFFFFFFFFFFFFFFFFFFFFFFFFFFFFFFFFFFFFFFFFFFFFFFFFFFFFFFFFFFFFFFFFFFFFFFFFF9BBBBBBBBBBBBBBBBBBBBBB99999999FBBFBFBFBFBFBFFFFFFFBFBBFFFFFFFFFBFBFBFBFFFFBFBBBFBFFFBBFFFFFFFFFBFFFFFFFBFBF
1004
BFFFFFFFBFBFFFFFFFFFBFBFBFBFFFFFFFBFBFBFFFBFFFFFFFFFBFFFFFFFBFBFBFFFFFFFBFBFFFFFFFFFBFBFBFBFFFFFFFBFBFBFFFBFFFFFFFFFBFFFFFBFBFBFBFBFFFBFBFBFFFFFFFFFBFFBFBFBFFFFFBFBBFFFFFBFFFFFFFFFBBFFFFFBFBFBFFFFFFFBFBBFFFFFFFFFBBFBFBFFFFFFFBFBFBFFFFBFFFFFFFFFBFFFFFFBFB
1004
FBFFFFFFFBFBBFFFFFFFFFBBFBFBFBFFFFFBFBFBFFFFBFFFFFFFFFBFFFFFFFBBFBFFFBFFFBFBBFFFFFFFFFBBBBBBBBBBBBBBBBBBBBBBBFFFFFFFFF9999999999999999999999FFFFFFFFFF9FFFFFFFFFFFFFFFFFFFF9FFFFFFFFFF9FFFFFFFFFFFFFFFFFFFF9FFFFFFFFFF9FFFFFFFFFFFFFFFFFFFF9FFFFFFFFFF9FFFFFFF
1004
FFFFFFFFFFFFF9FFFFFFFFFF9FFFFFFFFFFFFFFFFFFFF9FFFFFFFFFF9999999999999999999999FFFFFFFFFFFFFFFFFFFFFFFFFFFFFFFFFFFFFFFFFFFFFFFFFFFFFFFFFFFFFFFFFFFFFFFFFFFFFFFFFFFFFFFFFFFFFFFFFFFFFFFFFFFFFFFFFFFFFFFFFFFFFFFFFFFFFFFFFF
  0
BLOCK_RECORD
  5
CF
100
AcDbSymbolTableRecord
100
AcDbBlockTableRecord
  2
SP_75022_750_32
1001
CONTENTBLOCKICON
1071
        0
1004
2800000020000000200000000100040000000000000200000000000000000000000000000000000000000000000080000080000000808000800000008000800080800000C0C0C000808080000000FF0000FF000000FFFF00FF000000FF00FF00FFFF0000FFFFFF00FFFFFFFFFFFFFFFFFFFFFFFFFFFFFFFFFFFFFFFFFFFFFF
1004
FFFFFFFFFFFFFFFFFFFFFFFFFFFFFFFFFFFFFFFFFFFFFFFFFFFFFFFFFFFFFFFFFFFFFFFFFFFFFFFFFFFFFFFFFFFFFFFFFFFFFFFFFFFFFFFFFFFFFFFFFFFFFFFFFFFFFFFFFFFFFFFFFFFFFFFFFFFFFFFFFFFFFFFFFFFFFFFFFFFFFFFFFFFFFFFFFFFFFFFFFFFFFFFFFF99999999BBBBBBBBBBBBBBBBB999999FFFFFFFFBFFBB
1004
FBBFFFFBBFBBBFFFFFFFFFFFFFFBBFFFFBBFBBFFFFBFBFFFFFFFFFFFFFFBBFBBFFFFBFBBFBFFBFFFFFFFFFFFFFFBFFBFBBFBFFFBFBBFBFFFFFFFFFFFFFFBFBFFFBFBBFBFFFFBBFFFFFFFFFFFFFFBFBBFBFFFFBBFBBFFBFFFFFFFFFFFFFFBFFFBBFBBFFFFBBFBBFFFFFFFFFFFFFFBBBFFFFBBFBBFFFFBBFFFFFFFFFFFFFFBBB
1004
FBBFFFFBFBBFBFBFFFFFFFFFFFFFFBFFFBFBBFBFFFBFBBBFFFFFFFFFFFFFFBBBBBBBBBBBBBBBBBBFFFFFFFFFFFFFF99999999999999999FFFFFFFFFFFFFFF9FFFFFFFFFFFFFFF9FFFFFFFFFFFFFFF9FFFFFFFFFFFFFFF9FFFFFFFFFFFFFFF9FFFFFFFFFFFFFFF9FFFFFFFFFFFFFFF9FFFFFFFFFFFFFFF9FFFFFFFFFFFFFFFF
1004
FFFFFFFFFFFFFFFFFFFFFFFFFFFFFFFFFFFFFFFFFFFFFFFFFFFFFFFFFFFFFFFFFFFFFFFFFFFFFFFFFFFFFFFFFFFFFFFFFFFFFFFFFFFFFFFFFFFFFFFFFFFFFFFFFFFFFFFFFFFFFFFFFFFFFFFFFFFFFFFFFFFFFFFFFFFFFFFFFFFFFFFFFFFFFFFFFFFFFFFFFFFFFFFFFFFFFFFF
  0
ENDTAB
  0
ENDSEC
  0
SECTION
  2
BLOCKS
  0
BLOCK
  5
3
100
AcDbEntity
  8
0
100
AcDbBlockBegin
  2
*MODEL_SPACE
 70
     0
 10
0.0
 20
0.0
 30
0.0
  3
*MODEL_SPACE
  1

  0
ENDBLK
  5
6
100
AcDbEntity
  8
0
100
AcDbBlockEnd
  0
BLOCK
  5
8
100
AcDbEntity
 67
     1
  8
0
100
AcDbBlockBegin
  2
*PAPER_SPACE
 70
     0
 10
0.0
 20
0.0
 30
0.0
  3
*PAPER_SPACE
  1

  0
ENDBLK
  5
9
100
AcDbEntity
 67
     1
  8
0
100
AcDbBlockEnd
  0
BLOCK
  5
C5
100
AcDbEntity
  8
0
100
AcDbBlockBegin
  2
*X0
 70
     1
 10
0.0
 20
0.0
 30
0.0
  3
*X0
  1
RITRAM
  0
LINE
  5
9E
100
AcDbEntity
  8
0
 62
     0
100
AcDbLine
 10
283.676022
 20
-121.821241
 30
0.0
 11
281.116172
 21
-123.613667
 31
0.0
  0
LINE
  5
9F
100
AcDbEntity
  8
0
 62
     0
100
AcDbLine
 10
278.556321
 20
-125.406093
 30
0.0
 11
275.996471
 21
-127.19852
 31
0.0
  0
LINE
  5
A0
100
AcDbEntity
  8
0
 62
     0
100
AcDbLine
 10
273.436621
 20
-128.990946
 30
0.0
 11
270.876771
 21
-130.783373
 31
0.0
  0
LINE
  5
A1
100
AcDbEntity
  8
0
 62
     0
100
AcDbLine
 10
268.316921
 20
-132.575799
 30
0.0
 11
265.757071
 21
-134.368225
 31
0.0
  0
LINE
  5
A2
100
AcDbEntity
  8
0
 62
     0
100
AcDbLine
 10
282.908598
 20
-126.173517
 30
0.0
 11
280.348748
 21
-127.965944
 31
0.0
  0
LINE
  5
A3
100
AcDbEntity
  8
0
 62
     0
100
AcDbLine
 10
277.788898
 20
-129.75837
 30
0.0
 11
275.229048
 21
-131.550796
 31
0.0
  0
LINE
  5
A4
100
AcDbEntity
  8
0
 62
     0
100
AcDbLine
 10
272.669197
 20
-133.343223
 30
0.0
 11
270.109347
 21
-135.135649
 31
0.0
  0
LINE
  5
A5
100
AcDbEntity
  8
0
 62
     0
100
AcDbLine
 10
267.549497
 20
-136.928075
 30
0.0
 11
265.0
 21
-138.713253
 31
0.0
  0
LINE
  5
A6
100
AcDbEntity
  8
0
 62
     0
100
AcDbLine
 10
285.0
 20
-128.524022
 30
0.0
 11
284.701024
 21
-128.733367
 31
0.0
  0
LINE
  5
A7
100
AcDbEntity
  8
0
 62
     0
100
AcDbLine
 10
282.141174
 20
-130.525794
 30
0.0
 11
279.581324
 21
-132.31822
 31
0.0
  0
LINE
  5
A8
100
AcDbEntity
  8
0
 62
     0
100
AcDbLine
 10
277.021474
 20
-134.110646
 30
0.0
 11
274.461624
 21
-135.903073
 31
0.0
  0
LINE
  5
A9
100
AcDbEntity
  8
0
 62
     0
100
AcDbLine
 10
271.901774
 20
-137.695499
 30
0.0
 11
269.341923
 21
-139.487926
 31
0.0
  0
LINE
  5
AA
100
AcDbEntity
  8
0
 62
     0
100
AcDbLine
 10
266.782073
 20
-141.280352
 30
0.0
 11
265.0
 21
-142.528173
 31
0.0
  0
LINE
  5
AB
100
AcDbEntity
  8
0
 62
     0
100
AcDbLine
 10
285.0
 20
-132.338943
 30
0.0
 11
283.933601
 21
-133.085644
 31
0.0
  0
LINE
  5
AC
100
AcDbEntity
  8
0
 62
     0
100
AcDbLine
 10
281.37375
 20
-134.87807
 30
0.0
 11
278.8139
 21
-136.670497
 31
0.0
  0
LINE
  5
AD
100
AcDbEntity
  8
0
 62
     0
100
AcDbLine
 10
276.25405
 20
-138.462923
 30
0.0
 11
273.6942
 21
-140.255349
 31
0.0
  0
LINE
  5
AE
100
AcDbEntity
  8
0
 62
     0
100
AcDbLine
 10
271.13435
 20
-142.047776
 30
0.0
 11
268.5745
 21
-143.840202
 31
0.0
  0
LINE
  5
AF
100
AcDbEntity
  8
0
 62
     0
100
AcDbLine
 10
285.0
 20
-136.153864
 30
0.0
 11
283.166177
 21
-137.43792
 31
0.0
  0
LINE
  5
B0
100
AcDbEntity
  8
0
 62
     0
100
AcDbLine
 10
280.606327
 20
-139.230347
 30
0.0
 11
278.046477
 21
-141.022773
 31
0.0
  0
LINE
  5
B1
100
AcDbEntity
  8
0
 62
     0
100
AcDbLine
 10
275.486626
 20
-142.815199
 30
0.0
 11
272.926776
 21
-144.607626
 31
0.0
  0
LINE
  5
B2
100
AcDbEntity
  8
0
 62
     0
100
AcDbLine
 10
284.958603
 20
-139.997771
 30
0.0
 11
282.398753
 21
-141.790197
 31
0.0
  0
LINE
  5
B3
100
AcDbEntity
  8
0
 62
     0
100
AcDbLine
 10
279.838903
 20
-143.582623
 30
0.0
 11
277.814679
 21
-145.0
 31
0.0
  0
LINE
  5
B4
100
AcDbEntity
  8
0
 62
     0
100
AcDbLine
 10
284.191179
 20
-144.350047
 30
0.0
 11
283.26295
 21
-145.0
 31
0.0
  0
LINE
  5
B5
100
AcDbEntity
  8
0
 62
     0
100
AcDbLine
 10
284.443446
 20
-117.468964
 30
0.0
 11
281.883595
 21
-119.261391
 31
0.0
  0
LINE
  5
B6
100
AcDbEntity
  8
0
 62
     0
100
AcDbLine
 10
279.323745
 20
-121.053817
 30
0.0
 11
276.763895
 21
-122.846243
 31
0.0
  0
LINE
  5
B7
100
AcDbEntity
  8
0
 62
     0
100
AcDbLine
 10
274.204045
 20
-124.63867
 30
0.0
 11
271.644195
 21
-126.431096
 31
0.0
  0
LINE
  5
B8
100
AcDbEntity
  8
0
 62
     0
100
AcDbLine
 10
269.084345
 20
-128.223522
 30
0.0
 11
266.524495
 21
-130.015949
 31
0.0
  0
LINE
  5
B9
100
AcDbEntity
  8
0
 62
     0
100
AcDbLine
 10
285.0
 20
-113.26434
 30
0.0
 11
282.651019
 21
-114.909114
 31
0.0
  0
LINE
  5
BA
100
AcDbEntity
  8
0
 62
     0
100
AcDbLine
 10
280.091169
 20
-116.70154
 30
0.0
 11
277.531319
 21
-118.493967
 31
0.0
  0
LINE
  5
BB
100
AcDbEntity
  8
0
 62
     0
100
AcDbLine
 10
274.971469
 20
-120.286393
 30
0.0
 11
272.411619
 21
-122.07882
 31
0.0
  0
LINE
  5
BC
100
AcDbEntity
  8
0
 62
     0
100
AcDbLine
 10
269.851768
 20
-123.871246
 30
0.0
 11
267.291918
 21
-125.663672
 31
0.0
  0
LINE
  5
BD
100
AcDbEntity
  8
0
 62
     0
100
AcDbLine
 10
279.929245
 20
-113.0
 30
0.0
 11
278.298743
 21
-114.14169
 31
0.0
  0
LINE
  5
BE
100
AcDbEntity
  8
0
 62
     0
100
AcDbLine
 10
275.738893
 20
-115.934117
 30
0.0
 11
273.179042
 21
-117.726543
 31
0.0
  0
LINE
  5
BF
100
AcDbEntity
  8
0
 62
     0
100
AcDbLine
 10
270.619192
 20
-119.518969
 30
0.0
 11
268.059342
 21
-121.311396
 31
0.0
  0
LINE
  5
C0
100
AcDbEntity
  8
0
 62
     0
100
AcDbLine
 10
265.499492
 20
-123.103822
 30
0.0
 11
265.0
 21
-123.45357
 31
0.0
  0
LINE
  5
C1
100
AcDbEntity
  8
0
 62
     0
100
AcDbLine
 10
274.480974
 20
-113.0
 30
0.0
 11
273.946466
 21
-113.374267
 31
0.0
  0
LINE
  5
C2
100
AcDbEntity
  8
0
 62
     0
100
AcDbLine
 10
271.386616
 20
-115.166693
 30
0.0
 11
268.826766
 21
-116.959119
 31
0.0
  0
LINE
  5
C3
100
AcDbEntity
  8
0
 62
     0
100
AcDbLine
 10
266.266916
 20
-118.751546
 30
0.0
 11
265.0
 21
-119.63865
 31
0.0
  0
LINE
  5
C4
100
AcDbEntity
  8
0
 62
     0
100
AcDbLine
 10
267.03434
 20
-114.399269
 30
0.0
 11
265.0
 21
-115.823729
 31
0.0
  0
ENDBLK
  5
C6
100
AcDbEntity
  8
0
100
AcDbBlockEnd
  0
BLOCK
  5
8A
100
AcDbEntity
  8
0
100
AcDbBlockBegin
  2
*X1
 70
     1
 10
0.0
 20
0.0
 30
0.0
  3
*X1
  1

  0
LINE
  5
30
100
AcDbEntity
  8
0
 62
     0
100
AcDbLine
 10
297.706286
 20
-215.0
 30
0.0
 11
296.233632
 21
-216.031164
 31
0.0
  0
LINE
  5
31
100
AcDbEntity
  8
0
 62
     0
100
AcDbLine
 10
293.673781
 20
-217.82359
 30
0.0
 11
291.113931
 21
-219.616016
 31
0.0
  0
LINE
  5
32
100
AcDbEntity
  8
0
 62
     0
100
AcDbLine
 10
288.554081
 20
-221.408443
 30
0.0
 11
285.994231
 21
-223.200869
 31
0.0
  0
LINE
  5
33
100
AcDbEntity
  8
0
 62
     0
100
AcDbLine
 10
283.434381
 20
-224.993295
 30
0.0
 11
280.874531
 21
-226.785722
 31
0.0
  0
LINE
  5
34
100
AcDbEntity
  8
0
 62
     0
100
AcDbLine
 10
278.314681
 20
-228.578148
 30
0.0
 11
275.754831
 21
-230.370574
 31
0.0
  0
LINE
  5
35
100
AcDbEntity
  8
0
 62
     0
100
AcDbLine
 10
273.19498
 20
-232.163001
 30
0.0
 11
270.63513
 21
-233.955427
 31
0.0
  0
LINE
  5
36
100
AcDbEntity
  8
0
 62
     0
100
AcDbLine
 10
268.07528
 20
-235.747854
 30
0.0
 11
265.51543
 21
-237.54028
 31
0.0
  0
LINE
  5
37
100
AcDbEntity
  8
0
 62
     0
100
AcDbLine
 10
262.95558
 20
-239.332706
 30
0.0
 11
260.39573
 21
-241.125133
 31
0.0
  0
LINE
  5
38
100
AcDbEntity
  8
0
 62
     0
100
AcDbLine
 10
257.83588
 20
-242.917559
 30
0.0
 11
255.276029
 21
-244.709985
 31
0.0
  0
LINE
  5
39
100
AcDbEntity
  8
0
 62
     0
100
AcDbLine
 10
252.716179
 20
-246.502412
 30
0.0
 11
252.00555
 21
-247.0
 31
0.0
  0
LINE
  5
3A
100
AcDbEntity
  8
0
 62
     0
100
AcDbLine
 10
298.026058
 20
-218.591014
 30
0.0
 11
295.466208
 21
-220.38344
 31
0.0
  0
LINE
  5
3B
100
AcDbEntity
  8
0
 62
     0
100
AcDbLine
 10
292.906358
 20
-222.175866
 30
0.0
 11
290.346508
 21
-223.968293
 31
0.0
  0
LINE
  5
3C
100
AcDbEntity
  8
0
 62
     0
100
AcDbLine
 10
287.786657
 20
-225.760719
 30
0.0
 11
285.226807
 21
-227.553146
 31
0.0
  0
LINE
  5
3D
100
AcDbEntity
  8
0
 62
     0
100
AcDbLine
 10
282.666957
 20
-229.345572
 30
0.0
 11
280.107107
 21
-231.137998
 31
0.0
  0
LINE
  5
3E
100
AcDbEntity
  8
0
 62
     0
100
AcDbLine
 10
277.547257
 20
-232.930425
 30
0.0
 11
274.987407
 21
-234.722851
 31
0.0
  0
LINE
  5
3F
100
AcDbEntity
  8
0
 62
     0
100
AcDbLine
 10
272.427557
 20
-236.515277
 30
0.0
 11
269.867706
 21
-238.307704
 31
0.0
  0
LINE
  5
40
100
AcDbEntity
  8
0
 62
     0
100
AcDbLine
 10
267.307856
 20
-240.10013
 30
0.0
 11
264.748006
 21
-241.892556
 31
0.0
  0
LINE
  5
41
100
AcDbEntity
  8
0
 62
     0
100
AcDbLine
 10
262.188156
 20
-243.684983
 30
0.0
 11
259.628306
 21
-245.477409
 31
0.0
  0
LINE
  5
42
100
AcDbEntity
  8
0
 62
     0
100
AcDbLine
 10
300.0
 20
-221.023765
 30
0.0
 11
299.818484
 21
-221.150864
 31
0.0
  0
LINE
  5
43
100
AcDbEntity
  8
0
 62
     0
100
AcDbLine
 10
297.258634
 20
-222.94329
 30
0.0
 11
294.698784
 21
-224.735717
 31
0.0
  0
LINE
  5
44
100
AcDbEntity
  8
0
 62
     0
100
AcDbLine
 10
292.138934
 20
-226.528143
 30
0.0
 11
289.579084
 21
-228.320569
 31
0.0
  0
LINE
  5
45
100
AcDbEntity
  8
0
 62
     0
100
AcDbLine
 10
287.019234
 20
-230.112996
 30
0.0
 11
284.459384
 21
-231.905422
 31
0.0
  0
LINE
  5
46
100
AcDbEntity
  8
0
 62
     0
100
AcDbLine
 10
281.899533
 20
-233.697848
 30
0.0
 11
279.339683
 21
-235.490275
 31
0.0
  0
LINE
  5
47
100
AcDbEntity
  8
0
 62
     0
100
AcDbLine
 10
276.779833
 20
-237.282701
 30
0.0
 11
274.219983
 21
-239.075127
 31
0.0
  0
LINE
  5
48
100
AcDbEntity
  8
0
 62
     0
100
AcDbLine
 10
271.660133
 20
-240.867554
 30
0.0
 11
269.100283
 21
-242.65998
 31
0.0
  0
LINE
  5
49
100
AcDbEntity
  8
0
 62
     0
100
AcDbLine
 10
266.540433
 20
-244.452407
 30
0.0
 11
263.980582
 21
-246.244833
 31
0.0
  0
LINE
  5
4A
100
AcDbEntity
  8
0
 62
     0
100
AcDbLine
 10
300.0
 20
-224.838686
 30
0.0
 11
299.051061
 21
-225.50314
 31
0.0
  0
LINE
  5
4B
100
AcDbEntity
  8
0
 62
     0
100
AcDbLine
 10
296.49121
 20
-227.295567
 30
0.0
 11
293.93136
 21
-229.087993
 31
0.0
  0
LINE
  5
4C
100
AcDbEntity
  8
0
 62
     0
100
AcDbLine
 10
291.37151
 20
-230.880419
 30
0.0
 11
288.81166
 21
-232.672846
 31
0.0
  0
LINE
  5
4D
100
AcDbEntity
  8
0
 62
     0
100
AcDbLine
 10
286.25181
 20
-234.465272
 30
0.0
 11
283.69196
 21
-236.257699
 31
0.0
  0
LINE
  5
4E
100
AcDbEntity
  8
0
 62
     0
100
AcDbLine
 10
281.13211
 20
-238.050125
 30
0.0
 11
278.572259
 21
-239.842551
 31
0.0
  0
LINE
  5
4F
100
AcDbEntity
  8
0
 62
     0
100
AcDbLine
 10
276.012409
 20
-241.634978
 30
0.0
 11
273.452559
 21
-243.427404
 31
0.0
  0
LINE
  5
50
100
AcDbEntity
  8
0
 62
     0
100
AcDbLine
 10
270.892709
 20
-245.21983
 30
0.0
 11
268.350363
 21
-247.0
 31
0.0
  0
LINE
  5
51
100
AcDbEntity
  8
0
 62
     0
100
AcDbLine
 10
300.0
 20
-228.653606
 30
0.0
 11
298.283637
 21
-229.855417
 31
0.0
  0
LINE
  5
52
100
AcDbEntity
  8
0
 62
     0
100
AcDbLine
 10
295.723787
 20
-231.647843
 30
0.0
 11
293.163937
 21
-233.44027
 31
0.0
  0
LINE
  5
53
100
AcDbEntity
  8
0
 62
     0
100
AcDbLine
 10
290.604086
 20
-235.232696
 30
0.0
 11
288.044236
 21
-237.025122
 31
0.0
  0
LINE
  5
54
100
AcDbEntity
  8
0
 62
     0
100
AcDbLine
 10
285.484386
 20
-238.817549
 30
0.0
 11
282.924536
 21
-240.609975
 31
0.0
  0
LINE
  5
55
100
AcDbEntity
  8
0
 62
     0
100
AcDbLine
 10
280.364686
 20
-242.402401
 30
0.0
 11
277.804836
 21
-244.194828
 31
0.0
  0
LINE
  5
56
100
AcDbEntity
  8
0
 62
     0
100
AcDbLine
 10
275.244986
 20
-245.987254
 30
0.0
 11
273.798635
 21
-247.0
 31
0.0
  0
LINE
  5
57
100
AcDbEntity
  8
0
 62
     0
100
AcDbLine
 10
300.0
 20
-232.468527
 30
0.0
 11
297.516213
 21
-234.207693
 31
0.0
  0
LINE
  5
58
100
AcDbEntity
  8
0
 62
     0
100
AcDbLine
 10
294.956363
 20
-236.00012
 30
0.0
 11
292.396513
 21
-237.792546
 31
0.0
  0
LINE
  5
59
100
AcDbEntity
  8
0
 62
     0
100
AcDbLine
 10
289.836663
 20
-239.584972
 30
0.0
 11
287.276812
 21
-241.377399
 31
0.0
  0
LINE
  5
5A
100
AcDbEntity
  8
0
 62
     0
100
AcDbLine
 10
284.716962
 20
-243.169825
 30
0.0
 11
282.157112
 21
-244.962252
 31
0.0
  0
LINE
  5
5B
100
AcDbEntity
  8
0
 62
     0
100
AcDbLine
 10
279.597262
 20
-246.754678
 30
0.0
 11
279.246906
 21
-247.0
 31
0.0
  0
LINE
  5
5C
100
AcDbEntity
  8
0
 62
     0
100
AcDbLine
 10
299.308639
 20
-236.767543
 30
0.0
 11
296.748789
 21
-238.55997
 31
0.0
  0
LINE
  5
5D
100
AcDbEntity
  8
0
 62
     0
100
AcDbLine
 10
294.188939
 20
-240.352396
 30
0.0
 11
291.629089
 21
-242.144823
 31
0.0
  0
LINE
  5
5E
100
AcDbEntity
  8
0
 62
     0
100
AcDbLine
 10
289.069239
 20
-243.937249
 30
0.0
 11
286.509389
 21
-245.729675
 31
0.0
  0
LINE
  5
5F
100
AcDbEntity
  8
0
 62
     0
100
AcDbLine
 10
298.541216
 20
-241.11982
 30
0.0
 11
295.981365
 21
-242.912246
 31
0.0
  0
LINE
  5
60
100
AcDbEntity
  8
0
 62
     0
100
AcDbLine
 10
293.421515
 20
-244.704673
 30
0.0
 11
290.861665
 21
-246.497099
 31
0.0
  0
LINE
  5
61
100
AcDbEntity
  8
0
 62
     0
100
AcDbLine
 10
297.773792
 20
-245.472096
 30
0.0
 11
295.591719
 21
-247.0
 31
0.0
  0
LINE
  5
62
100
AcDbEntity
  8
0
 62
     0
100
AcDbLine
 10
292.258015
 20
-215.0
 30
0.0
 11
291.881355
 21
-215.26374
 31
0.0
  0
LINE
  5
63
100
AcDbEntity
  8
0
 62
     0
100
AcDbLine
 10
289.321505
 20
-217.056166
 30
0.0
 11
286.761655
 21
-218.848592
 31
0.0
  0
LINE
  5
64
100
AcDbEntity
  8
0
 62
     0
100
AcDbLine
 10
284.201805
 20
-220.641019
 30
0.0
 11
281.641955
 21
-222.433445
 31
0.0
  0
LINE
  5
65
100
AcDbEntity
  8
0
 62
     0
100
AcDbLine
 10
279.082104
 20
-224.225872
 30
0.0
 11
276.522254
 21
-226.018298
 31
0.0
  0
LINE
  5
66
100
AcDbEntity
  8
0
 62
     0
100
AcDbLine
 10
273.962404
 20
-227.810724
 30
0.0
 11
271.402554
 21
-229.603151
 31
0.0
  0
LINE
  5
67
100
AcDbEntity
  8
0
 62
     0
100
AcDbLine
 10
268.842704
 20
-231.395577
 30
0.0
 11
266.282854
 21
-233.188003
 31
0.0
  0
LINE
  5
68
100
AcDbEntity
  8
0
 62
     0
100
AcDbLine
 10
263.723004
 20
-234.98043
 30
0.0
 11
261.163153
 21
-236.772856
 31
0.0
  0
LINE
  5
69
100
AcDbEntity
  8
0
 62
     0
100
AcDbLine
 10
258.603303
 20
-238.565282
 30
0.0
 11
256.043453
 21
-240.357709
 31
0.0
  0
LINE
  5
6A
100
AcDbEntity
  8
0
 62
     0
100
AcDbLine
 10
253.483603
 20
-242.150135
 30
0.0
 11
250.923753
 21
-243.942562
 31
0.0
  0
LINE
  5
6B
100
AcDbEntity
  8
0
 62
     0
100
AcDbLine
 10
284.969228
 20
-216.288742
 30
0.0
 11
282.409378
 21
-218.081169
 31
0.0
  0
LINE
  5
6C
100
AcDbEntity
  8
0
 62
     0
100
AcDbLine
 10
279.849528
 20
-219.873595
 30
0.0
 11
277.289678
 21
-221.666021
 31
0.0
  0
LINE
  5
6D
100
AcDbEntity
  8
0
 62
     0
100
AcDbLine
 10
274.729828
 20
-223.458448
 30
0.0
 11
272.169978
 21
-225.250874
 31
0.0
  0
LINE
  5
6E
100
AcDbEntity
  8
0
 62
     0
100
AcDbLine
 10
269.610128
 20
-227.043301
 30
0.0
 11
267.050278
 21
-228.835727
 31
0.0
  0
LINE
  5
6F
100
AcDbEntity
  8
0
 62
     0
100
AcDbLine
 10
264.490427
 20
-230.628153
 30
0.0
 11
261.930577
 21
-232.42058
 31
0.0
  0
LINE
  5
70
100
AcDbEntity
  8
0
 62
     0
100
AcDbLine
 10
259.370727
 20
-234.213006
 30
0.0
 11
256.810877
 21
-236.005432
 31
0.0
  0
LINE
  5
71
100
AcDbEntity
  8
0
 62
     0
100
AcDbLine
 10
254.251027
 20
-237.797859
 30
0.0
 11
251.691177
 21
-239.590285
 31
0.0
  0
LINE
  5
72
100
AcDbEntity
  8
0
 62
     0
100
AcDbLine
 10
280.616952
 20
-215.521319
 30
0.0
 11
278.057102
 21
-217.313745
 31
0.0
  0
LINE
  5
73
100
AcDbEntity
  8
0
 62
     0
100
AcDbLine
 10
275.497252
 20
-219.106171
 30
0.0
 11
272.937402
 21
-220.898598
 31
0.0
  0
LINE
  5
74
100
AcDbEntity
  8
0
 62
     0
100
AcDbLine
 10
270.377551
 20
-222.691024
 30
0.0
 11
267.817701
 21
-224.48345
 31
0.0
  0
LINE
  5
75
100
AcDbEntity
  8
0
 62
     0
100
AcDbLine
 10
265.257851
 20
-226.275877
 30
0.0
 11
262.698001
 21
-228.068303
 31
0.0
  0
LINE
  5
76
100
AcDbEntity
  8
0
 62
     0
100
AcDbLine
 10
260.138151
 20
-229.860729
 30
0.0
 11
257.578301
 21
-231.653156
 31
0.0
  0
LINE
  5
77
100
AcDbEntity
  8
0
 62
     0
100
AcDbLine
 10
255.018451
 20
-233.445582
 30
0.0
 11
252.4586
 21
-235.238009
 31
0.0
  0
LINE
  5
78
100
AcDbEntity
  8
0
 62
     0
100
AcDbLine
 10
275.913201
 20
-215.0
 30
0.0
 11
273.704825
 21
-216.546321
 31
0.0
  0
LINE
  5
79
100
AcDbEntity
  8
0
 62
     0
100
AcDbLine
 10
271.144975
 20
-218.338748
 30
0.0
 11
268.585125
 21
-220.131174
 31
0.0
  0
LINE
  5
7A
100
AcDbEntity
  8
0
 62
     0
100
AcDbLine
 10
266.025275
 20
-221.9236
 30
0.0
 11
263.465425
 21
-223.716027
 31
0.0
  0
LINE
  5
7B
100
AcDbEntity
  8
0
 62
     0
100
AcDbLine
 10
260.905575
 20
-225.508453
 30
0.0
 11
258.345725
 21
-227.300879
 31
0.0
  0
LINE
  5
7C
100
AcDbEntity
  8
0
 62
     0
100
AcDbLine
 10
255.785874
 20
-229.093306
 30
0.0
 11
253.226024
 21
-230.885732
 31
0.0
  0
LINE
  5
7D
100
AcDbEntity
  8
0
 62
     0
100
AcDbLine
 10
250.666174
 20
-232.678158
 30
0.0
 11
250.0
 21
-233.144619
 31
0.0
  0
LINE
  5
7E
100
AcDbEntity
  8
0
 62
     0
100
AcDbLine
 10
270.46493
 20
-215.0
 30
0.0
 11
269.352549
 21
-215.778897
 31
0.0
  0
LINE
  5
7F
100
AcDbEntity
  8
0
 62
     0
100
AcDbLine
 10
266.792699
 20
-217.571324
 30
0.0
 11
264.232849
 21
-219.36375
 31
0.0
  0
LINE
  5
80
100
AcDbEntity
  8
0
 62
     0
100
AcDbLine
 10
261.672998
 20
-221.156176
 30
0.0
 11
259.113148
 21
-222.948603
 31
0.0
  0
LINE
  5
81
100
AcDbEntity
  8
0
 62
     0
100
AcDbLine
 10
256.553298
 20
-224.741029
 30
0.0
 11
253.993448
 21
-226.533456
 31
0.0
  0
LINE
  5
82
100
AcDbEntity
  8
0
 62
     0
100
AcDbLine
 10
251.433598
 20
-228.325882
 30
0.0
 11
250.0
 21
-229.329698
 31
0.0
  0
LINE
  5
83
100
AcDbEntity
  8
0
 62
     0
100
AcDbLine
 10
265.016658
 20
-215.0
 30
0.0
 11
265.000272
 21
-215.011474
 31
0.0
  0
LINE
  5
84
100
AcDbEntity
  8
0
 62
     0
100
AcDbLine
 10
262.440422
 20
-216.8039
 30
0.0
 11
259.880572
 21
-218.596326
 31
0.0
  0
LINE
  5
85
100
AcDbEntity
  8
0
 62
     0
100
AcDbLine
 10
257.320722
 20
-220.388753
 30
0.0
 11
254.760872
 21
-222.181179
 31
0.0
  0
LINE
  5
86
100
AcDbEntity
  8
0
 62
     0
100
AcDbLine
 10
252.201022
 20
-223.973605
 30
0.0
 11
250.0
 21
-225.514777
 31
0.0
  0
LINE
  5
87
100
AcDbEntity
  8
0
 62
     0
100
AcDbLine
 10
258.088146
 20
-216.036476
 30
0.0
 11
255.528296
 21
-217.828903
 31
0.0
  0
LINE
  5
88
100
AcDbEntity
  8
0
 62
     0
100
AcDbLine
 10
252.968445
 20
-219.621329
 30
0.0
 11
250.408595
 21
-221.413755
 31
0.0
  0
LINE
  5
89
100
AcDbEntity
  8
0
 62
     0
100
AcDbLine
 10
253.735869
 20
-215.269052
 30
0.0
 11
251.176019
 21
-217.061479
 31
0.0
  0
ENDBLK
  5
8B
100
AcDbEntity
  8
0
100
AcDbBlockEnd
  0
BLOCK
  5
CB
100
AcDbEntity
  8
0
100
AcDbBlockBegin
  2
SP_75021_720_32
 70
     0
 10
0.0
 20
0.0
 30
0.0
  3
SP_75021_720_32
  1

  0
LINE
  5
9A
100
AcDbEntity
  8
GLAS_MED_FOGNING
100
AcDbLine
 10
10.0
 20
-15.0
 30
0.0
 11
10.0
 21
-47.0
 31
0.0
  0
LWPOLYLINE
  5
9B
100
AcDbEntity
  8
GLAS_MED_FOGNING
100
AcDbPolyline
 90
        3
 70
     0
 43
0.0
 10
8.2
 20
-15.0
 10
10.0
 20
-15.0
 10
10.0
 20
-47.0
  0
INSERT
  5
9C
100
AcDbEntity
  8
GLAS_MED_FOGNING
100
AcDbBlockReference
  2
*X0
 10
-275.0
 20
98.0
 30
0.0
1001
ACAD
1000
HATCH
1002
{
1070
    16
1000
DASH
1040
25.0
1040
3.752458
1002
}
  0
LINE
  5
C7
100
AcDbEntity
  8
GLAS_MED_FOGNING
100
AcDbLine
 10
-10.0
 20
-15.0
 30
0.0
 11
10.0
 21
-15.0
 31
0.0
  0
LWPOLYLINE
  5
C8
100
AcDbEntity
  8
STALPROFIL
100
AcDbPolyline
 90
        8
 70
     1
 43
1.8
 10
-8.2
 20
-14.1
 42
-0.414214
 10
-9.1
 20
-13.2
 10
-9.1
 20
-1.8
 42
-0.414214
 10
-8.2
 20
-0.9
 10
8.2
 20
-0.9
 42
-0.414214
 10
9.1
 20
-1.8
 10
9.1
 20
-13.2
 42
-0.414214
 10
8.2
 20
-14.1
  0
LWPOLYLINE
  5
C9
100
AcDbEntity
  8
GLAS_MED_FOGNING
100
AcDbPolyline
 90
        3
 70
     0
 43
0.0
 10
-8.2
 20
-15.0
 10
-10.0
 20
-15.0
 10
-10.0
 20
-47.0
  0
LWPOLYLINE
  5
CA
100
AcDbEntity
  8
STALPROFIL
100
AcDbPolyline
 90
        2
 70
     0
 43
3.0
 10
-10.0
 20
-48.5
 10
30.0
 20
-48.5
  0
ENDBLK
  5
CC
100
AcDbEntity
  8
0
100
AcDbBlockEnd
  0
BLOCK
  5
E6
100
AcDbEntity
  8
0
100
AcDbBlockBegin
  2
SP_75022_720_32
 70
     0
 10
0.0
 20
0.0
 30
0.0
  3
SP_75022_720_32
  1

  0
LINE
  5
DE
100
AcDbEntity
  8
GLAS_MED_FOGNING
100
AcDbLine
 10
10.0
 20
-15.0
 30
0.0
 11
10.0
 21
-47.0
 31
0.0
  0
INSERT
  5
DF
100
AcDbEntity
  8
GLAS_MED_FOGNING
100
AcDbBlockReference
  2
*X0
 10
-275.0
 20
98.0
 30
0.0
1001
ACAD
1000
HATCH
1002
{
1070
    16
1000
DASH
1040
25.0
1040
3.752458
1002
}
  0
LWPOLYLINE
  5
E0
100
AcDbEntity
  8
GLAS_MED_FOGNING
100
AcDbPolyline
 90
        3
 70
     0
 43
0.0
 10
8.2
 20
-15.0
 10
10.0
 20
-15.0
 10
10.0
 20
-47.0
  0
LWPOLYLINE
  5
E1
100
AcDbEntity
  8
STALPROFIL
100
AcDbPolyline
 90
        8
 70
     1
 43
1.8
 10
-8.2
 20
-14.1
 42
-0.414214
 10
-9.1
 20
-13.2
 10
-9.1
 20
-1.8
 42
-0.414214
 10
-8.2
 20
-0.9
 10
8.2
 20
-0.9
 42
-0.414214
 10
9.1
 20
-1.8
 10
9.1
 20
-13.2
 42
-0.414214
 10
8.2
 20
-14.1
  0
LINE
  5
E2
100
AcDbEntity
  8
GLAS_MED_FOGNING
100
AcDbLine
 10
-10.0
 20
-15.0
 30
0.0
 11
10.0
 21
-15.0
 31
0.0
  0
LWPOLYLINE
  5
E3
100
AcDbEntity
  8
GLAS_MED_FOGNING
100
AcDbPolyline
 90
        3
 70
     0
 43
0.0
 10
-8.2
 20
-15.0
 10
-10.0
 20
-15.0
 10
-10.0
 20
-47.0
  0
LWPOLYLINE
  5
E4
100
AcDbEntity
  8
STALPROFIL
100
AcDbPolyline
 90
        2
 70
     0
 43
3.0
 10
-30.0
 20
-48.5
 10
30.0
 20
-48.5
  0
LINE
  5
E5
100
AcDbEntity
  8
GLAS_MED_FOGNING
100
AcDbLine
 10
10.0
 20
-47.0
 30
0.0
 11
-10.0
 21
-47.0
 31
0.0
  0
ENDBLK
  5
E7
100
AcDbEntity
  8
0
100
AcDbBlockEnd
  0
BLOCK
  5
93
100
AcDbEntity
  8
0
100
AcDbBlockBegin
  2
SP_75021_750_32
 70
     0
 10
0.0
 20
0.0
 30
0.0
  3
SP_75021_750_32
  1

  0
LWPOLYLINE
  5
2B
100
AcDbEntity
  8
STALPROFIL
100
AcDbPolyline
 90
        2
 70
     0
 43
3.0
 10
-25.0
 20
-48.5
 10
45.0
 20
-48.5
  0
INSERT
  5
2D
100
AcDbEntity
  8
DIMENSION
100
AcDbBlockReference
  2
*X1
 10
-275.0
 20
200.0
 30
0.0
1001
ACAD
1000
HATCH
1002
{
1070
    16
1000
DASH
1040
25.0
1040
3.752458
1002
}
  0
LINE
  5
8C
100
AcDbEntity
  8
GLAS_MED_FOGNING
100
AcDbLine
 10
25.0
 20
-47.0
 30
0.0
 11
-25.0
 21
-47.0
 31
0.0
  0
LWPOLYLINE
  5
8E
100
AcDbEntity
  8
STALPROFIL
100
AcDbPolyline
 90
        8
 70
     1
 43
1.8
 10
-23.2
 20
-14.1
 42
-0.414214
 10
-24.1
 20
-13.2
 10
-24.1
 20
-1.8
 42
-0.414214
 10
-23.2
 20
-0.9
 10
23.2
 20
-0.9
 42
-0.414214
 10
24.1
 20
-1.8
 10
24.1
 20
-13.2
 42
-0.414214
 10
23.2
 20
-14.1
  0
LINE
  5
8F
100
AcDbEntity
  8
GLAS_MED_FOGNING
100
AcDbLine
 10
-25.0
 20
-15.0
 30
0.0
 11
25.0
 21
-15.0
 31
0.0
  0
LWPOLYLINE
  5
90
100
AcDbEntity
  8
GLAS_MED_FOGNING
100
AcDbPolyline
 90
        3
 70
     0
 43
0.0
 10
-23.2
 20
-15.0
 10
-25.0
 20
-15.0
 10
-25.0
 20
-47.0
  0
LINE
  5
91
100
AcDbEntity
  8
GLAS_MED_FOGNING
100
AcDbLine
 10
25.0
 20
-15.0
 30
0.0
 11
25.0
 21
-47.0
 31
0.0
  0
LWPOLYLINE
  5
92
100
AcDbEntity
  8
GLAS_MED_FOGNING
100
AcDbPolyline
 90
        3
 70
     0
 43
0.0
 10
23.2
 20
-15.0
 10
25.0
 20
-15.0
 10
25.0
 20
-47.0
  0
ENDBLK
  5
94
100
AcDbEntity
  8
0
100
AcDbBlockEnd
  0
BLOCK
  5
D8
100
AcDbEntity
  8
0
100
AcDbBlockBegin
  2
SP_75022_750_32
 70
     0
 10
0.0
 20
0.0
 30
0.0
  3
SP_75022_750_32
  1

  0
LWPOLYLINE
  5
D0
100
AcDbEntity
  8
STALPROFIL
100
AcDbPolyline
 90
        2
 70
     0
 43
3.0
 10
-45.0
 20
-48.5
 10
45.0
 20
-48.5
  0
INSERT
  5
D1
100
AcDbEntity
  8
DIMENSION
100
AcDbBlockReference
  2
*X1
 10
-275.0
 20
200.0
 30
0.0
1001
ACAD
1000
HATCH
1002
{
1070
    16
1000
DASH
1040
25.0
1040
3.752458
1002
}
  0
LINE
  5
D2
100
AcDbEntity
  8
GLAS_MED_FOGNING
100
AcDbLine
 10
25.0
 20
-47.0
 30
0.0
 11
-25.0
 21
-47.0
 31
0.0
  0
LINE
  5
D3
100
AcDbEntity
  8
GLAS_MED_FOGNING
100
AcDbLine
 10
-25.0
 20
-15.0
 30
0.0
 11
25.0
 21
-15.0
 31
0.0
  0
LWPOLYLINE
  5
D4
100
AcDbEntity
  8
STALPROFIL
100
AcDbPolyline
 90
        8
 70
     1
 43
1.8
 10
-23.2
 20
-14.1
 42
-0.414214
 10
-24.1
 20
-13.2
 10
-24.1
 20
-1.8
 42
-0.414214
 10
-23.2
 20
-0.9
 10
23.2
 20
-0.9
 42
-0.414214
 10
24.1
 20
-1.8
 10
24.1
 20
-13.2
 42
-0.414214
 10
23.2
 20
-14.1
  0
LWPOLYLINE
  5
D5
100
AcDbEntity
  8
GLAS_MED_FOGNING
100
AcDbPolyline
 90
        3
 70
     0
 43
0.0
 10
-23.2
 20
-15.0
 10
-25.0
 20
-15.0
 10
-25.0
 20
-47.0
  0
LWPOLYLINE
  5
D6
100
AcDbEntity
  8
GLAS_MED_FOGNING
100
AcDbPolyline
 90
        3
 70
     0
 43
0.0
 10
23.2
 20
-15.0
 10
25.0
 20
-15.0
 10
25.0
 20
-47.0
  0
LINE
  5
D7
100
AcDbEntity
  8
GLAS_MED_FOGNING
100
AcDbLine
 10
25.0
 20
-15.0
 30
0.0
 11
25.0
 21
-47.0
 31
0.0
  0
ENDBLK
  5
D9
100
AcDbEntity
  8
0
100
AcDbBlockEnd
  0
ENDSEC
  0
SECTION
  2
ENTITIES
  0
LWPOLYLINE
  5
1F
100
AcDbEntity
  8
RAM
 62
     5
100
AcDbPolyline
 90
        4
 70
     1
 43
0.0
 10
-20.0
 20
35.0
 10
-20.0
 20
560.0
 10
-380.0
 20
560.0
 10
-380.0
 20
35.0
  0
TEXT
  5
21
100
AcDbEntity
  8
TEXT
100
AcDbText
 10
-97.0
 20
25.0
 30
0.0
 40
5.0
  1
File name  %%U350PAGE14
 41
0.8
  7
ROMANS
 72
     2
 11
-25.0
 21
25.0
 31
0.0
100
AcDbText
  0
TEXT
  5
23
100
AcDbEntity
  8
TEXT
100
AcDbText
 10
-86.142857
 20
40.0
 30
0.0
 40
5.0
  1
SP 35000 %%UPAGE 14
 41
0.8
  7
ROMANS
 72
     2
 11
-25.0
 21
40.0
 31
0.0
100
AcDbText
  0
INSERT
  5
29
100
AcDbEntity
  8
ISOLERING
100
AcDbBlockReference
  2
SP_75021_750_32
 10
-300.0
 20
415.0
 30
0.0
  0
TEXT
  5
96
100
AcDbEntity
  8
TEXT
100
AcDbText
 10
-324.556724
 20
348.877284
 30
0.0
 40
5.0
  1
%%USP 75021/750/32
 41
0.8
  7
ROMANS
 72
     2
 11
-266.842438
 21
348.877284
 31
0.0
100
AcDbText
  0
TEXT
  5
97
100
AcDbEntity
  8
TEXT
100
AcDbText
 10
-329.556724
 20
463.877284
 30
0.0
 40
5.0
  1
%%USP 75021/720/32
 41
0.8
  7
ROMANS
 72
     2
 11
-271.842438
 21
463.877284
 31
0.0
100
AcDbText
  0
INSERT
  5
98
100
AcDbEntity
  8
ISOLERING
100
AcDbBlockReference
  2
SP_75021_720_32
 10
-310.0
 20
530.0
 30
0.0
  0
LINE
  5
CD
100
AcDbEntity
  8
GLAS_MED_FOGNING
100
AcDbLine
 10
-300.0
 20
483.0
 30
0.0
 11
-320.0
 21
483.0
 31
0.0
  0
INSERT
  5
CE
100
AcDbEntity
  8
ISOLERING
100
AcDbBlockReference
  2
SP_75022_750_32
 10
-95.0
 20
410.0
 30
0.0
  0
TEXT
  5
DA
100
AcDbEntity
  8
TEXT
100
AcDbText
 10
-129.556724
 20
348.877284
 30
0.0
 40
5.0
  1
%%USP 75022/750/32
 41
0.8
  7
ROMANS
 72
     2
 11
-71.842438
 21
348.877284
 31
0.0
100
AcDbText
  0
TEXT
  5
DB
100
AcDbEntity
  8
TEXT
100
AcDbText
 10
-133.175771
 20
463.877284
 30
0.0
 40
5.0
  1
 %%USP 750227720/32
 41
0.8
  7
ROMANS
 72
     2
 11
-71.842438
 21
463.877284
 31
0.0
100
AcDbText
  0
INSERT
  5
DC
100
AcDbEntity
  8
ISOLERING
100
AcDbBlockReference
  2
SP_75022_720_32
 10
-105.0
 20
530.0
 30
0.0
  0
ENDSEC
  0
SECTION
  2
OBJECTS
  0
DICTIONARY
  5
1A
100
AcDbDictionary
  3
ACAD_GROUP
350
18
  3
ACAD_LAYOUT
350
F0
  3
ACAD_MLINESTYLE
350
19
  3
ACAD_PLOTSETTINGS
350
F1
  3
ACAD_PLOTSTYLENAME
350
EE
  3
ACDBHEADERROUNDTRIPXREC
350
FA
  0
DICTIONARY
  5
F8
100
AcDbDictionary
280
     1
  3
ACAD_XREC_ROUNDTRIP
360
F9
  0
DICTIONARY
  5
11A
100
AcDbDictionary
280
     1
  3
ACAD_LAYOUTSELFREF
360
11B
  0
DICTIONARY
  5
11C
100
AcDbDictionary
280
     1
  3
ACAD_LAYOUTSELFREF
360
11D
  0
DICTIONARY
  5
18
102
{ACAD_REACTORS
330
1A
102
}
100
AcDbDictionary
  0
DICTIONARY
  5
F0
102
{ACAD_XDICTIONARY
360
122
102
}
102
{ACAD_REACTORS
330
1A
102
}
100
AcDbDictionary
  3
LAYOUT1
350
F3
  3
MODEL
350
F2
  0
DICTIONARY
  5
19
102
{ACAD_REACTORS
330
1A
102
}
100
AcDbDictionary
  3
STANDARD
350
1D
  0
DICTIONARY
  5
F1
102
{ACAD_REACTORS
330
1A
102
}
100
AcDbDictionary
  0
ACAD_PROXY_OBJECT
  5
EE
102
{ACAD_REACTORS
330
1A
102
}
100
AcDbProxyObject
 90
      499
 91
      501
 93
       86
310
405010041939BDC9B585B0
350
EF
340
EF
 94
        0
  0
DICTIONARY
  5
FA
102
{ACAD_REACTORS
330
1A
102
}
100
AcDbDictionary
  3
CEPSNTYPE
350
104
  3
FINGERPRINTGUID
350
105
  3
HYPERLINKBASE
350
FD
  3
INSUNITS
350
103
  3
LAYOUTDICT
350
FF
  3
LWETCUNION
350
102
  3
PLOTSETDICT
350
100
  3
PLOTSTYLNAMDICT
350
101
  3
PSVPSCALE
350
107
  3
PUCSBASE
350
10A
  3
PUCSORGBACK
350
110
  3
PUCSORGBOTTOM
350
10C
  3
PUCSORGFRONT
350
10F
  3
PUCSORGLEFT
350
10D
  3
PUCSORGRIGHT
350
10E
  3
PUCSORGTOP
350
10B
  3
PUCSORTHOREF
350
108
  3
PUCSORTHOVIEW
350
109
  3
STYLESHEET
350
FE
  3
TSTACKALIGN
350
FB
  3
TSTACKSIZE
350
FC
  3
UCSBASE
350
113
  3
UCSORGBACK
350
119
  3
UCSORGBOTTOM
350
115
  3
UCSORGFRONT
350
118
  3
UCSORGLEFT
350
116
  3
UCSORGRIGHT
350
117
  3
UCSORGTOP
350
114
  3
UCSORTHOREF
350
111
  3
UCSORTHOVIEW
350
112
  3
VERSIONGUID
350
106
  0
XRECORD
  5
F9
102
{ACAD_REACTORS
330
F8
102
}
100
AcDbXrecord
102
EXTNAMES
  1
*ACTIVE
  2
*Active
102
UCS
 74
     0
 71
     1
 10
0.0
 20
0.0
 30
0.0
 10
1.0
 20
0.0
 30
0.0
 10
0.0
 20
1.0
 30
0.0
146
0.0
 79
     0
102
VIEW
281
     0
  0
XRECORD
  5
11B
102
{ACAD_REACTORS
330
11A
102
}
100
AcDbXrecord
340
2
  0
XRECORD
  5
11D
102
{ACAD_REACTORS
330
11C
102
}
100
AcDbXrecord
340
7
  0
DICTIONARY
  5
122
100
AcDbDictionary
280
     1
  3
ACAD_XREC_ROUNDTRIP
360
123
  0
ACAD_PROXY_OBJECT
  5
F3
102
{ACAD_REACTORS
330
F0
102
}
100
AcDbProxyObject
 90
      499
 91
      503
 93
     1092
310
91D4850204C617365724A65742034562F344D5620506F73745363726970742C00AAAAAA416AA591069074C61796F75743140501A800000000000000000000000000000000000000000101E900000000000241C902A6A6A10232D5E076BC5510408CB5781DAF154410232D5E076BC5510408CB5781DAF15C410232D5E076BC5
310
710408CB5781DAF15C40
330
7
330
0
340
0
340
0
 94
        0
  0
ACAD_PROXY_OBJECT
  5
F2
102
{ACAD_REACTORS
330
F0
102
}
100
AcDbProxyObject
 90
      499
 91
      503
 93
      668
310
91D4850204C617365724A65742034562F344D5620506F73745363726970742C01AAAAAAAAA5A69054D6F64656C901A800000000000000000000000000000000000000000000A1000000000000008902A6A6AAAA0
330
2
330
0
340
0
340
0
 94
        0
  0
MLINESTYLE
  5
1D
102
{ACAD_REACTORS
330
19
102
}
100
AcDbMlineStyle
  2
STANDARD
 70
     0
  3

 62
     0
 51
90.0
 52
90.0
 71
     2
 49
0.5
 62
   256
  6
BYLAYER
 49
-0.5
 62
   256
  6
BYLAYER
  0
ACAD_PROXY_OBJECT
  5
EF
102
{ACAD_REACTORS
330
EE
102
}
100
AcDbProxyObject
 90
      499
 91
      502
 93
        0
 94
        0
  0
XRECORD
  5
104
102
{ACAD_REACTORS
330
FA
102
}
100
AcDbXrecord
 90
        0
  0
XRECORD
  5
105
102
{ACAD_REACTORS
330
FA
102
}
100
AcDbXrecord
  1
{DCFA0843-0BE8-11D6-AA0B-00D0B7E2A69D}
  0
XRECORD
  5
FD
102
{ACAD_REACTORS
330
FA
102
}
100
AcDbXrecord
  1

  0
XRECORD
  5
103
102
{ACAD_REACTORS
330
FA
102
}
100
AcDbXrecord
 90
        0
  0
XRECORD
  5
FF
102
{ACAD_REACTORS
330
FA
102
}
100
AcDbXrecord
340
F0
  0
XRECORD
  5
102
102
{ACAD_REACTORS
330
FA
102
}
100
AcDbXrecord
 90
    14877
  0
XRECORD
  5
100
102
{ACAD_REACTORS
330
FA
102
}
100
AcDbXrecord
340
F1
  0
XRECORD
  5
101
102
{ACAD_REACTORS
330
FA
102
}
100
AcDbXrecord
340
EE
  0
XRECORD
  5
107
102
{ACAD_REACTORS
330
FA
102
}
100
AcDbXrecord
 40
0.0
  0
XRECORD
  5
10A
102
{ACAD_REACTORS
330
FA
102
}
100
AcDbXrecord
340
0
  0
XRECORD
  5
110
102
{ACAD_REACTORS
330
FA
102
}
100
AcDbXrecord
 10
0.0
 20
0.0
 30
0.0
  0
XRECORD
  5
10C
102
{ACAD_REACTORS
330
FA
102
}
100
AcDbXrecord
 10
0.0
 20
0.0
 30
0.0
  0
XRECORD
  5
10F
102
{ACAD_REACTORS
330
FA
102
}
100
AcDbXrecord
 10
0.0
 20
0.0
 30
0.0
  0
XRECORD
  5
10D
102
{ACAD_REACTORS
330
FA
102
}
100
AcDbXrecord
 10
0.0
 20
0.0
 30
0.0
  0
XRECORD
  5
10E
102
{ACAD_REACTORS
330
FA
102
}
100
AcDbXrecord
 10
0.0
 20
0.0
 30
0.0
  0
XRECORD
  5
10B
102
{ACAD_REACTORS
330
FA
102
}
100
AcDbXrecord
 10
0.0
 20
0.0
 30
0.0
  0
XRECORD
  5
108
102
{ACAD_REACTORS
330
FA
102
}
100
AcDbXrecord
340
0
  0
XRECORD
  5
109
102
{ACAD_REACTORS
330
FA
102
}
100
AcDbXrecord
 70
     0
  0
XRECORD
  5
FE
102
{ACAD_REACTORS
330
FA
102
}
100
AcDbXrecord
  1

  0
XRECORD
  5
FB
102
{ACAD_REACTORS
330
FA
102
}
100
AcDbXrecord
 90
        1
  0
XRECORD
  5
FC
102
{ACAD_REACTORS
330
FA
102
}
100
AcDbXrecord
 90
       70
  0
XRECORD
  5
113
102
{ACAD_REACTORS
330
FA
102
}
100
AcDbXrecord
340
0
  0
XRECORD
  5
119
102
{ACAD_REACTORS
330
FA
102
}
100
AcDbXrecord
 10
0.0
 20
0.0
 30
0.0
  0
XRECORD
  5
115
102
{ACAD_REACTORS
330
FA
102
}
100
AcDbXrecord
 10
0.0
 20
0.0
 30
0.0
  0
XRECORD
  5
118
102
{ACAD_REACTORS
330
FA
102
}
100
AcDbXrecord
 10
0.0
 20
0.0
 30
0.0
  0
XRECORD
  5
116
102
{ACAD_REACTORS
330
FA
102
}
100
AcDbXrecord
 10
0.0
 20
0.0
 30
0.0
  0
XRECORD
  5
117
102
{ACAD_REACTORS
330
FA
102
}
100
AcDbXrecord
 10
0.0
 20
0.0
 30
0.0
  0
XRECORD
  5
114
102
{ACAD_REACTORS
330
FA
102
}
100
AcDbXrecord
 10
0.0
 20
0.0
 30
0.0
  0
XRECORD
  5
111
102
{ACAD_REACTORS
330
FA
102
}
100
AcDbXrecord
340
0
  0
XRECORD
  5
112
102
{ACAD_REACTORS
330
FA
102
}
100
AcDbXrecord
 70
     0
  0
XRECORD
  5
106
102
{ACAD_REACTORS
330
FA
102
}
100
AcDbXrecord
  1
{DCFA0845-0BE8-11D6-AA0B-00D0B7E2A69D}
  0
XRECORD
  5
123
102
{ACAD_REACTORS
330
122
102
}
100
AcDbXrecord
102
EXTNAMES
  1
LAYOUT1
  2
Layout1
  1
MODEL
  2
Model
  0
ENDSEC
  0
EOF
