  0
SECTION
  2
HEADER
  9
$ACADVER
  1
AC1014
  9
$ACADMAINTVER
 70
     0
  9
$DWGCODEPAGE
  3
ANSI_1252
  9
$INSBASE
 10
105.780888
 20
3513.206191
 30
0.0
  9
$EXTMIN
 10
694.999994
 20
3509.999996
 30
0.0
  9
$EXTMAX
 10
1212.499994
 20
4247.77103
 30
0.0
  9
$LIMMIN
 10
0.0
 20
0.0
  9
$LIMMAX
 10
840.0
 20
600.0
  9
$ORTHOMODE
 70
     0
  9
$REGENMODE
 70
     1
  9
$FILLMODE
 70
     1
  9
$QTEXTMODE
 70
     0
  9
$MIRRTEXT
 70
     1
  9
$DRAGMODE
 70
     2
  9
$LTSCALE
 40
5.0
  9
$OSMODE
 70
   547
  9
$ATTMODE
 70
     1
  9
$TEXTSIZE
 40
5.0
  9
$TRACEWID
 40
0.05
  9
$TEXTSTYLE
  7
ISO
  9
$CLAYER
  8
GLAS_MED_FOGNING
  9
$CELTYPE
  6
BYLAYER
  9
$CECOLOR
 62
   256
  9
$CELTSCALE
 40
1.0
  9
$DELOBJ
 70
     1
  9
$DISPSILH
 70
     0
  9
$DIMSCALE
 40
1.2
  9
$DIMASZ
 40
0.0
  9
$DIMEXO
 40
1.0
  9
$DIMDLI
 40
10.0
  9
$DIMRND
 40
0.0
  9
$DIMDLE
 40
0.0
  9
$DIMEXE
 40
2.0
  9
$DIMTP
 40
0.0
  9
$DIMTM
 40
0.0
  9
$DIMTXT
 40
3.0
  9
$DIMCEN
 40
2.5
  9
$DIMTSZ
 40
1.0
  9
$DIMTOL
 70
     0
  9
$DIMLIM
 70
     0
  9
$DIMTIH
 70
     0
  9
$DIMTOH
 70
     0
  9
$DIMSE1
 70
     0
  9
$DIMSE2
 70
     0
  9
$DIMTAD
 70
     1
  9
$DIMZIN
 70
     8
  9
$DIMBLK
  1

  9
$DIMASO
 70
     1
  9
$DIMSHO
 70
     1
  9
$DIMPOST
  1

  9
$DIMAPOST
  1

  9
$DIMALT
 70
     0
  9
$DIMALTD
 70
     2
  9
$DIMALTF
 40
25.4
  9
$DIMLFAC
 40
1.0
  9
$DIMTOFL
 70
     1
  9
$DIMTVP
 40
0.0
  9
$DIMTIX
 70
     0
  9
$DIMSOXD
 70
     0
  9
$DIMSAH
 70
     0
  9
$DIMBLK1
  1

  9
$DIMBLK2
  1

  9
$DIMSTYLE
  2
ROMANS
  9
$DIMCLRD
 70
     0
  9
$DIMCLRE
 70
     0
  9
$DIMCLRT
 70
     6
  9
$DIMTFAC
 40
1.0
  9
$DIMGAP
 40
1.25
  9
$DIMJUST
 70
     0
  9
$DIMSD1
 70
     0
  9
$DIMSD2
 70
     0
  9
$DIMTOLJ
 70
     1
  9
$DIMTZIN
 70
     0
  9
$DIMALTZ
 70
     0
  9
$DIMALTTZ
 70
     0
  9
$DIMFIT
 70
     3
  9
$DIMUPT
 70
     0
  9
$DIMUNIT
 70
     2
  9
$DIMDEC
 70
     4
  9
$DIMTDEC
 70
     4
  9
$DIMALTU
 70
     2
  9
$DIMALTTD
 70
     2
  9
$DIMTXSTY
  7
STANDARD
  9
$DIMAUNIT
 70
     0
  9
$LUNITS
 70
     2
  9
$LUPREC
 70
     2
  9
$SKETCHINC
 40
0.1
  9
$FILLETRAD
 40
0.5
  9
$AUNITS
 70
     0
  9
$AUPREC
 70
     4
  9
$MENU
  1
acad
  9
$ELEVATION
 40
0.0
  9
$PELEVATION
 40
0.0
  9
$THICKNESS
 40
0.0
  9
$LIMCHECK
 70
     0
  9
$BLIPMODE
 70
     0
  9
$CHAMFERA
 40
10.0
  9
$CHAMFERB
 40
10.0
  9
$CHAMFERC
 40
0.0
  9
$CHAMFERD
 40
0.0
  9
$SKPOLY
 70
     0
  9
$TDCREATE
 40
2450609.793525810
  9
$TDUPDATE
 40
2452293.362187152
  9
$TDINDWG
 40
1.9635687500
  9
$TDUSRTIMER
 40
1.9635687500
  9
$USRTIMER
 70
     1
  9
$ANGBASE
 50
0.0
  9
$ANGDIR
 70
     0
  9
$PDMODE
 70
    35
  9
$PDSIZE
 40
0.0
  9
$PLINEWID
 40
0.0
  9
$COORDS
 70
     1
  9
$SPLFRAME
 70
     0
  9
$SPLINETYPE
 70
     6
  9
$SPLINESEGS
 70
     8
  9
$ATTDIA
 70
     0
  9
$ATTREQ
 70
     1
  9
$HANDLING
 70
     1
  9
$HANDSEED
  5
1BC
  9
$SURFTAB1
 70
     6
  9
$SURFTAB2
 70
     6
  9
$SURFTYPE
 70
     6
  9
$SURFU
 70
     6
  9
$SURFV
 70
     6
  9
$UCSNAME
  2

  9
$UCSORG
 10
0.0
 20
0.0
 30
0.0
  9
$UCSXDIR
 10
1.0
 20
0.0
 30
0.0
  9
$UCSYDIR
 10
0.0
 20
1.0
 30
0.0
  9
$PUCSNAME
  2

  9
$PUCSORG
 10
0.0
 20
0.0
 30
0.0
  9
$PUCSXDIR
 10
1.0
 20
0.0
 30
0.0
  9
$PUCSYDIR
 10
0.0
 20
1.0
 30
0.0
  9
$USERI1
 70
     0
  9
$USERI2
 70
     0
  9
$USERI3
 70
     0
  9
$USERI4
 70
     0
  9
$USERI5
 70
     0
  9
$USERR1
 40
0.0
  9
$USERR2
 40
0.0
  9
$USERR3
 40
0.0
  9
$USERR4
 40
0.0
  9
$USERR5
 40
0.0
  9
$WORLDVIEW
 70
     1
  9
$SHADEDGE
 70
     3
  9
$SHADEDIF
 70
    70
  9
$TILEMODE
 70
     1
  9
$MAXACTVP
 70
    16
  9
$PINSBASE
 10
0.0
 20
0.0
 30
0.0
  9
$PLIMCHECK
 70
     0
  9
$PEXTMIN
 10
1.000000E+20
 20
1.000000E+20
 30
1.000000E+20
  9
$PEXTMAX
 10
-1.000000E+20
 20
-1.000000E+20
 30
-1.000000E+20
  9
$PLIMMIN
 10
0.0
 20
0.0
  9
$PLIMMAX
 10
420.0
 20
297.0
  9
$UNITMODE
 70
     0
  9
$VISRETAIN
 70
     0
  9
$PLINEGEN
 70
     0
  9
$PSLTSCALE
 70
     1
  9
$TREEDEPTH
 70
  3020
  9
$PICKSTYLE
 70
     1
  9
$CMLSTYLE
  2
STANDARD
  9
$CMLJUST
 70
     0
  9
$CMLSCALE
 40
1.0
  9
$PROXYGRAPHICS
 70
     1
  9
$MEASUREMENT
 70
     0
  0
ENDSEC
  0
SECTION
  2
CLASSES
  0
CLASS
  1
LWPOLYLINE
  2
AcDbPolyline
  3
"AutoCAD"
 90
        0
280
     0
281
     1
  0
CLASS
  1
HATCH
  2
AcDbHatch
  3
"ACAD_SEDONA"
 90
        0
280
     0
281
     1
  0
CLASS
  1
DICTIONARYVAR
  2
AcDbDictionaryVar
  3
"AutoCAD"
 90
        0
280
     0
281
     0
  0
CLASS
  1
ACDBDICTIONARYWDFLT
  2
AcDbDictionaryWithDefault
  3
AutoCAD 2000
 90
        0
280
     0
281
     0
  0
CLASS
  1
ACDBPLACEHOLDER
  2
AcDbPlaceHolder
  3
AutoCAD 2000
 90
        0
280
     0
281
     0
  0
CLASS
  1
LAYOUT
  2
AcDbLayout
  3
AutoCAD 2000
 90
        0
280
     0
281
     0
  0
CLASS
  1
LONG_TRANSACTION
  2
AcDbLongTransaction
  3
AutoCAD 2000
 90
        0
280
     0
281
     0
  0
CLASS
  1
LWPOLYLINE
  2
AcDbPolyline
  3
"AutoCAD"
 90
        0
280
     0
281
     1
  0
CLASS
  1
HATCH
  2
AcDbHatch
  3
"ACAD_SEDONA"
 90
        0
280
     0
281
     1
  0
CLASS
  1
XRECORD
  2
AcDbXrecord
  3
"<Built In>"
 90
        0
280
     0
281
     0
  0
ENDSEC
  0
SECTION
  2
TABLES
  0
TABLE
  2
VPORT
  5
12
100
AcDbSymbolTable
 70
     1
  0
VPORT
  5
18C
102
{ACAD_XDICTIONARY
360
18D
102
}
100
AcDbSymbolTableRecord
100
AcDbViewportTableRecord
  2
*ACTIVE
 70
     0
 10
0.0
 20
0.0
 11
1.0
 21
1.0
 12
981.404303
 22
3852.914408
 13
0.0
 23
0.0
 14
5.0
 24
5.0
 15
10.0
 25
10.0
 16
0.0
 26
0.0
 36
1.0
 17
0.0
 27
0.0
 37
0.0
 40
814.138891
 41
1.630435
 42
50.0
 43
0.0
 44
0.0
 50
0.0
 51
0.0
 71
     0
 72
   100
 73
     1
 74
     1
 75
     1
 76
     0
 77
     0
 78
     1
  0
ENDTAB
  0
TABLE
  2
LTYPE
  5
D
100
AcDbSymbolTable
 70
     1
  0
LTYPE
  5
E
100
AcDbSymbolTableRecord
100
AcDbLinetypeTableRecord
  2
BYBLOCK
 70
     0
  3

 72
    65
 73
     0
 40
0.0
  0
LTYPE
  5
F
100
AcDbSymbolTableRecord
100
AcDbLinetypeTableRecord
  2
BYLAYER
 70
     0
  3

 72
    65
 73
     0
 40
0.0
  0
LTYPE
  5
5
100
AcDbSymbolTableRecord
100
AcDbLinetypeTableRecord
  2
CONTINUOUS
 70
     0
  3
Solid line
 72
    65
 73
     0
 40
0.0
  0
ENDTAB
  0
TABLE
  2
LAYER
  5
A
100
AcDbSymbolTable
 70
     6
  0
LAYER
  5
4
100
AcDbSymbolTableRecord
100
AcDbLayerTableRecord
  2
0
 70
     0
 62
     7
  6
CONTINUOUS
  0
LAYER
  5
1B
100
AcDbSymbolTableRecord
100
AcDbLayerTableRecord
  2
GLAS_MED_FOGNING
 70
     0
 62
     2
  6
CONTINUOUS
  0
LAYER
  5
4A
100
AcDbSymbolTableRecord
100
AcDbLayerTableRecord
  2
TEXT
 70
     0
 62
     6
  6
CONTINUOUS
  0
LAYER
  5
21
100
AcDbSymbolTableRecord
100
AcDbLayerTableRecord
  2
RAM
 70
     0
 62
     5
  6
CONTINUOUS
  0
LAYER
  5
23
100
AcDbSymbolTableRecord
100
AcDbLayerTableRecord
  2
RAMTEXT
 70
     0
 62
     6
  6
CONTINUOUS
  0
LAYER
  5
A9
100
AcDbSymbolTableRecord
100
AcDbLayerTableRecord
  2
FOGNINGB
 70
     0
 62
     5
  6
CONTINUOUS
  0
ENDTAB
  0
TABLE
  2
STYLE
  5
B
100
AcDbSymbolTable
 70
     4
  0
STYLE
  5
C
100
AcDbSymbolTableRecord
100
AcDbTextStyleTableRecord
  2
STANDARD
 70
     0
 40
0.0
 41
1.0
 50
0.0
 71
     0
 42
5.0
  3
txt
  4

  0
STYLE
  5
1F
100
AcDbSymbolTableRecord
100
AcDbTextStyleTableRecord
  2
ROMANS
 70
     0
 40
0.0
 41
0.8
 50
0.0
 71
     0
 42
5.0
  3
romans
  4

  0
STYLE
  5
5E
100
AcDbSymbolTableRecord
100
AcDbTextStyleTableRecord
  2
ROMANT
 70
     0
 40
0.0
 41
0.8
 50
0.0
 71
     0
 42
5.0
  3
romant
  4

  0
STYLE
  5
1C
100
AcDbSymbolTableRecord
100
AcDbTextStyleTableRecord
  2
ISO
 70
     0
 40
0.0
 41
1.0
 50
0.0
 71
     0
 42
3.15
  3
romans.shx
  4

  0
ENDTAB
  0
TABLE
  2
VIEW
  5
10
100
AcDbSymbolTable
 70
     0
  0
ENDTAB
  0
TABLE
  2
UCS
  5
11
100
AcDbSymbolTable
 70
     0
  0
ENDTAB
  0
TABLE
  2
APPID
  5
14
100
AcDbSymbolTable
 70
     1
  0
APPID
  5
15
100
AcDbSymbolTableRecord
100
AcDbRegAppTableRecord
  2
ACAD
 70
     0
  0
ENDTAB
  0
TABLE
  2
DIMSTYLE
  5
16
100
AcDbSymbolTable
 70
     1
  0
DIMSTYLE
105
1E
102
{ACAD_XDICTIONARY
360
1B3
102
}
100
AcDbSymbolTableRecord
100
AcDbDimStyleTableRecord
  2
ROMANS
 70
     0
  3

  4

  5

  6

  7

 40
1.2
 41
0.0
 42
1.0
 43
10.0
 44
2.0
 45
0.0
 46
0.0
 47
0.0
 48
0.0
140
3.5
141
2.5
142
1.0
143
25.4
144
1.0
145
0.0
146
1.0
147
0.1
 71
     0
 72
     0
 73
     0
 74
     0
 75
     0
 76
     0
 77
     1
 78
     8
170
     0
171
     2
172
     1
173
     0
174
     0
175
     0
176
     0
177
     0
178
     6
270
     2
271
     2
272
     2
273
     2
274
     2
340
1F
275
     0
280
     0
281
     0
282
     0
283
     1
284
     8
285
     8
286
     8
287
     5
288
     0
  0
ENDTAB
  0
TABLE
  2
BLOCK_RECORD
  5
1
100
AcDbSymbolTable
 70
     0
  0
BLOCK_RECORD
  5
2
102
{ACAD_XDICTIONARY
360
1AF
102
}
100
AcDbSymbolTableRecord
100
AcDbBlockTableRecord
  2
*MODEL_SPACE
  0
BLOCK_RECORD
  5
7
102
{ACAD_XDICTIONARY
360
1B1
102
}
100
AcDbSymbolTableRecord
100
AcDbBlockTableRecord
  2
*PAPER_SPACE
  0
ENDTAB
  0
ENDSEC
  0
SECTION
  2
BLOCKS
  0
BLOCK
  5
3
100
AcDbEntity
  8
0
100
AcDbBlockBegin
  2
*MODEL_SPACE
 70
     2
 10
0.0
 20
0.0
 30
0.0
  3
*MODEL_SPACE
  1

  0
ENDBLK
  5
6
100
AcDbEntity
  8
0
100
AcDbBlockEnd
  0
BLOCK
  5
8
100
AcDbEntity
 67
     1
  8
0
100
AcDbBlockBegin
  2
*PAPER_SPACE
 70
     0
 10
0.0
 20
0.0
 30
0.0
  3
*PAPER_SPACE
  1

  0
ENDBLK
  5
9
100
AcDbEntity
 67
     1
  8
0
100
AcDbBlockEnd
  0
ENDSEC
  0
SECTION
  2
ENTITIES
  0
LINE
  5
11D
100
AcDbEntity
  8
RAM
100
AcDbLine
 10
774.874994
 20
3511.249996
 30
0.0
 11
780.499994
 21
3522.499996
 31
0.0
  0
LINE
  5
11E
100
AcDbEntity
  8
RAM
100
AcDbLine
 10
780.499994
 20
3522.499996
 30
0.0
 11
786.124994
 21
3511.249996
 31
0.0
  0
LINE
  5
11F
100
AcDbEntity
  8
RAM
100
AcDbLine
 10
728.749994
 20
3509.999996
 30
0.0
 11
728.749994
 21
3522.499996
 31
0.0
  0
TEXT
  5
120
100
AcDbEntity
  8
TEXT
 62
     1
100
AcDbText
 10
877.648397
 20
4197.840658
 30
0.0
 40
13.5
  1
STALPROFIL AB
 41
0.8
  7
ROMANT
100
AcDbText
  0
TEXT
  5
121
100
AcDbEntity
  8
TEXT
 62
     1
100
AcDbText
 10
766.120185
 20
4175.840658
 30
0.0
 40
10.8
  1
GENERAL INSTRUCTIONS SP 35000 E30/E60/EI30/EI60
 41
0.8
  7
ROMANT
100
AcDbText
  0
TEXT
  5
122
100
AcDbEntity
  8
RAMTEXT
 62
     6
100
AcDbText
 10
723.479518
 20
3896.820782
 30
0.0
 40
6.695628
  1
Mortise lock with drop bolt. The bolt must not be lockable and must 
 41
0.8
  7
ROMANS
100
AcDbText
  0
TEXT
  5
123
100
AcDbEntity
  8
RAMTEXT
 62
     6
100
AcDbText
 10
724.050019
 20
3886.450158
 30
0.0
 40
6.695628
  1
gear at least 7 mm into the locking plate. The drop bolt and the 
 41
0.8
  7
ROMANS
100
AcDbText
  0
TEXT
  5
124
100
AcDbEntity
  8
RAMTEXT
 62
     6
100
AcDbText
 10
723.577533
 20
4137.251365
 30
0.0
 40
6.695628
  1
Frame profiles are jointed by welding. Sections are jointed
 41
0.8
  7
ROMANS
100
AcDbText
  0
TEXT
  5
125
100
AcDbEntity
  8
RAMTEXT
 62
     6
100
AcDbText
 10
724.934528
 20
4063.885794
 30
0.0
 40
6.695628
  1
The door can be performed without threshold and with an opening with the underedge of the door 
 41
0.8
  7
ROMANS
100
AcDbText
  0
TEXT
  5
126
100
AcDbEntity
  8
RAMTEXT
 62
     6
100
AcDbText
 10
724.934528
 20
4054.528388
 30
0.0
 40
6.695628
  1
of max 10 mm doors in this cases optional type of bristlebead, automatic threshold or rubber seal.
 41
0.8
  7
ROMANS
100
AcDbText
  0
TEXT
  5
127
100
AcDbEntity
  8
RAMTEXT
 62
     6
100
AcDbText
 10
724.352799
 20
4099.526957
 30
0.0
 40
6.695628
  1
The sides and the lower edge of the section are welded or screwed. 
 41
0.8
  7
ROMANS
100
AcDbText
  0
TEXT
  5
128
100
AcDbEntity
  8
RAMTEXT
 62
     6
100
AcDbText
 10
724.271134
 20
4089.944191
 30
0.0
 40
6.695628
  1
Movable fixing for the upper edge see drawing no..4-2355-B and 4-2508
 41
0.8
  7
ROMANS
100
AcDbText
  0
TEXT
  5
129
100
AcDbEntity
  8
RAMTEXT
 62
     6
100
AcDbText
 10
724.934528
 20
4043.728091
 30
0.0
 40
6.695628
  1
As an alternative can door leaf and frame be provide with thin plate from the floor and up to 0.5 m , 
 41
0.8
  7
ROMANS
100
AcDbText
  0
TEXT
  5
12A
100
AcDbEntity
  8
RAMTEXT
 62
     6
100
AcDbText
 10
724.934528
 20
4034.115389
 30
0.0
 40
6.695628
  1
fixed in a way so it not will come loose under fire.
 41
0.8
  7
ROMANS
100
AcDbText
  0
TEXT
  5
12B
100
AcDbEntity
  8
RAMTEXT
 62
     6
100
AcDbText
 10
724.934528
 20
4022.641253
 30
0.0
 40
6.695628
  1
In cases when the door face against stairwell an opening will not be allowed in t
 41
0.8
  7
ROMANS
100
AcDbText
  0
TEXT
  5
12C
100
AcDbEntity
  8
RAMTEXT
 62
     6
100
AcDbText
 10
724.934528
 20
4012.253343
 30
0.0
 40
6.695628
  1
in the under edge of the door leaf. Doors in fire class EI 30 
 41
0.8
  7
ROMANS
100
AcDbText
  0
TEXT
  5
12D
100
AcDbEntity
  8
RAMTEXT
 62
     6
100
AcDbText
 10
723.479518
 20
3906.511823
 30
0.0
 40
6.871829
  1
LOCK ACCORDING TO FIRE RESISTANCE CLASS E30/EI30:
 41
0.8
  7
ROMANT
100
AcDbText
  0
TEXT
  5
12E
100
AcDbEntity
  8
RAMTEXT
 62
     6
100
AcDbText
 10
724.369954
 20
3992.709385
 30
0.0
 40
6.695628
  1
of combustible or noncombustible  material plastic, rubber or equal, during condition that full tigthness 
 41
0.8
  7
ROMANS
100
AcDbText
  0
TEXT
  5
12F
100
AcDbEntity
  8
RAMTEXT
 62
     6
100
AcDbText
 10
724.369954
 20
3982.459307
 30
0.0
 40
6.695628
  1
will be provided. The distance between the dorrleaf underedge a and floor "with out threshold" must not 
 41
0.8
  7
ROMANS
100
AcDbText
  0
TEXT
  5
130
100
AcDbEntity
  8
RAMTEXT
 62
     6
100
AcDbText
 10
724.382537
 20
3924.834291
 30
0.0
 40
6.695628
  1
used in the system, provided that thebelonging mountingsinstructions will be followed.
 41
0.8
  7
ROMANS
100
AcDbText
  0
TEXT
  5
131
100
AcDbEntity
  8
RAMTEXT
 62
     6
100
AcDbText
 10
724.369954
 20
3971.945577
 30
0.0
 40
6.695628
  1
exceed 18 mm if testing shows something else. Doors in fire rated class EI 60 and E 60 max opening 
 41
0.8
  7
ROMANS
100
AcDbText
  0
TEXT
  5
132
100
AcDbEntity
  8
RAMTEXT
 62
     6
100
AcDbText
 10
724.934528
 20
3962.154997
 30
0.0
 40
6.695628
  1
of 10 mm in this cases the SP 45065 can be used during condition that full tigthness will be provide
 41
0.8
  7
ROMANS
100
AcDbText
  0
TEXT
  5
133
100
AcDbEntity
  8
RAMTEXT
 62
     6
100
AcDbText
 10
724.382537
 20
3935.291573
 30
0.0
 40
6.695628
  1
2-3 steel hinges fitted by welding or screws. Type approwed aluminium hinges for steeldoors could be 
 41
0.8
  7
ROMANS
100
AcDbText
  0
TEXT
  5
134
100
AcDbEntity
  8
RAMTEXT
 62
     6
100
AcDbText
 10
724.934528
 20
4002.345568
 30
0.0
 40
6.695628
  1
and E 30 can be performed with threshold, rubber seal SP 45065 or an automatic threshold of 
 41
0.8
  7
ROMANS
100
AcDbText
  0
TEXT
  5
135
100
AcDbEntity
  8
RAMTEXT
 62
     6
100
AcDbText
 10
723.577533
 20
4126.269264
 30
0.0
 40
6.695628
  1
with a flat steel or square tubes that are welded or screwed.
 41
0.8
  7
ROMANS
100
AcDbText
  0
LINE
  5
136
100
AcDbEntity
  8
RAM
100
AcDbLine
 10
1184.374994
 20
4225.27103
 30
0.0
 11
717.499994
 21
4225.27103
 31
0.0
  0
TEXT
  5
137
100
AcDbEntity
  8
RAMTEXT
 62
     6
100
AcDbText
 10
836.968245
 20
3530.221184
 30
0.0
 40
5.5
  1
FIRE RESISTANCE CLASS E30/E60/EI30/EI60
 41
0.8
  7
ROMANS
100
AcDbText
  0
TEXT
  5
138
100
AcDbEntity
  8
RAMTEXT
 62
     6
100
AcDbText
 10
836.675507
 20
3541.526679
 30
0.0
 40
5.5
  1
GENERAL INSTRUCTIONS SP 35000
 41
0.8
  7
ROMANS
100
AcDbText
  0
TEXT
  5
139
100
AcDbEntity
  8
RAMTEXT
 62
     6
100
AcDbText
 10
723.779506
 20
3640.67941
 30
0.0
 40
6.695628
  1
Bolts, bar bolts and the parts that affect them must be made of steel. Minimum gear into locking plate 
 41
0.8
  7
ROMANS
100
AcDbText
  0
TEXT
  5
13A
100
AcDbEntity
  8
RAMTEXT
 62
     6
100
AcDbText
 10
723.779506
 20
3630.772149
 30
0.0
 40
6.695628
  1
10 mm. Fire separating windows should be possible to open only with a tool, a key or something similar.
 41
0.8
  7
ROMANS
100
AcDbText
  0
TEXT
  5
13B
100
AcDbEntity
  8
RAMTEXT
 62
     6
100
AcDbText
 10
723.779506
 20
3593.619359
 30
0.0
 40
6.695628
  1
belonging instructions dont shows anything else. Outdoor sections must allways be topsealed.
 41
0.8
  7
ROMANS
100
AcDbText
  0
TEXT
  5
13C
100
AcDbEntity
  8
RAMTEXT
 62
     6
100
AcDbText
 10
723.779506
 20
3583.712098
 30
0.0
 40
6.695628
  1
Bottomsealing will not be necessary if not Type approval prescribes this. 
 41
0.8
  7
ROMANS
100
AcDbText
  0
TEXT
  5
13D
100
AcDbEntity
  8
RAMTEXT
 62
     6
100
AcDbText
 10
723.479518
 20
3603.54338
 30
0.0
 40
6.695628
  1
In normal indoors environment can topsealing be exclude, were the type approval certificate with
 41
0.8
  7
ROMANS
100
AcDbText
  0
LINE
  5
13E
100
AcDbEntity
  8
RAM
100
AcDbLine
 10
717.499994
 20
3578.749996
 30
0.0
 11
1184.374994
 21
3578.749996
 31
0.0
  0
LINE
  5
13F
100
AcDbEntity
  8
RAM
100
AcDbLine
 10
717.499994
 20
3560.749996
 30
0.0
 11
1184.374994
 21
3560.749996
 31
0.0
  0
LINE
  5
140
100
AcDbEntity
  8
RAM
100
AcDbLine
 10
717.499994
 20
3522.499996
 30
0.0
 11
1184.374994
 21
3522.499996
 31
0.0
  0
TEXT
  5
141
100
AcDbEntity
  8
RAMTEXT
 62
     6
100
AcDbText
 10
723.745892
 20
3760.434674
 30
0.0
 40
6.695628
  1
or an alloy with a melting point exceeding 850%%dC.. Gear into locking plate at least 10 mm.
 41
0.8
  7
ROMANS
100
AcDbText
  0
TEXT
  5
142
100
AcDbEntity
  8
RAMTEXT
 62
     6
100
AcDbText
 10
723.745892
 20
3779.945787
 30
0.0
 40
6.695628
  1
With double doors the side door is provided with a two fluch bolts
 41
0.8
  7
ROMANS
100
AcDbText
  0
TEXT
  5
143
100
AcDbEntity
  8
RAMTEXT
 62
     6
100
AcDbText
 10
723.745892
 20
3770.430947
 30
0.0
 40
6.695628
  1
or a bar bolt. Bolts and the parts that affect them must be made of steel
 41
0.8
  7
ROMANS
100
AcDbText
  0
TEXT
  5
144
100
AcDbEntity
  8
RAMTEXT
 62
     6
100
AcDbText
 10
723.479518
 20
3846.705733
 30
0.0
 40
6.871829
  1
LOCK ACCORDING TO FIRE RESISTANCE CLASS E60/A60/EI60
 41
0.8
  7
ROMANT
100
AcDbText
  0
TEXT
  5
145
100
AcDbEntity
  8
RAMTEXT
 62
     6
100
AcDbText
 10
722.770689
 20
3865.999288
 30
0.0
 40
6.695628
  1
Standard approved electric locking plates can be used.
 41
0.8
  7
ROMANS
100
AcDbText
  0
TEXT
  5
146
100
AcDbEntity
  8
RAMTEXT
 62
     6
100
AcDbText
 10
722.770689
 20
3806.808209
 30
0.0
 40
6.695628
  1
Standard approved electric locking plates can be used.
 41
0.8
  7
ROMANS
100
AcDbText
  0
TEXT
  5
147
100
AcDbEntity
  8
RAMTEXT
 62
     6
100
AcDbText
 10
723.479518
 20
3825.43159
 30
0.0
 40
6.695628
  1
gear at least 10 mm into the locking plate. The drop bolt and the 
 41
0.8
  7
ROMANS
100
AcDbText
  0
TEXT
  5
148
100
AcDbEntity
  8
RAMTEXT
 62
     6
100
AcDbText
 10
723.479518
 20
3815.56171
 30
0.0
 40
6.695628
  1
parts that affect it must be made of steel or an alloy with a melting point exceeding 850%%dC.
 41
0.8
  7
ROMANS
100
AcDbText
  0
TEXT
  5
149
100
AcDbEntity
  8
RAMTEXT
 62
     6
100
AcDbText
 10
723.479518
 20
3835.836234
 30
0.0
 40
6.695628
  1
Mortise lock with drop bolt. The bolt must not be lockable and must 
 41
0.8
  7
ROMANS
100
AcDbText
  0
TEXT
  5
14A
100
AcDbEntity
  8
RAMTEXT
 62
     6
100
AcDbText
 10
724.069252
 20
3720.212357
 30
0.0
 40
6.047209
  1
DOOR CLOSER IN FIRE RESISTANCE CLASS EI30/A60:
 41
0.8
  7
ROMANT
100
AcDbText
  0
TEXT
  5
14B
100
AcDbEntity
  8
RAMTEXT
 62
     6
100
AcDbText
 10
724.069252
 20
3736.611423
 30
0.0
 40
6.696
  1
Får ej medverka till brandspridning på grund
 41
0.8
  7
ROMANS
100
AcDbText
  0
TEXT
  5
14C
100
AcDbEntity
  8
RAMTEXT
 62
     6
100
AcDbText
 10
723.479518
 20
3677.946666
 30
0.0
 40
6.695628
  1
optionally varied, if the maximum measurements are not  exceeded.
 41
0.8
  7
ROMANS
100
AcDbText
  0
TEXT
  5
14D
100
AcDbEntity
  8
RAMTEXT
 62
     6
100
AcDbText
 10
723.479518
 20
3688.535986
 30
0.0
 40
6.695628
  1
Division of glazed and filled sections and number of mullions can be
 41
0.8
  7
ROMANS
100
AcDbText
  0
TEXT
  5
14E
100
AcDbEntity
  8
RAMTEXT
 62
     6
100
AcDbText
 10
723.479518
 20
3650.603432
 30
0.0
 40
6.695628
  1
With double windows the side window is provided with a flush bolt or a double action bar bolt. 
 41
0.8
  7
ROMANS
100
AcDbText
  0
TEXT
  5
14F
100
AcDbEntity
  8
RAMTEXT
 62
     6
100
AcDbText
 10
724.069252
 20
3746.476366
 30
0.0
 40
6.047209
  1
DOOR CLOSER IN FIRE RESISTANCE CLASS E30/E60:
 41
0.8
  7
ROMANT
100
AcDbText
  0
TEXT
  5
150
100
AcDbEntity
  8
RAMTEXT
 62
     6
100
AcDbText
 10
724.050019
 20
3875.406403
 30
0.0
 40
6.695628
  1
parts that affect it must be made of steel or an alloy with a
 41
0.8
  7
ROMANS
100
AcDbText
  0
LINE
  5
151
100
AcDbEntity
  8
RAM
100
AcDbLine
 10
717.499994
 20
4225.27103
 30
0.0
 11
717.499994
 21
3522.499996
 31
0.0
  0
TEXT
  5
152
100
AcDbEntity
  8
RAMTEXT
 62
     6
100
AcDbText
 10
760.249994
 20
3571.999996
 30
0.0
 40
4.05
  1
Ritad
 41
0.8
  7
ROMANS
100
AcDbText
  0
TEXT
  5
153
100
AcDbEntity
  8
RAMTEXT
 62
     6
100
AcDbText
 10
761.787703
 20
3563.747862
 30
0.0
 40
4.910127
  1
R.O
 41
0.8
  7
ROMANS
100
AcDbText
  0
TEXT
  5
154
100
AcDbEntity
  8
TEXT
 62
     1
100
AcDbText
 10
737.482668
 20
3534.140224
 30
0.0
 40
10.125
  1
STALPROFIL AB
 41
0.8
  7
ROMANS
100
AcDbText
  0
TEXT
  5
155
100
AcDbEntity
  8
RAMTEXT
 62
     6
100
AcDbText
 10
723.479518
 20
3614.486468
 30
0.0
 40
6.871829
  1
Top/Bottomsealing:
 41
0.8
  7
ROMANS
100
AcDbText
  0
TEXT
  5
156
100
AcDbEntity
  8
RAMTEXT
 62
     6
100
AcDbText
 10
724.069252
 20
3711.684241
 30
0.0
 40
5.892152
  1
Optional type
 41
0.8
  7
ROMANS
100
AcDbText
  0
TEXT
  5
157
100
AcDbEntity
  8
RAMTEXT
 62
     6
100
AcDbText
 10
719.749994
 20
3571.999996
 30
0.0
 40
4.05
  1
Konstr.
 41
0.8
  7
ROMANS
100
AcDbText
  0
LINE
  5
158
100
AcDbEntity
  8
RAM
100
AcDbLine
 10
756.874994
 20
3578.749996
 30
0.0
 11
756.874994
 21
3560.749996
 31
0.0
  0
LINE
  5
159
100
AcDbEntity
  8
RAM
100
AcDbLine
 10
717.499994
 20
3578.749996
 30
0.0
 11
717.499994
 21
3604.499996
 31
0.0
  0
CIRCLE
  5
15A
100
AcDbEntity
  8
TEXT
 62
     1
100
AcDbCircle
 10
754.84654
 20
3546.847681
 30
0.0
 40
1.148774
  0
LWPOLYLINE
  5
15B
100
AcDbEntity
  8
TEXT
 62
     1
100
AcDbPolyline
 90
       12
 70
     1
 43
1.4625
 10
727.812377
 20
3537.110653
 42
1.0
 10
728.846521
 20
3538.144796
 10
726.661452
 20
3540.329865
 42
-0.414214
 10
726.661452
 20
3543.432296
 10
729.101846
 20
3545.87269
 42
-0.198912
 10
730.653061
 20
3546.515224
 10
732.773199
 20
3546.515224
 42
1.0
 10
732.773199
 20
3547.977724
 10
729.441487
 20
3547.977724
 42
0.198912
 10
728.924415
 20
3547.763546
 10
723.559021
 20
3542.398153
 42
0.414214
 10
723.559021
 20
3541.364009
  0
LWPOLYLINE
  5
15C
100
AcDbEntity
  8
TEXT
 62
     1
100
AcDbPolyline
 90
       12
 70
     1
 43
0.9
 10
728.289675
 20
3537.58795
 42
1.000001
 10
728.369224
 20
3537.667499
 10
726.184155
 20
3539.852568
 42
-0.414214
 10
726.184155
 20
3543.909593
 10
728.624549
 20
3546.349987
 42
-0.198912
 10
730.653061
 20
3547.190224
 10
732.773199
 20
3547.190224
 42
1.0
 10
732.773199
 20
3547.302724
 10
729.441487
 20
3547.302724
 42
0.198912
 10
729.401712
 20
3547.286249
 10
724.036318
 20
3541.920855
 42
0.414214
 10
724.036318
 20
3541.841306
  0
LWPOLYLINE
  5
15D
100
AcDbEntity
  8
TEXT
 62
     1
100
AcDbPolyline
 90
       12
 70
     1
 43
1.4625
 10
729.40688
 20
3542.577724
 42
1.0
 10
728.372737
 20
3541.543581
 10
730.557806
 20
3539.358512
 42
-0.414214
 10
730.557806
 20
3536.256081
 10
728.117412
 20
3533.815687
 42
-0.198912
 10
726.566196
 20
3533.173153
 10
724.446058
 20
3533.173153
 42
1.0
 10
724.446058
 20
3531.710653
 10
727.777771
 20
3531.710653
 42
0.198912
 10
728.294843
 20
3531.924831
 10
733.660237
 20
3537.290224
 42
0.414214
 10
733.660237
 20
3538.324368
  0
LWPOLYLINE
  5
15E
100
AcDbEntity
  8
TEXT
 62
     1
100
AcDbPolyline
 90
       12
 70
     1
 43
0.9
 10
728.929583
 20
3542.100427
 42
1.000001
 10
728.850034
 20
3542.020878
 10
731.035103
 20
3539.835809
 42
-0.414214
 10
731.035103
 20
3535.778784
 10
728.594709
 20
3533.33839
 42
-0.198912
 10
726.566196
 20
3532.498153
 10
724.446058
 20
3532.498153
 42
1.0
 10
724.446058
 20
3532.385653
 10
727.777771
 20
3532.385653
 42
0.198912
 10
727.817546
 20
3532.402128
 10
733.18294
 20
3537.767521
 42
0.414214
 10
733.18294
 20
3537.847071
  0
LINE
  5
15F
100
AcDbEntity
  8
RAM
100
AcDbLine
 10
717.499994
 20
3522.499996
 30
0.0
 11
717.499994
 21
3578.749996
 31
0.0
  0
TEXT
  5
160
100
AcDbEntity
  8
RAMTEXT
 62
     6
100
AcDbText
 10
721.93366
 20
3553.999996
 30
0.0
 40
4.05
  1
Firma
 41
0.8
  7
ROMANS
100
AcDbText
  0
TEXT
  5
161
100
AcDbEntity
  8
RAMTEXT
 62
     6
100
AcDbText
 10
723.479518
 20
3661.54652
 30
0.0
 40
6.871829
  1
WINDOWS:
 41
0.8
  7
ROMANS
100
AcDbText
  0
TEXT
  5
162
100
AcDbEntity
  8
RAMTEXT
 62
     6
100
AcDbText
 10
723.479518
 20
3697.252676
 30
0.0
 40
6.871829
  1
MEASURES:
 41
0.8
  7
ROMANS
100
AcDbText
  0
TEXT
  5
163
100
AcDbEntity
  8
RAMTEXT
 62
     6
100
AcDbText
 10
798.499994
 20
3571.999996
 30
0.0
 40
4.05
  1
Kop.
 41
0.8
  7
ROMANS
100
AcDbText
  0
LINE
  5
164
100
AcDbEntity
  8
RAM
100
AcDbLine
 10
796.249994
 20
3578.749996
 30
0.0
 11
796.249994
 21
3560.749996
 31
0.0
  0
TEXT
  5
165
100
AcDbEntity
  8
RAMTEXT
 62
     6
100
AcDbText
 10
838.999994
 20
3571.999996
 30
0.0
 40
4.05
  1
Kontr.
 41
0.8
  7
ROMANS
100
AcDbText
  0
LINE
  5
166
100
AcDbEntity
  8
RAM
100
AcDbLine
 10
874.999994
 20
3578.749996
 30
0.0
 11
874.999994
 21
3560.749996
 31
0.0
  0
TEXT
  5
167
100
AcDbEntity
  8
RAMTEXT
 62
     6
100
AcDbText
 10
877.249994
 20
3571.999996
 30
0.0
 40
4.05
  1
Stand.
 41
0.8
  7
ROMANS
100
AcDbText
  0
LINE
  5
168
100
AcDbEntity
  8
RAM
100
AcDbLine
 10
835.624994
 20
3578.749996
 30
0.0
 11
835.624994
 21
3522.499996
 31
0.0
  0
TEXT
  5
169
100
AcDbEntity
  8
RAMTEXT
 62
     6
100
AcDbText
 10
841.18366
 20
3553.999996
 30
0.0
 40
4.05
  1
Titel
 41
0.8
  7
ROMANS
100
AcDbText
  0
TEXT
  5
16A
100
AcDbEntity
  8
RAMTEXT
 62
     6
100
AcDbText
 10
723.745892
 20
3789.636827
 30
0.0
 40
6.871829
  1
FLUCH/BAR BOLT:
 41
0.8
  7
ROMANS
100
AcDbText
  0
LINE
  5
16B
100
AcDbEntity
  8
RAM
100
AcDbLine
 10
694.999994
 20
3855.374996
 30
0.0
 11
717.499994
 21
3855.374996
 31
0.0
  0
TEXT
  5
16C
100
AcDbEntity
  8
RAMTEXT
 62
     6
100
AcDbText
 10
724.352799
 20
4109.217997
 30
0.0
 40
6.871829
  1
FIXING TO THE FRAME OF THE BUILDING:
 41
0.8
  7
ROMANS
100
AcDbText
  0
TEXT
  5
16D
100
AcDbEntity
  8
RAMTEXT
 62
     6
100
AcDbText
 10
724.934528
 20
4073.576834
 30
0.0
 40
6.871829
  1
SPACE BETWEEN FLOOR AND DOOR:
 41
0.8
  7
ROMANS
100
AcDbText
  0
TEXT
  5
16E
100
AcDbEntity
  8
RAMTEXT
 62
     6
100
AcDbText
 10
724.382537
 20
3944.982613
 30
0.0
 40
6.871829
  1
HINGES:
 41
0.8
  7
ROMANS
100
AcDbText
  0
TEXT
  5
16F
100
AcDbEntity
  8
RAMTEXT
 62
     6
100
AcDbText
 10
723.577533
 20
4145.475143
 30
0.0
 40
6.871829
  1
GENERAL INSTRUCTIONS:
 41
0.8
  7
ROMANS
100
AcDbText
  0
LINE
  5
170
100
AcDbEntity
  8
RAM
100
AcDbLine
 10
728.749994
 20
4247.77103
 30
0.0
 11
728.749994
 21
4225.27103
 31
0.0
  0
LWPOLYLINE
  5
171
100
AcDbEntity
  8
TEXT
 62
     1
100
AcDbPolyline
 90
       12
 70
     1
 43
1.2
 10
865.391073
 20
4202.714805
 42
1.000001
 10
865.497139
 20
4202.820871
 10
862.583713
 20
4205.734297
 42
-0.414214
 10
862.583713
 20
4211.143663
 10
865.837572
 20
4214.397522
 42
-0.198912
 10
868.542255
 20
4215.517838
 10
871.369106
 20
4215.517838
 42
1.0
 10
871.369106
 20
4215.667838
 10
866.926822
 20
4215.667838
 42
0.198912
 10
866.873789
 20
4215.645871
 10
859.719931
 20
4208.492013
 42
0.414214
 10
859.719931
 20
4208.385947
  0
LWPOLYLINE
  5
172
100
AcDbEntity
  8
TEXT
 62
     1
100
AcDbPolyline
 90
       12
 70
     1
 43
1.95
 10
864.754677
 20
4202.078409
 42
1.0
 10
866.133535
 20
4203.457267
 10
863.22011
 20
4206.370693
 42
-0.414214
 10
863.22011
 20
4210.507267
 10
866.473968
 20
4213.761126
 42
-0.198912
 10
868.542255
 20
4214.617838
 10
871.369106
 20
4214.617838
 42
1.0
 10
871.369106
 20
4216.567838
 10
866.926822
 20
4216.567838
 42
0.198912
 10
866.237393
 20
4216.282267
 10
859.083535
 20
4209.128409
 42
0.414214
 10
859.083535
 20
4207.749551
  0
LWPOLYLINE
  5
173
100
AcDbEntity
  8
TEXT
 62
     1
100
AcDbPolyline
 90
       12
 70
     1
 43
1.2
 10
866.244284
 20
4208.731442
 42
1.000001
 10
866.138218
 20
4208.625376
 10
869.051644
 20
4205.711951
 42
-0.414214
 10
869.051644
 20
4200.302584
 10
865.797785
 20
4197.048726
 42
-0.198912
 10
863.093102
 20
4195.928409
 10
860.266251
 20
4195.928409
 42
1.0
 10
860.266251
 20
4195.778409
 10
864.708535
 20
4195.778409
 42
0.198912
 10
864.761568
 20
4195.800376
 10
871.915426
 20
4202.954234
 42
0.414214
 10
871.915426
 20
4203.0603
  0
LWPOLYLINE
  5
174
100
AcDbEntity
  8
TEXT
 62
     1
100
AcDbPolyline
 90
       12
 70
     1
 43
1.95
 10
866.88068
 20
4209.367838
 42
1.0
 10
865.501822
 20
4207.98898
 10
868.415248
 20
4205.075555
 42
-0.414214
 10
868.415248
 20
4200.93898
 10
865.161389
 20
4197.685122
 42
-0.198912
 10
863.093102
 20
4196.828409
 10
860.266251
 20
4196.828409
 42
1.0
 10
860.266251
 20
4194.878409
 10
864.708535
 20
4194.878409
 42
0.198912
 10
865.397964
 20
4195.16398
 10
872.551822
 20
4202.317838
 42
0.414214
 10
872.551822
 20
4203.696696
  0
LINE
  5
175
100
AcDbEntity
  8
RAM
100
AcDbLine
 10
780.499994
 20
4225.27103
 30
0.0
 11
780.499994
 21
4247.77103
 31
0.0
  0
LINE
  5
176
100
AcDbEntity
  8
RAM
100
AcDbLine
 10
1184.374994
 20
3522.499996
 30
0.0
 11
1184.374994
 21
4225.27103
 31
0.0
  0
TEXT
  5
177
100
AcDbEntity
  8
RAMTEXT
 62
     6
100
AcDbText
 10
1131.335567
 20
3580.669739
 30
0.0
 40
3.0
  1
Rev A Added lock 010218
 41
0.8
  7
ROMANS
100
AcDbText
  0
LINE
  5
178
100
AcDbEntity
  8
FOGNINGB
100
AcDbLine
 10
1184.374994
 20
3585.177048
 30
0.0
 11
1126.942426
 21
3585.177048
 31
0.0
  0
LINE
  5
179
100
AcDbEntity
  8
RAM
100
AcDbLine
 10
998.749994
 20
3544.999996
 30
0.0
 11
1184.374994
 21
3544.999996
 31
0.0
  0
TEXT
  5
17A
100
AcDbEntity
  8
RAMTEXT
 62
     6
100
AcDbText
 10
1027.854867
 20
3529.249975
 30
0.0
 40
7.659798
  1
4-2490-A
 41
0.8
  7
ROMANS
100
AcDbText
  0
TEXT
  5
17B
100
AcDbEntity
  8
RAMTEXT
 62
     6
100
AcDbText
 10
955.999994
 20
3571.999996
 30
0.0
 40
4.05
  1
Skala
 41
0.8
  7
ROMANS
100
AcDbText
  0
TEXT
  5
17C
100
AcDbEntity
  8
RAMTEXT
 62
     6
100
AcDbText
 10
917.749994
 20
3571.999996
 30
0.0
 40
4.05
  1
Godk.
 41
0.8
  7
ROMANS
100
AcDbText
  0
LINE
  5
17D
100
AcDbEntity
  8
RAM
100
AcDbLine
 10
914.374994
 20
3578.749996
 30
0.0
 11
914.374994
 21
3560.749996
 31
0.0
  0
LINE
  5
17E
100
AcDbEntity
  8
RAM
100
AcDbLine
 10
953.749994
 20
3578.749996
 30
0.0
 11
953.749994
 21
3560.749996
 31
0.0
  0
TEXT
  5
17F
100
AcDbEntity
  8
RAMTEXT
 62
     6
100
AcDbText
 10
1000.999994
 20
3571.999996
 30
0.0
 40
4.05
  1
Ersätter
 41
0.8
  7
ROMANS
100
AcDbText
  0
TEXT
  5
180
100
AcDbEntity
  8
RAMTEXT
 62
     6
100
AcDbText
 10
1000.999994
 20
3538.249996
 30
0.0
 40
4.05
  1
Ritn.-nr
 41
0.8
  7
ROMANS
100
AcDbText
  0
LINE
  5
181
100
AcDbEntity
  8
RAM
100
AcDbLine
 10
998.749994
 20
3578.749996
 30
0.0
 11
998.749994
 21
3522.499996
 31
0.0
  0
TEXT
  5
182
100
AcDbEntity
  8
RAMTEXT
 62
     6
100
AcDbText
 10
1000.999994
 20
3553.999996
 30
0.0
 40
4.05
  1
Regist.nr
 41
0.8
  7
ROMANS
100
AcDbText
  0
TEXT
  5
183
100
AcDbEntity
  8
RAMTEXT
 62
     6
100
AcDbText
 10
1068.352535
 20
3549.609599
 30
0.0
 40
5.892152
  1
99-02-08
 41
0.8
  7
ROMANS
100
AcDbText
  0
TEXT
  5
184
100
AcDbEntity
  8
RAMTEXT
 62
     6
100
AcDbText
 10
1052.749994
 20
3571.999996
 30
0.0
 40
4.05
  1
Ersatt av
 41
0.8
  7
ROMANS
100
AcDbText
  0
TEXT
  5
185
100
AcDbEntity
  8
RAMTEXT
 62
     6
100
AcDbText
 10
1052.749994
 20
3553.999996
 30
0.0
 40
4.05
  1
Dat.
 41
0.8
  7
ROMANS
100
AcDbText
  0
LINE
  5
186
100
AcDbEntity
  8
RAM
100
AcDbLine
 10
1049.374994
 20
3578.749996
 30
0.0
 11
1049.374994
 21
3544.999996
 31
0.0
  0
LINE
  5
187
100
AcDbEntity
  8
FOGNINGB
100
AcDbLine
 10
1126.942426
 20
3585.177048
 30
0.0
 11
1126.942426
 21
3578.749996
 31
0.0
  0
TEXT
  5
188
100
AcDbEntity
  8
RAMTEXT
 62
     6
100
AcDbText
 10
917.972198
 20
3737.709225
 30
0.0
 40
6.696
  1
av värmestrålning genom glasrutor.
 41
0.8
  7
ROMANS
100
AcDbText
  0
LINE
  5
189
100
AcDbEntity
  8
RAM
100
AcDbLine
 10
1212.499994
 20
3855.374996
 30
0.0
 11
1184.374994
 21
3855.374996
 31
0.0
  0
CIRCLE
  5
18A
100
AcDbEntity
  8
TEXT
 62
     1
100
AcDbCircle
 10
903.319067
 20
4214.611693
 30
0.0
 40
1.531699
  0
LINE
  5
18B
100
AcDbEntity
  8
RAM
100
AcDbLine
 10
994.249994
 20
4225.27103
 30
0.0
 11
994.249994
 21
4247.77103
 31
0.0
  0
ENDSEC
  0
SECTION
  2
OBJECTS
  0
DICTIONARY
  5
1A
100
AcDbDictionary
  3
ACAD_GROUP
350
18
  3
ACAD_LAYOUT
350
A1
  3
ACAD_MLINESTYLE
350
19
  3
ACAD_PLOTSETTINGS
350
A2
  3
ACAD_PLOTSTYLENAME
350
9F
  3
ACDBHEADERROUNDTRIPXREC
350
18F
  0
DICTIONARY
  5
18D
100
AcDbDictionary
280
     1
  3
ACAD_XREC_ROUNDTRIP
360
18E
  0
DICTIONARY
  5
1B3
100
AcDbDictionary
280
     1
  3
ACAD_XREC_ROUNDTRIP
360
1B4
  0
DICTIONARY
  5
1AF
100
AcDbDictionary
280
     1
  3
ACAD_LAYOUTSELFREF
360
1B0
  0
DICTIONARY
  5
1B1
100
AcDbDictionary
280
     1
  3
ACAD_LAYOUTSELFREF
360
1B2
  0
DICTIONARY
  5
18
102
{ACAD_REACTORS
330
1A
102
}
100
AcDbDictionary
  0
DICTIONARY
  5
A1
102
{ACAD_XDICTIONARY
360
1B5
102
}
102
{ACAD_REACTORS
330
1A
102
}
100
AcDbDictionary
  3
LAYOUT1
350
A4
  3
MODEL
350
A3
  0
DICTIONARY
  5
19
102
{ACAD_REACTORS
330
1A
102
}
100
AcDbDictionary
  3
STANDARD
350
1D
  0
DICTIONARY
  5
A2
102
{ACAD_REACTORS
330
1A
102
}
100
AcDbDictionary
  0
ACAD_PROXY_OBJECT
  5
9F
102
{ACAD_REACTORS
330
1A
102
}
100
AcDbProxyObject
 90
      499
 91
      503
 93
       86
310
405010041939BDC9B585B0
350
A0
340
A0
 94
        0
  0
DICTIONARY
  5
18F
102
{ACAD_REACTORS
330
1A
102
}
100
AcDbDictionary
  3
CEPSNTYPE
350
199
  3
FINGERPRINTGUID
350
19A
  3
HYPERLINKBASE
350
192
  3
INSUNITS
350
198
  3
LAYOUTDICT
350
194
  3
LWETCUNION
350
197
  3
PLOTSETDICT
350
195
  3
PLOTSTYLNAMDICT
350
196
  3
PSVPSCALE
350
19C
  3
PUCSBASE
350
19F
  3
PUCSORGBACK
350
1A5
  3
PUCSORGBOTTOM
350
1A1
  3
PUCSORGFRONT
350
1A4
  3
PUCSORGLEFT
350
1A2
  3
PUCSORGRIGHT
350
1A3
  3
PUCSORGTOP
350
1A0
  3
PUCSORTHOREF
350
19D
  3
PUCSORTHOVIEW
350
19E
  3
STYLESHEET
350
193
  3
TSTACKALIGN
350
190
  3
TSTACKSIZE
350
191
  3
UCSBASE
350
1A8
  3
UCSORGBACK
350
1AE
  3
UCSORGBOTTOM
350
1AA
  3
UCSORGFRONT
350
1AD
  3
UCSORGLEFT
350
1AB
  3
UCSORGRIGHT
350
1AC
  3
UCSORGTOP
350
1A9
  3
UCSORTHOREF
350
1A6
  3
UCSORTHOVIEW
350
1A7
  3
VERSIONGUID
350
19B
  0
XRECORD
  5
18E
102
{ACAD_REACTORS
330
18D
102
}
100
AcDbXrecord
102
EXTNAMES
  1
*ACTIVE
  2
*Active
102
UCS
 74
     0
 71
     1
 10
0.0
 20
0.0
 30
0.0
 10
1.0
 20
0.0
 30
0.0
 10
0.0
 20
1.0
 30
0.0
146
0.0
 79
     0
102
VIEW
281
     0
  0
XRECORD
  5
1B4
102
{ACAD_REACTORS
330
1B3
102
}
100
AcDbXrecord
102
ACADR14ROUNDTRIP
1000
DSTYLE
1002
{
1070
   279
 70
     2
1002
}
  0
XRECORD
  5
1B0
102
{ACAD_REACTORS
330
1AF
102
}
100
AcDbXrecord
340
2
  0
XRECORD
  5
1B2
102
{ACAD_REACTORS
330
1B1
102
}
100
AcDbXrecord
340
7
  0
DICTIONARY
  5
1B5
100
AcDbDictionary
280
     1
  3
ACAD_XREC_ROUNDTRIP
360
1B6
  0
ACAD_PROXY_OBJECT
  5
A4
102
{ACAD_REACTORS
330
A1
102
}
100
AcDbProxyObject
 90
      499
 91
      505
 93
     1092
310
91D4850204C617365724A65742034562F344D5620506F73745363726970742C00AAAAAA416AA591069074C61796F75743140501A800000000000000000000000000000000000000000101E900000000000241C902A6A6A10232D5E076BC5510408CB5781DAF154410232D5E076BC5510408CB5781DAF15C410232D5E076BC5
310
710408CB5781DAF15C40
330
7
330
0
340
0
340
0
 94
        0
  0
ACAD_PROXY_OBJECT
  5
A3
102
{ACAD_REACTORS
330
A1
102
}
100
AcDbProxyObject
 90
      499
 91
      505
 93
      668
310
91D4850204C617365724A65742034562F344D5620506F73745363726970742C01AAAAAAAAA5A69054D6F64656C901A800000000000000000000000000000000000000000000A1000000000000008902A6A6AAAAC
330
2
330
0
340
0
340
0
 94
        0
  0
MLINESTYLE
  5
1D
102
{ACAD_REACTORS
330
19
102
}
100
AcDbMlineStyle
  2
STANDARD
 70
     0
  3

 62
     0
 51
90.0
 52
90.0
 71
     2
 49
0.5
 62
   256
  6
BYLAYER
 49
-0.5
 62
   256
  6
BYLAYER
  0
ACAD_PROXY_OBJECT
  5
A0
102
{ACAD_REACTORS
330
9F
102
}
100
AcDbProxyObject
 90
      499
 91
      504
 93
        0
 94
        0
  0
XRECORD
  5
199
102
{ACAD_REACTORS
330
18F
102
}
100
AcDbXrecord
 90
        0
  0
XRECORD
  5
19A
102
{ACAD_REACTORS
330
18F
102
}
100
AcDbXrecord
  1
{DCFA0848-0BE8-11D6-AA0B-00D0B7E2A69D}
  0
XRECORD
  5
192
102
{ACAD_REACTORS
330
18F
102
}
100
AcDbXrecord
  1

  0
XRECORD
  5
198
102
{ACAD_REACTORS
330
18F
102
}
100
AcDbXrecord
 90
        0
  0
XRECORD
  5
194
102
{ACAD_REACTORS
330
18F
102
}
100
AcDbXrecord
340
A1
  0
XRECORD
  5
197
102
{ACAD_REACTORS
330
18F
102
}
100
AcDbXrecord
 90
    14877
  0
XRECORD
  5
195
102
{ACAD_REACTORS
330
18F
102
}
100
AcDbXrecord
340
A2
  0
XRECORD
  5
196
102
{ACAD_REACTORS
330
18F
102
}
100
AcDbXrecord
340
9F
  0
XRECORD
  5
19C
102
{ACAD_REACTORS
330
18F
102
}
100
AcDbXrecord
 40
0.0
  0
XRECORD
  5
19F
102
{ACAD_REACTORS
330
18F
102
}
100
AcDbXrecord
340
0
  0
XRECORD
  5
1A5
102
{ACAD_REACTORS
330
18F
102
}
100
AcDbXrecord
 10
0.0
 20
0.0
 30
0.0
  0
XRECORD
  5
1A1
102
{ACAD_REACTORS
330
18F
102
}
100
AcDbXrecord
 10
0.0
 20
0.0
 30
0.0
  0
XRECORD
  5
1A4
102
{ACAD_REACTORS
330
18F
102
}
100
AcDbXrecord
 10
0.0
 20
0.0
 30
0.0
  0
XRECORD
  5
1A2
102
{ACAD_REACTORS
330
18F
102
}
100
AcDbXrecord
 10
0.0
 20
0.0
 30
0.0
  0
XRECORD
  5
1A3
102
{ACAD_REACTORS
330
18F
102
}
100
AcDbXrecord
 10
0.0
 20
0.0
 30
0.0
  0
XRECORD
  5
1A0
102
{ACAD_REACTORS
330
18F
102
}
100
AcDbXrecord
 10
0.0
 20
0.0
 30
0.0
  0
XRECORD
  5
19D
102
{ACAD_REACTORS
330
18F
102
}
100
AcDbXrecord
340
0
  0
XRECORD
  5
19E
102
{ACAD_REACTORS
330
18F
102
}
100
AcDbXrecord
 70
     0
  0
XRECORD
  5
193
102
{ACAD_REACTORS
330
18F
102
}
100
AcDbXrecord
  1

  0
XRECORD
  5
190
102
{ACAD_REACTORS
330
18F
102
}
100
AcDbXrecord
 90
        1
  0
XRECORD
  5
191
102
{ACAD_REACTORS
330
18F
102
}
100
AcDbXrecord
 90
       70
  0
XRECORD
  5
1A8
102
{ACAD_REACTORS
330
18F
102
}
100
AcDbXrecord
340
0
  0
XRECORD
  5
1AE
102
{ACAD_REACTORS
330
18F
102
}
100
AcDbXrecord
 10
0.0
 20
0.0
 30
0.0
  0
XRECORD
  5
1AA
102
{ACAD_REACTORS
330
18F
102
}
100
AcDbXrecord
 10
0.0
 20
0.0
 30
0.0
  0
XRECORD
  5
1AD
102
{ACAD_REACTORS
330
18F
102
}
100
AcDbXrecord
 10
0.0
 20
0.0
 30
0.0
  0
XRECORD
  5
1AB
102
{ACAD_REACTORS
330
18F
102
}
100
AcDbXrecord
 10
0.0
 20
0.0
 30
0.0
  0
XRECORD
  5
1AC
102
{ACAD_REACTORS
330
18F
102
}
100
AcDbXrecord
 10
0.0
 20
0.0
 30
0.0
  0
XRECORD
  5
1A9
102
{ACAD_REACTORS
330
18F
102
}
100
AcDbXrecord
 10
0.0
 20
0.0
 30
0.0
  0
XRECORD
  5
1A6
102
{ACAD_REACTORS
330
18F
102
}
100
AcDbXrecord
340
0
  0
XRECORD
  5
1A7
102
{ACAD_REACTORS
330
18F
102
}
100
AcDbXrecord
 70
     0
  0
XRECORD
  5
19B
102
{ACAD_REACTORS
330
18F
102
}
100
AcDbXrecord
  1
{DCFA0862-0BE8-11D6-AA0B-00D0B7E2A69D}
  0
XRECORD
  5
1B6
102
{ACAD_REACTORS
330
1B5
102
}
100
AcDbXrecord
102
EXTNAMES
  1
LAYOUT1
  2
Layout1
  1
MODEL
  2
Model
  0
ENDSEC
  0
EOF
