  0
SECTION
  2
HEADER
  9
$ACADVER
  1
AC1014
  9
$ACADMAINTVER
 70
     0
  9
$DWGCODEPAGE
  3
ANSI_1252
  9
$INSBASE
 10
-1949.219112
 20
28.206191
 30
0.0
  9
$EXTMIN
 10
-1315.000006
 20
29.999996
 30
0.0
  9
$EXTMAX
 10
-797.500006
 20
767.77103
 30
0.0
  9
$LIMMIN
 10
0.0
 20
0.0
  9
$LIMMAX
 10
840.0
 20
600.0
  9
$ORTHOMODE
 70
     0
  9
$REGENMODE
 70
     1
  9
$FILLMODE
 70
     1
  9
$QTEXTMODE
 70
     0
  9
$MIRRTEXT
 70
     1
  9
$DRAGMODE
 70
     2
  9
$LTSCALE
 40
5.0
  9
$OSMODE
 70
   547
  9
$ATTMODE
 70
     1
  9
$TEXTSIZE
 40
5.0
  9
$TRACEWID
 40
0.05
  9
$TEXTSTYLE
  7
ROMANS
  9
$CLAYER
  8
GLAS_MED_FOGNING
  9
$CELTYPE
  6
BYLAYER
  9
$CECOLOR
 62
   256
  9
$CELTSCALE
 40
1.0
  9
$DELOBJ
 70
     1
  9
$DISPSILH
 70
     0
  9
$DIMSCALE
 40
1.2
  9
$DIMASZ
 40
0.0
  9
$DIMEXO
 40
1.0
  9
$DIMDLI
 40
10.0
  9
$DIMRND
 40
0.0
  9
$DIMDLE
 40
0.0
  9
$DIMEXE
 40
2.0
  9
$DIMTP
 40
0.0
  9
$DIMTM
 40
0.0
  9
$DIMTXT
 40
3.0
  9
$DIMCEN
 40
2.5
  9
$DIMTSZ
 40
1.0
  9
$DIMTOL
 70
     0
  9
$DIMLIM
 70
     0
  9
$DIMTIH
 70
     0
  9
$DIMTOH
 70
     0
  9
$DIMSE1
 70
     0
  9
$DIMSE2
 70
     0
  9
$DIMTAD
 70
     1
  9
$DIMZIN
 70
     8
  9
$DIMBLK
  1

  9
$DIMASO
 70
     1
  9
$DIMSHO
 70
     1
  9
$DIMPOST
  1

  9
$DIMAPOST
  1

  9
$DIMALT
 70
     0
  9
$DIMALTD
 70
     2
  9
$DIMALTF
 40
25.4
  9
$DIMLFAC
 40
1.0
  9
$DIMTOFL
 70
     1
  9
$DIMTVP
 40
0.0
  9
$DIMTIX
 70
     0
  9
$DIMSOXD
 70
     0
  9
$DIMSAH
 70
     0
  9
$DIMBLK1
  1

  9
$DIMBLK2
  1

  9
$DIMSTYLE
  2
ROMANS
  9
$DIMCLRD
 70
     0
  9
$DIMCLRE
 70
     0
  9
$DIMCLRT
 70
     6
  9
$DIMTFAC
 40
1.0
  9
$DIMGAP
 40
1.25
  9
$DIMJUST
 70
     0
  9
$DIMSD1
 70
     0
  9
$DIMSD2
 70
     0
  9
$DIMTOLJ
 70
     1
  9
$DIMTZIN
 70
     0
  9
$DIMALTZ
 70
     0
  9
$DIMALTTZ
 70
     0
  9
$DIMFIT
 70
     3
  9
$DIMUPT
 70
     0
  9
$DIMUNIT
 70
     2
  9
$DIMDEC
 70
     4
  9
$DIMTDEC
 70
     4
  9
$DIMALTU
 70
     2
  9
$DIMALTTD
 70
     2
  9
$DIMTXSTY
  7
STANDARD
  9
$DIMAUNIT
 70
     0
  9
$LUNITS
 70
     2
  9
$LUPREC
 70
     2
  9
$SKETCHINC
 40
0.1
  9
$FILLETRAD
 40
0.5
  9
$AUNITS
 70
     0
  9
$AUPREC
 70
     4
  9
$MENU
  1
acad
  9
$ELEVATION
 40
0.0
  9
$PELEVATION
 40
0.0
  9
$THICKNESS
 40
0.0
  9
$LIMCHECK
 70
     0
  9
$BLIPMODE
 70
     0
  9
$CHAMFERA
 40
10.0
  9
$CHAMFERB
 40
10.0
  9
$CHAMFERC
 40
0.0
  9
$CHAMFERD
 40
0.0
  9
$SKPOLY
 70
     0
  9
$TDCREATE
 40
2450609.793525810
  9
$TDUPDATE
 40
2452293.406394560
  9
$TDINDWG
 40
1.4536510417
  9
$TDUSRTIMER
 40
1.4536510417
  9
$USRTIMER
 70
     1
  9
$ANGBASE
 50
0.0
  9
$ANGDIR
 70
     0
  9
$PDMODE
 70
    35
  9
$PDSIZE
 40
0.0
  9
$PLINEWID
 40
0.0
  9
$COORDS
 70
     1
  9
$SPLFRAME
 70
     0
  9
$SPLINETYPE
 70
     6
  9
$SPLINESEGS
 70
     8
  9
$ATTDIA
 70
     0
  9
$ATTREQ
 70
     1
  9
$HANDLING
 70
     1
  9
$HANDSEED
  5
1A6
  9
$SURFTAB1
 70
     6
  9
$SURFTAB2
 70
     6
  9
$SURFTYPE
 70
     6
  9
$SURFU
 70
     6
  9
$SURFV
 70
     6
  9
$UCSNAME
  2

  9
$UCSORG
 10
0.0
 20
0.0
 30
0.0
  9
$UCSXDIR
 10
1.0
 20
0.0
 30
0.0
  9
$UCSYDIR
 10
0.0
 20
1.0
 30
0.0
  9
$PUCSNAME
  2

  9
$PUCSORG
 10
0.0
 20
0.0
 30
0.0
  9
$PUCSXDIR
 10
1.0
 20
0.0
 30
0.0
  9
$PUCSYDIR
 10
0.0
 20
1.0
 30
0.0
  9
$USERI1
 70
     0
  9
$USERI2
 70
     0
  9
$USERI3
 70
     0
  9
$USERI4
 70
     0
  9
$USERI5
 70
     0
  9
$USERR1
 40
0.0
  9
$USERR2
 40
0.0
  9
$USERR3
 40
0.0
  9
$USERR4
 40
0.0
  9
$USERR5
 40
0.0
  9
$WORLDVIEW
 70
     1
  9
$SHADEDGE
 70
     3
  9
$SHADEDIF
 70
    70
  9
$TILEMODE
 70
     1
  9
$MAXACTVP
 70
    16
  9
$PINSBASE
 10
0.0
 20
0.0
 30
0.0
  9
$PLIMCHECK
 70
     0
  9
$PEXTMIN
 10
1.000000E+20
 20
1.000000E+20
 30
1.000000E+20
  9
$PEXTMAX
 10
-1.000000E+20
 20
-1.000000E+20
 30
-1.000000E+20
  9
$PLIMMIN
 10
0.0
 20
0.0
  9
$PLIMMAX
 10
420.0
 20
297.0
  9
$UNITMODE
 70
     0
  9
$VISRETAIN
 70
     0
  9
$PLINEGEN
 70
     0
  9
$PSLTSCALE
 70
     1
  9
$TREEDEPTH
 70
  3020
  9
$PICKSTYLE
 70
     1
  9
$CMLSTYLE
  2
STANDARD
  9
$CMLJUST
 70
     0
  9
$CMLSCALE
 40
1.0
  9
$PROXYGRAPHICS
 70
     1
  9
$MEASUREMENT
 70
     0
  0
ENDSEC
  0
SECTION
  2
CLASSES
  0
CLASS
  1
LWPOLYLINE
  2
AcDbPolyline
  3
"AutoCAD"
 90
        0
280
     0
281
     1
  0
CLASS
  1
HATCH
  2
AcDbHatch
  3
"ACAD_SEDONA"
 90
        0
280
     0
281
     1
  0
CLASS
  1
DICTIONARYVAR
  2
AcDbDictionaryVar
  3
"AutoCAD"
 90
        0
280
     0
281
     0
  0
CLASS
  1
ACDBDICTIONARYWDFLT
  2
AcDbDictionaryWithDefault
  3
AutoCAD 2000
 90
        0
280
     0
281
     0
  0
CLASS
  1
ACDBPLACEHOLDER
  2
AcDbPlaceHolder
  3
AutoCAD 2000
 90
        0
280
     0
281
     0
  0
CLASS
  1
LAYOUT
  2
AcDbLayout
  3
AutoCAD 2000
 90
        0
280
     0
281
     0
  0
CLASS
  1
LONG_TRANSACTION
  2
AcDbLongTransaction
  3
AutoCAD 2000
 90
        0
280
     0
281
     0
  0
CLASS
  1
LWPOLYLINE
  2
AcDbPolyline
  3
"AutoCAD"
 90
        0
280
     0
281
     1
  0
CLASS
  1
HATCH
  2
AcDbHatch
  3
"ACAD_SEDONA"
 90
        0
280
     0
281
     1
  0
CLASS
  1
XRECORD
  2
AcDbXrecord
  3
"<Built In>"
 90
        0
280
     0
281
     0
  0
ENDSEC
  0
SECTION
  2
TABLES
  0
TABLE
  2
VPORT
  5
12
100
AcDbSymbolTable
 70
     1
  0
VPORT
  5
176
102
{ACAD_XDICTIONARY
360
177
102
}
100
AcDbSymbolTableRecord
100
AcDbViewportTableRecord
  2
*ACTIVE
 70
     0
 10
0.0
 20
0.0
 11
1.0
 21
1.0
 12
-949.654292
 22
387.643652
 13
0.0
 23
0.0
 14
5.0
 24
5.0
 15
10.0
 25
10.0
 16
0.0
 26
0.0
 36
1.0
 17
0.0
 27
0.0
 37
0.0
 40
803.088869
 41
1.630435
 42
50.0
 43
0.0
 44
0.0
 50
0.0
 51
0.0
 71
     0
 72
   100
 73
     1
 74
     1
 75
     1
 76
     0
 77
     0
 78
     1
  0
ENDTAB
  0
TABLE
  2
LTYPE
  5
D
100
AcDbSymbolTable
 70
     1
  0
LTYPE
  5
E
100
AcDbSymbolTableRecord
100
AcDbLinetypeTableRecord
  2
BYBLOCK
 70
     0
  3

 72
    65
 73
     0
 40
0.0
  0
LTYPE
  5
F
100
AcDbSymbolTableRecord
100
AcDbLinetypeTableRecord
  2
BYLAYER
 70
     0
  3

 72
    65
 73
     0
 40
0.0
  0
LTYPE
  5
5
100
AcDbSymbolTableRecord
100
AcDbLinetypeTableRecord
  2
CONTINUOUS
 70
     0
  3
Solid line
 72
    65
 73
     0
 40
0.0
  0
ENDTAB
  0
TABLE
  2
LAYER
  5
A
100
AcDbSymbolTable
 70
     5
  0
LAYER
  5
4
100
AcDbSymbolTableRecord
100
AcDbLayerTableRecord
  2
0
 70
     0
 62
     7
  6
CONTINUOUS
  0
LAYER
  5
1B
100
AcDbSymbolTableRecord
100
AcDbLayerTableRecord
  2
GLAS_MED_FOGNING
 70
     0
 62
     2
  6
CONTINUOUS
  0
LAYER
  5
28
100
AcDbSymbolTableRecord
100
AcDbLayerTableRecord
  2
TEXT
 70
     0
 62
     6
  6
CONTINUOUS
  0
LAYER
  5
20
100
AcDbSymbolTableRecord
100
AcDbLayerTableRecord
  2
RAM
 70
     0
 62
     5
  6
CONTINUOUS
  0
LAYER
  5
24
100
AcDbSymbolTableRecord
100
AcDbLayerTableRecord
  2
RAMTEXT
 70
     0
 62
     6
  6
CONTINUOUS
  0
ENDTAB
  0
TABLE
  2
STYLE
  5
B
100
AcDbSymbolTable
 70
     4
  0
STYLE
  5
C
100
AcDbSymbolTableRecord
100
AcDbTextStyleTableRecord
  2
STANDARD
 70
     0
 40
0.0
 41
1.0
 50
0.0
 71
     0
 42
5.0
  3
txt
  4

  0
STYLE
  5
66
100
AcDbSymbolTableRecord
100
AcDbTextStyleTableRecord
  2
ISO
 70
     0
 40
0.0
 41
1.0
 50
0.0
 71
     0
 42
3.15
  3
C:/ACADWIN/FONTS/ISO.SHX
  4

  0
STYLE
  5
1C
100
AcDbSymbolTableRecord
100
AcDbTextStyleTableRecord
  2
ROMANS
 70
     0
 40
0.0
 41
0.8
 50
0.0
 71
     0
 42
5.0
  3
romans
  4

  0
STYLE
  5
2E
100
AcDbSymbolTableRecord
100
AcDbTextStyleTableRecord
  2
ROMANT
 70
     0
 40
0.0
 41
0.8
 50
0.0
 71
     0
 42
5.0
  3
romant
  4

  0
ENDTAB
  0
TABLE
  2
VIEW
  5
10
100
AcDbSymbolTable
 70
     0
  0
ENDTAB
  0
TABLE
  2
UCS
  5
11
100
AcDbSymbolTable
 70
     0
  0
ENDTAB
  0
TABLE
  2
APPID
  5
14
100
AcDbSymbolTable
 70
     1
  0
APPID
  5
15
100
AcDbSymbolTableRecord
100
AcDbRegAppTableRecord
  2
ACAD
 70
     0
  0
ENDTAB
  0
TABLE
  2
DIMSTYLE
  5
16
100
AcDbSymbolTable
 70
     1
  0
DIMSTYLE
105
1E
102
{ACAD_XDICTIONARY
360
19D
102
}
100
AcDbSymbolTableRecord
100
AcDbDimStyleTableRecord
  2
ROMANS
 70
     0
  3

  4

  5

  6

  7

 40
1.2
 41
0.0
 42
1.0
 43
10.0
 44
2.0
 45
0.0
 46
0.0
 47
0.0
 48
0.0
140
3.5
141
2.5
142
1.0
143
25.4
144
1.0
145
0.0
146
1.0
147
0.1
 71
     0
 72
     0
 73
     0
 74
     0
 75
     0
 76
     0
 77
     1
 78
     8
170
     0
171
     2
172
     1
173
     0
174
     0
175
     0
176
     0
177
     0
178
     6
270
     2
271
     2
272
     2
273
     2
274
     2
340
1C
275
     0
280
     0
281
     0
282
     0
283
     1
284
     8
285
     8
286
     8
287
     5
288
     0
  0
ENDTAB
  0
TABLE
  2
BLOCK_RECORD
  5
1
100
AcDbSymbolTable
 70
     0
  0
BLOCK_RECORD
  5
2
102
{ACAD_XDICTIONARY
360
199
102
}
100
AcDbSymbolTableRecord
100
AcDbBlockTableRecord
  2
*MODEL_SPACE
  0
BLOCK_RECORD
  5
7
102
{ACAD_XDICTIONARY
360
19B
102
}
100
AcDbSymbolTableRecord
100
AcDbBlockTableRecord
  2
*PAPER_SPACE
  0
ENDTAB
  0
ENDSEC
  0
SECTION
  2
BLOCKS
  0
BLOCK
  5
3
100
AcDbEntity
  8
0
100
AcDbBlockBegin
  2
*MODEL_SPACE
 70
     2
 10
0.0
 20
0.0
 30
0.0
  3
*MODEL_SPACE
  1

  0
ENDBLK
  5
6
100
AcDbEntity
  8
0
100
AcDbBlockEnd
  0
BLOCK
  5
8
100
AcDbEntity
 67
     1
  8
0
100
AcDbBlockBegin
  2
*PAPER_SPACE
 70
     0
 10
0.0
 20
0.0
 30
0.0
  3
*PAPER_SPACE
  1

  0
ENDBLK
  5
9
100
AcDbEntity
 67
     1
  8
0
100
AcDbBlockEnd
  0
ENDSEC
  0
SECTION
  2
ENTITIES
  0
LINE
  5
10A
100
AcDbEntity
  8
RAM
100
AcDbLine
 10
-1235.125006
 20
31.249996
 30
0.0
 11
-1229.500006
 21
42.499996
 31
0.0
  0
LINE
  5
10B
100
AcDbEntity
  8
RAM
100
AcDbLine
 10
-1229.500006
 20
42.499996
 30
0.0
 11
-1223.875006
 21
31.249996
 31
0.0
  0
LINE
  5
10C
100
AcDbEntity
  8
RAM
100
AcDbLine
 10
-1281.250006
 20
29.999996
 30
0.0
 11
-1281.250006
 21
42.499996
 31
0.0
  0
TEXT
  5
10D
100
AcDbEntity
  8
RAMTEXT
 62
     6
100
AcDbText
 10
-1286.520482
 20
387.396709
 30
0.0
 40
6.695628
  1
parts that affect it must be made of steel or an alloy with a melting point exceeding 850%%dC.
 41
0.8
  7
ROMANS
100
AcDbText
  0
TEXT
  5
10E
100
AcDbEntity
  8
TEXT
 62
     1
100
AcDbText
 10
-1132.351603
 20
717.840658
 30
0.0
 40
13.5
  1
STALPROFIL AB
 41
0.8
  7
ROMANT
100
AcDbText
  0
TEXT
  5
10F
100
AcDbEntity
  8
TEXT
 62
     1
100
AcDbText
 10
-1243.879815
 20
695.840658
 30
0.0
 40
10.8
  1
GENERAL INSTRUCTIONS SP 35000 EI30/A30
 41
0.8
  7
ROMANT
100
AcDbText
  0
TEXT
  5
110
100
AcDbEntity
  8
RAMTEXT
 62
     6
100
AcDbText
 10
-1286.520482
 20
406.820782
 30
0.0
 40
6.695628
  1
Mortise lock with drop bolt. The bolt must not be lockable and must 
 41
0.8
  7
ROMANS
100
AcDbText
  0
TEXT
  5
111
100
AcDbEntity
  8
RAMTEXT
 62
     6
100
AcDbText
 10
-1285.949981
 20
396.450158
 30
0.0
 40
6.695628
  1
gear at least 7 mm into the locking plate. The drop bolt and the 
 41
0.8
  7
ROMANS
100
AcDbText
  0
TEXT
  5
112
100
AcDbEntity
  8
RAMTEXT
 62
     6
100
AcDbText
 10
-1286.422467
 20
647.251365
 30
0.0
 40
6.695628
  1
Frame profiles are jointed by welding. Sections are jointed
 41
0.8
  7
ROMANS
100
AcDbText
  0
TEXT
  5
113
100
AcDbEntity
  8
RAMTEXT
 62
     6
100
AcDbText
 10
-1285.065472
 20
573.885794
 30
0.0
 40
6.695628
  1
The door can be performed without threshold and with an opening with the underedge of the door 
 41
0.8
  7
ROMANS
100
AcDbText
  0
TEXT
  5
114
100
AcDbEntity
  8
RAMTEXT
 62
     6
100
AcDbText
 10
-1285.065472
 20
564.528388
 30
0.0
 40
6.695628
  1
of max 10 mm doors in this cases optional type of bristlebead, automatic threshold or rubber seal.
 41
0.8
  7
ROMANS
100
AcDbText
  0
TEXT
  5
115
100
AcDbEntity
  8
RAMTEXT
 62
     6
100
AcDbText
 10
-1285.647201
 20
609.526957
 30
0.0
 40
6.695628
  1
The sides and the lower edge of the section are welded or screwed. 
 41
0.8
  7
ROMANS
100
AcDbText
  0
TEXT
  5
116
100
AcDbEntity
  8
RAMTEXT
 62
     6
100
AcDbText
 10
-1285.728866
 20
599.944191
 30
0.0
 40
6.695628
  1
Movable fixing for the upper edge see drawing no..4-2540 and 4-2541
 41
0.8
  7
ROMANS
100
AcDbText
  0
TEXT
  5
117
100
AcDbEntity
  8
RAMTEXT
 62
     6
100
AcDbText
 10
-1285.065472
 20
553.728091
 30
0.0
 40
6.695628
  1
As an alternative can door leaf and frame be provide with thin plate from the floor and up to 0.5 m , 
 41
0.8
  7
ROMANS
100
AcDbText
  0
TEXT
  5
118
100
AcDbEntity
  8
RAMTEXT
 62
     6
100
AcDbText
 10
-1285.065472
 20
544.115389
 30
0.0
 40
6.695628
  1
fixed in a way so it not will come loose under fire.
 41
0.8
  7
ROMANS
100
AcDbText
  0
TEXT
  5
119
100
AcDbEntity
  8
RAMTEXT
 62
     6
100
AcDbText
 10
-1285.065472
 20
532.641253
 30
0.0
 40
6.695628
  1
In cases when the door face against stairwell an opening will not be allowed in t
 41
0.8
  7
ROMANS
100
AcDbText
  0
TEXT
  5
11A
100
AcDbEntity
  8
RAMTEXT
 62
     6
100
AcDbText
 10
-1285.065472
 20
522.253343
 30
0.0
 40
6.695628
  1
in the under edge of the door leaf. Doors in fire class A 30 
 41
0.8
  7
ROMANS
100
AcDbText
  0
TEXT
  5
11B
100
AcDbEntity
  8
RAMTEXT
 62
     6
100
AcDbText
 10
-1286.520482
 20
416.511823
 30
0.0
 40
6.871829
  1
LOCK ACCORDING TO FIRE RESISTANCE CLASS E30/A30:
 41
0.8
  7
ROMANT
100
AcDbText
  0
TEXT
  5
11C
100
AcDbEntity
  8
RAMTEXT
 62
     6
100
AcDbText
 10
-1285.630046
 20
502.709385
 30
0.0
 40
6.695628
  1
of combustible or noncombustible  material plastic, rubber or equal, during condition that full tigthness 
 41
0.8
  7
ROMANS
100
AcDbText
  0
TEXT
  5
11D
100
AcDbEntity
  8
RAMTEXT
 62
     6
100
AcDbText
 10
-1285.630046
 20
492.459307
 30
0.0
 40
6.695628
  1
will be provided. The distance between the dorrleaf underedge a and floor "with out threshold" must not 
 41
0.8
  7
ROMANS
100
AcDbText
  0
TEXT
  5
11E
100
AcDbEntity
  8
RAMTEXT
 62
     6
100
AcDbText
 10
-1285.617463
 20
434.834291
 30
0.0
 40
6.695628
  1
used in the system, provided that thebelonging mountingsinstructions will be followed.
 41
0.8
  7
ROMANS
100
AcDbText
  0
TEXT
  5
11F
100
AcDbEntity
  8
RAMTEXT
 62
     6
100
AcDbText
 10
-1285.630046
 20
481.945577
 30
0.0
 40
6.695628
  1
exceed 18 mm if testing shows something else. Doors in fire rated class EI 60 and E 60 max opening 
 41
0.8
  7
ROMANS
100
AcDbText
  0
TEXT
  5
120
100
AcDbEntity
  8
RAMTEXT
 62
     6
100
AcDbText
 10
-1285.065472
 20
472.154997
 30
0.0
 40
6.695628
  1
of 10 mm in this cases the SP 45065 can be used during condition that full tigthness will be provide
 41
0.8
  7
ROMANS
100
AcDbText
  0
TEXT
  5
121
100
AcDbEntity
  8
RAMTEXT
 62
     6
100
AcDbText
 10
-1285.617463
 20
445.291573
 30
0.0
 40
6.695628
  1
2-3 steel hinges fitted by welding or screws. Type approwed aluminium hinges for steeldoors could be 
 41
0.8
  7
ROMANS
100
AcDbText
  0
TEXT
  5
122
100
AcDbEntity
  8
RAMTEXT
 62
     6
100
AcDbText
 10
-1285.065472
 20
512.345568
 30
0.0
 40
6.695628
  1
and E 30 can be performed with threshold, rubber seal SP 45065 or an automatic threshold of 
 41
0.8
  7
ROMANS
100
AcDbText
  0
TEXT
  5
123
100
AcDbEntity
  8
RAMTEXT
 62
     6
100
AcDbText
 10
-1286.422467
 20
636.269264
 30
0.0
 40
6.695628
  1
with a flat steel or square tubes that are welded or screwed.
 41
0.8
  7
ROMANS
100
AcDbText
  0
LINE
  5
124
100
AcDbEntity
  8
RAM
100
AcDbLine
 10
-825.625006
 20
745.27103
 30
0.0
 11
-1292.500006
 21
745.27103
 31
0.0
  0
TEXT
  5
125
100
AcDbEntity
  8
RAMTEXT
 62
     6
100
AcDbText
 10
-1173.031755
 20
50.221184
 30
0.0
 40
5.5
  1
FIRE RESISTANCE CLASS EI30/A30
 41
0.8
  7
ROMANS
100
AcDbText
  0
TEXT
  5
126
100
AcDbEntity
  8
RAMTEXT
 62
     6
100
AcDbText
 10
-1173.324493
 20
61.526679
 30
0.0
 40
5.5
  1
GENERAL INSTRUCTIONS SP 35000
 41
0.8
  7
ROMANS
100
AcDbText
  0
TEXT
  5
127
100
AcDbEntity
  8
RAMTEXT
 62
     6
100
AcDbText
 10
-1286.220494
 20
165.67941
 30
0.0
 40
6.695628
  1
Bolts, bar bolts and the parts that affect them must be made of steel. Minimum gear into locking plate 
 41
0.8
  7
ROMANS
100
AcDbText
  0
TEXT
  5
128
100
AcDbEntity
  8
RAMTEXT
 62
     6
100
AcDbText
 10
-1286.220494
 20
155.772149
 30
0.0
 40
6.695628
  1
10 mm. Fire separating windows should be possible to open only with a tool, a key or something similar.
 41
0.8
  7
ROMANS
100
AcDbText
  0
TEXT
  5
129
100
AcDbEntity
  8
RAMTEXT
 62
     6
100
AcDbText
 10
-1286.220494
 20
118.619359
 30
0.0
 40
6.695628
  1
belonging instructions dont shows anything else. Outdoor sections must allways be topsealed.
 41
0.8
  7
ROMANS
100
AcDbText
  0
TEXT
  5
12A
100
AcDbEntity
  8
RAMTEXT
 62
     6
100
AcDbText
 10
-1286.220494
 20
108.712098
 30
0.0
 40
6.695628
  1
Bottomsealing will not be necessary if not Type approval prescribes this. 
 41
0.8
  7
ROMANS
100
AcDbText
  0
TEXT
  5
12B
100
AcDbEntity
  8
RAMTEXT
 62
     6
100
AcDbText
 10
-1286.520482
 20
128.54338
 30
0.0
 40
6.695628
  1
In normal indoors environment can topsealing be exclude, were the type approval certificate with
 41
0.8
  7
ROMANS
100
AcDbText
  0
LINE
  5
12C
100
AcDbEntity
  8
RAM
100
AcDbLine
 10
-1292.500006
 20
98.749996
 30
0.0
 11
-825.625006
 21
98.749996
 31
0.0
  0
LINE
  5
12D
100
AcDbEntity
  8
RAM
100
AcDbLine
 10
-1292.500006
 20
80.749996
 30
0.0
 11
-825.625006
 21
80.749996
 31
0.0
  0
LINE
  5
12E
100
AcDbEntity
  8
RAM
100
AcDbLine
 10
-1292.500006
 20
42.499996
 30
0.0
 11
-825.625006
 21
42.499996
 31
0.0
  0
TEXT
  5
12F
100
AcDbEntity
  8
RAMTEXT
 62
     6
100
AcDbText
 10
-1286.254108
 20
280.434674
 30
0.0
 40
6.695628
  1
or an alloy with a melting point exceeding 850%%dC.. Gear into locking plate at least 10 mm.
 41
0.8
  7
ROMANS
100
AcDbText
  0
TEXT
  5
130
100
AcDbEntity
  8
RAMTEXT
 62
     6
100
AcDbText
 10
-1286.254108
 20
299.945787
 30
0.0
 40
6.695628
  1
With double doors the side door is provided with a two fluch bolts
 41
0.8
  7
ROMANS
100
AcDbText
  0
TEXT
  5
131
100
AcDbEntity
  8
RAMTEXT
 62
     6
100
AcDbText
 10
-1286.254108
 20
290.430947
 30
0.0
 40
6.695628
  1
or a bar bolt. Bolts and the parts that affect them must be made of steel
 41
0.8
  7
ROMANS
100
AcDbText
  0
TEXT
  5
132
100
AcDbEntity
  8
RAMTEXT
 62
     6
100
AcDbText
 10
-1286.520482
 20
361.705733
 30
0.0
 40
6.871829
  1
LOCK ACCORDING TO FIRE RESISTANCE CLASS E60/A60/EI60
 41
0.8
  7
ROMANT
100
AcDbText
  0
TEXT
  5
133
100
AcDbEntity
  8
RAMTEXT
 62
     6
100
AcDbText
 10
-1287.229311
 20
375.999288
 30
0.0
 40
6.695628
  1
Standard approved electric locking plates can be used.
 41
0.8
  7
ROMANS
100
AcDbText
  0
TEXT
  5
134
100
AcDbEntity
  8
RAMTEXT
 62
     6
100
AcDbText
 10
-1287.229311
 20
321.808209
 30
0.0
 40
6.695628
  1
Standard approved electric locking plates can be used.
 41
0.8
  7
ROMANS
100
AcDbText
  0
TEXT
  5
135
100
AcDbEntity
  8
RAMTEXT
 62
     6
100
AcDbText
 10
-1286.520482
 20
340.43159
 30
0.0
 40
6.695628
  1
gear at least 10 mm into the locking plate. The drop bolt and the 
 41
0.8
  7
ROMANS
100
AcDbText
  0
TEXT
  5
136
100
AcDbEntity
  8
RAMTEXT
 62
     6
100
AcDbText
 10
-1286.520482
 20
330.56171
 30
0.0
 40
6.695628
  1
parts that affect it must be made of steel or an alloy with a melting point exceeding 850%%dC.
 41
0.8
  7
ROMANS
100
AcDbText
  0
TEXT
  5
137
100
AcDbEntity
  8
RAMTEXT
 62
     6
100
AcDbText
 10
-1286.520482
 20
350.836234
 30
0.0
 40
6.695628
  1
Mortise lock with drop bolt. The bolt must not be lockable and must 
 41
0.8
  7
ROMANS
100
AcDbText
  0
TEXT
  5
138
100
AcDbEntity
  8
RAMTEXT
 62
     6
100
AcDbText
 10
-1285.930748
 20
245.212357
 30
0.0
 40
6.047209
  1
DOOR CLOSER IN FIRE RESISTANCE CLASS EI30/A60:
 41
0.8
  7
ROMANT
100
AcDbText
  0
TEXT
  5
139
100
AcDbEntity
  8
RAMTEXT
 62
     6
100
AcDbText
 10
-1285.930748
 20
256.611423
 30
0.0
 40
6.696
  1
Får ej medverka till brandspridning på grund
 41
0.8
  7
ROMANS
100
AcDbText
  0
TEXT
  5
13A
100
AcDbEntity
  8
RAMTEXT
 62
     6
100
AcDbText
 10
-1286.520482
 20
202.946666
 30
0.0
 40
6.695628
  1
optionally varied, if the maximum measurements are not  exceeded.
 41
0.8
  7
ROMANS
100
AcDbText
  0
TEXT
  5
13B
100
AcDbEntity
  8
RAMTEXT
 62
     6
100
AcDbText
 10
-1286.520482
 20
213.535986
 30
0.0
 40
6.695628
  1
Division of glazed and filled sections and number of mullions can be
 41
0.8
  7
ROMANS
100
AcDbText
  0
TEXT
  5
13C
100
AcDbEntity
  8
RAMTEXT
 62
     6
100
AcDbText
 10
-1286.520482
 20
175.603432
 30
0.0
 40
6.695628
  1
With double windows the side window is provided with a flush bolt or a double action bar bolt. 
 41
0.8
  7
ROMANS
100
AcDbText
  0
TEXT
  5
13D
100
AcDbEntity
  8
RAMTEXT
 62
     6
100
AcDbText
 10
-1285.930748
 20
266.476366
 30
0.0
 40
6.047209
  1
DOOR CLOSER IN FIRE RESISTANCE CLASS E30/E60:
 41
0.8
  7
ROMANT
100
AcDbText
  0
LINE
  5
13E
100
AcDbEntity
  8
RAM
100
AcDbLine
 10
-1292.500006
 20
745.27103
 30
0.0
 11
-1292.500006
 21
42.499996
 31
0.0
  0
TEXT
  5
13F
100
AcDbEntity
  8
RAMTEXT
 62
     6
100
AcDbText
 10
-1249.750006
 20
91.999996
 30
0.0
 40
4.05
  1
Ritad
 41
0.8
  7
ROMANS
100
AcDbText
  0
TEXT
  5
140
100
AcDbEntity
  8
RAMTEXT
 62
     6
100
AcDbText
 10
-1248.212297
 20
83.747862
 30
0.0
 40
4.910127
  1
R.O
 41
0.8
  7
ROMANS
100
AcDbText
  0
TEXT
  5
141
100
AcDbEntity
  8
TEXT
 62
     1
100
AcDbText
 10
-1272.517332
 20
54.140224
 30
0.0
 40
10.125
  1
STALPROFIL AB
 41
0.8
  7
ROMANS
100
AcDbText
  0
TEXT
  5
142
100
AcDbEntity
  8
RAMTEXT
 62
     6
100
AcDbText
 10
-1286.520482
 20
139.486468
 30
0.0
 40
6.871829
  1
Top/Bottomsealing:
 41
0.8
  7
ROMANS
100
AcDbText
  0
TEXT
  5
143
100
AcDbEntity
  8
RAMTEXT
 62
     6
100
AcDbText
 10
-1285.930748
 20
236.684241
 30
0.0
 40
5.892152
  1
Optional type
 41
0.8
  7
ROMANS
100
AcDbText
  0
TEXT
  5
144
100
AcDbEntity
  8
RAMTEXT
 62
     6
100
AcDbText
 10
-1290.250006
 20
91.999996
 30
0.0
 40
4.05
  1
Konstr.
 41
0.8
  7
ROMANS
100
AcDbText
  0
LINE
  5
145
100
AcDbEntity
  8
RAM
100
AcDbLine
 10
-1253.125006
 20
98.749996
 30
0.0
 11
-1253.125006
 21
80.749996
 31
0.0
  0
LINE
  5
146
100
AcDbEntity
  8
RAM
100
AcDbLine
 10
-1292.500006
 20
98.749996
 30
0.0
 11
-1292.500006
 21
124.499996
 31
0.0
  0
CIRCLE
  5
147
100
AcDbEntity
  8
TEXT
 62
     1
100
AcDbCircle
 10
-1255.15346
 20
66.847681
 30
0.0
 40
1.148774
  0
LWPOLYLINE
  5
148
100
AcDbEntity
  8
TEXT
 62
     1
100
AcDbPolyline
 90
       12
 70
     1
 43
1.4625
 10
-1282.187623
 20
57.110653
 42
1.0
 10
-1281.153479
 20
58.144796
 10
-1283.338548
 20
60.329865
 42
-0.414214
 10
-1283.338548
 20
63.432296
 10
-1280.898154
 20
65.87269
 42
-0.198912
 10
-1279.346939
 20
66.515224
 10
-1277.226801
 20
66.515224
 42
1.0
 10
-1277.226801
 20
67.977724
 10
-1280.558513
 20
67.977724
 42
0.198912
 10
-1281.075585
 20
67.763546
 10
-1286.440979
 20
62.398153
 42
0.414214
 10
-1286.440979
 20
61.364009
  0
LWPOLYLINE
  5
149
100
AcDbEntity
  8
TEXT
 62
     1
100
AcDbPolyline
 90
       12
 70
     1
 43
0.9
 10
-1281.710325
 20
57.58795
 42
1.000001
 10
-1281.630776
 20
57.667499
 10
-1283.815845
 20
59.852568
 42
-0.414214
 10
-1283.815845
 20
63.909593
 10
-1281.375451
 20
66.349987
 42
-0.198912
 10
-1279.346939
 20
67.190224
 10
-1277.226801
 20
67.190224
 42
1.0
 10
-1277.226801
 20
67.302724
 10
-1280.558513
 20
67.302724
 42
0.198912
 10
-1280.598288
 20
67.286249
 10
-1285.963682
 20
61.920855
 42
0.414214
 10
-1285.963682
 20
61.841306
  0
LWPOLYLINE
  5
14A
100
AcDbEntity
  8
TEXT
 62
     1
100
AcDbPolyline
 90
       12
 70
     1
 43
1.4625
 10
-1280.59312
 20
62.577724
 42
1.0
 10
-1281.627263
 20
61.543581
 10
-1279.442194
 20
59.358512
 42
-0.414214
 10
-1279.442194
 20
56.256081
 10
-1281.882588
 20
53.815687
 42
-0.198912
 10
-1283.433804
 20
53.173153
 10
-1285.553942
 20
53.173153
 42
1.0
 10
-1285.553942
 20
51.710653
 10
-1282.222229
 20
51.710653
 42
0.198912
 10
-1281.705157
 20
51.924831
 10
-1276.339763
 20
57.290224
 42
0.414214
 10
-1276.339763
 20
58.324368
  0
LWPOLYLINE
  5
14B
100
AcDbEntity
  8
TEXT
 62
     1
100
AcDbPolyline
 90
       12
 70
     1
 43
0.9
 10
-1281.070417
 20
62.100427
 42
1.000001
 10
-1281.149966
 20
62.020878
 10
-1278.964897
 20
59.835809
 42
-0.414214
 10
-1278.964897
 20
55.778784
 10
-1281.405291
 20
53.33839
 42
-0.198912
 10
-1283.433804
 20
52.498153
 10
-1285.553942
 20
52.498153
 42
1.0
 10
-1285.553942
 20
52.385653
 10
-1282.222229
 20
52.385653
 42
0.198912
 10
-1282.182454
 20
52.402128
 10
-1276.81706
 20
57.767521
 42
0.414214
 10
-1276.81706
 20
57.847071
  0
LINE
  5
14C
100
AcDbEntity
  8
RAM
100
AcDbLine
 10
-1292.500006
 20
42.499996
 30
0.0
 11
-1292.500006
 21
98.749996
 31
0.0
  0
TEXT
  5
14D
100
AcDbEntity
  8
RAMTEXT
 62
     6
100
AcDbText
 10
-1288.06634
 20
73.999996
 30
0.0
 40
4.05
  1
Firma
 41
0.8
  7
ROMANS
100
AcDbText
  0
TEXT
  5
14E
100
AcDbEntity
  8
RAMTEXT
 62
     6
100
AcDbText
 10
-1286.520482
 20
186.54652
 30
0.0
 40
6.871829
  1
WINDOWS:
 41
0.8
  7
ROMANS
100
AcDbText
  0
TEXT
  5
14F
100
AcDbEntity
  8
RAMTEXT
 62
     6
100
AcDbText
 10
-1286.520482
 20
222.252676
 30
0.0
 40
6.871829
  1
MEASURES:
 41
0.8
  7
ROMANS
100
AcDbText
  0
TEXT
  5
150
100
AcDbEntity
  8
RAMTEXT
 62
     6
100
AcDbText
 10
-1211.500006
 20
91.999996
 30
0.0
 40
4.05
  1
Kop.
 41
0.8
  7
ROMANS
100
AcDbText
  0
LINE
  5
151
100
AcDbEntity
  8
RAM
100
AcDbLine
 10
-1213.750006
 20
98.749996
 30
0.0
 11
-1213.750006
 21
80.749996
 31
0.0
  0
TEXT
  5
152
100
AcDbEntity
  8
RAMTEXT
 62
     6
100
AcDbText
 10
-1171.000006
 20
91.999996
 30
0.0
 40
4.05
  1
Kontr.
 41
0.8
  7
ROMANS
100
AcDbText
  0
LINE
  5
153
100
AcDbEntity
  8
RAM
100
AcDbLine
 10
-1135.000006
 20
98.749996
 30
0.0
 11
-1135.000006
 21
80.749996
 31
0.0
  0
TEXT
  5
154
100
AcDbEntity
  8
RAMTEXT
 62
     6
100
AcDbText
 10
-1132.750006
 20
91.999996
 30
0.0
 40
4.05
  1
Stand.
 41
0.8
  7
ROMANS
100
AcDbText
  0
LINE
  5
155
100
AcDbEntity
  8
RAM
100
AcDbLine
 10
-1174.375006
 20
98.749996
 30
0.0
 11
-1174.375006
 21
42.499996
 31
0.0
  0
TEXT
  5
156
100
AcDbEntity
  8
RAMTEXT
 62
     6
100
AcDbText
 10
-1168.81634
 20
73.999996
 30
0.0
 40
4.05
  1
Titel
 41
0.8
  7
ROMANS
100
AcDbText
  0
TEXT
  5
157
100
AcDbEntity
  8
RAMTEXT
 62
     6
100
AcDbText
 10
-1286.254108
 20
309.636827
 30
0.0
 40
6.871829
  1
FLUCH/BAR BOLT:
 41
0.8
  7
ROMANS
100
AcDbText
  0
LINE
  5
158
100
AcDbEntity
  8
RAM
100
AcDbLine
 10
-1315.000006
 20
375.374996
 30
0.0
 11
-1292.500006
 21
375.374996
 31
0.0
  0
TEXT
  5
159
100
AcDbEntity
  8
RAMTEXT
 62
     6
100
AcDbText
 10
-1285.647201
 20
619.217997
 30
0.0
 40
6.871829
  1
FIXING TO THE FRAME OF THE BUILDING:
 41
0.8
  7
ROMANS
100
AcDbText
  0
TEXT
  5
15A
100
AcDbEntity
  8
RAMTEXT
 62
     6
100
AcDbText
 10
-1285.065472
 20
583.576834
 30
0.0
 40
6.871829
  1
SPACE BETWEEN FLOOR AND DOOR:
 41
0.8
  7
ROMANS
100
AcDbText
  0
TEXT
  5
15B
100
AcDbEntity
  8
RAMTEXT
 62
     6
100
AcDbText
 10
-1285.617463
 20
454.982613
 30
0.0
 40
6.871829
  1
HINGES:
 41
0.8
  7
ROMANS
100
AcDbText
  0
TEXT
  5
15C
100
AcDbEntity
  8
RAMTEXT
 62
     6
100
AcDbText
 10
-1286.422467
 20
655.475143
 30
0.0
 40
6.871829
  1
GENERAL INSTRUCTIONS:
 41
0.8
  7
ROMANS
100
AcDbText
  0
LINE
  5
15D
100
AcDbEntity
  8
RAM
100
AcDbLine
 10
-1281.250006
 20
767.77103
 30
0.0
 11
-1281.250006
 21
745.27103
 31
0.0
  0
LWPOLYLINE
  5
15E
100
AcDbEntity
  8
TEXT
 62
     1
100
AcDbPolyline
 90
       12
 70
     1
 43
1.2
 10
-1144.608927
 20
722.714805
 42
1.000001
 10
-1144.502861
 20
722.820871
 10
-1147.416287
 20
725.734297
 42
-0.414214
 10
-1147.416287
 20
731.143663
 10
-1144.162428
 20
734.397522
 42
-0.198912
 10
-1141.457745
 20
735.517838
 10
-1138.630894
 20
735.517838
 42
1.0
 10
-1138.630894
 20
735.667838
 10
-1143.073178
 20
735.667838
 42
0.198912
 10
-1143.126211
 20
735.645871
 10
-1150.280069
 20
728.492013
 42
0.414214
 10
-1150.280069
 20
728.385947
  0
LWPOLYLINE
  5
15F
100
AcDbEntity
  8
TEXT
 62
     1
100
AcDbPolyline
 90
       12
 70
     1
 43
1.95
 10
-1145.245323
 20
722.078409
 42
1.0
 10
-1143.866465
 20
723.457267
 10
-1146.77989
 20
726.370693
 42
-0.414214
 10
-1146.77989
 20
730.507267
 10
-1143.526032
 20
733.761126
 42
-0.198912
 10
-1141.457745
 20
734.617838
 10
-1138.630894
 20
734.617838
 42
1.0
 10
-1138.630894
 20
736.567838
 10
-1143.073178
 20
736.567838
 42
0.198912
 10
-1143.762607
 20
736.282267
 10
-1150.916465
 20
729.128409
 42
0.414214
 10
-1150.916465
 20
727.749551
  0
LWPOLYLINE
  5
160
100
AcDbEntity
  8
TEXT
 62
     1
100
AcDbPolyline
 90
       12
 70
     1
 43
1.2
 10
-1143.755716
 20
728.731442
 42
1.000001
 10
-1143.861782
 20
728.625376
 10
-1140.948356
 20
725.711951
 42
-0.414214
 10
-1140.948356
 20
720.302584
 10
-1144.202215
 20
717.048726
 42
-0.198912
 10
-1146.906898
 20
715.928409
 10
-1149.733749
 20
715.928409
 42
1.0
 10
-1149.733749
 20
715.778409
 10
-1145.291465
 20
715.778409
 42
0.198912
 10
-1145.238432
 20
715.800376
 10
-1138.084574
 20
722.954234
 42
0.414214
 10
-1138.084574
 20
723.0603
  0
LWPOLYLINE
  5
161
100
AcDbEntity
  8
TEXT
 62
     1
100
AcDbPolyline
 90
       12
 70
     1
 43
1.95
 10
-1143.11932
 20
729.367838
 42
1.0
 10
-1144.498178
 20
727.98898
 10
-1141.584752
 20
725.075555
 42
-0.414214
 10
-1141.584752
 20
720.93898
 10
-1144.838611
 20
717.685122
 42
-0.198912
 10
-1146.906898
 20
716.828409
 10
-1149.733749
 20
716.828409
 42
1.0
 10
-1149.733749
 20
714.878409
 10
-1145.291465
 20
714.878409
 42
0.198912
 10
-1144.602036
 20
715.16398
 10
-1137.448178
 20
722.317838
 42
0.414214
 10
-1137.448178
 20
723.696696
  0
LINE
  5
162
100
AcDbEntity
  8
RAM
100
AcDbLine
 10
-1229.500006
 20
745.27103
 30
0.0
 11
-1229.500006
 21
767.77103
 31
0.0
  0
LINE
  5
163
100
AcDbEntity
  8
RAM
100
AcDbLine
 10
-825.625006
 20
42.499996
 30
0.0
 11
-825.625006
 21
745.27103
 31
0.0
  0
LINE
  5
164
100
AcDbEntity
  8
RAM
100
AcDbLine
 10
-1011.250006
 20
64.999996
 30
0.0
 11
-825.625006
 21
64.999996
 31
0.0
  0
TEXT
  5
165
100
AcDbEntity
  8
RAMTEXT
 62
     6
100
AcDbText
 10
-982.145133
 20
49.249975
 30
0.0
 40
7.659798
  1
4-2539
 41
0.8
  7
ROMANS
100
AcDbText
  0
TEXT
  5
166
100
AcDbEntity
  8
RAMTEXT
 62
     6
100
AcDbText
 10
-1054.000006
 20
91.999996
 30
0.0
 40
4.05
  1
Skala
 41
0.8
  7
ROMANS
100
AcDbText
  0
TEXT
  5
167
100
AcDbEntity
  8
RAMTEXT
 62
     6
100
AcDbText
 10
-1092.250006
 20
91.999996
 30
0.0
 40
4.05
  1
Godk.
 41
0.8
  7
ROMANS
100
AcDbText
  0
LINE
  5
168
100
AcDbEntity
  8
RAM
100
AcDbLine
 10
-1095.625006
 20
98.749996
 30
0.0
 11
-1095.625006
 21
80.749996
 31
0.0
  0
LINE
  5
169
100
AcDbEntity
  8
RAM
100
AcDbLine
 10
-1056.250006
 20
98.749996
 30
0.0
 11
-1056.250006
 21
80.749996
 31
0.0
  0
TEXT
  5
16A
100
AcDbEntity
  8
RAMTEXT
 62
     6
100
AcDbText
 10
-1009.000006
 20
91.999996
 30
0.0
 40
4.05
  1
Ersätter
 41
0.8
  7
ROMANS
100
AcDbText
  0
TEXT
  5
16B
100
AcDbEntity
  8
RAMTEXT
 62
     6
100
AcDbText
 10
-1009.000006
 20
58.249996
 30
0.0
 40
4.05
  1
Ritn.-nr
 41
0.8
  7
ROMANS
100
AcDbText
  0
LINE
  5
16C
100
AcDbEntity
  8
RAM
100
AcDbLine
 10
-1011.250006
 20
98.749996
 30
0.0
 11
-1011.250006
 21
42.499996
 31
0.0
  0
TEXT
  5
16D
100
AcDbEntity
  8
RAMTEXT
 62
     6
100
AcDbText
 10
-1009.000006
 20
73.999996
 30
0.0
 40
4.05
  1
Regist.nr
 41
0.8
  7
ROMANS
100
AcDbText
  0
TEXT
  5
16E
100
AcDbEntity
  8
RAMTEXT
 62
     6
100
AcDbText
 10
-941.647465
 20
69.609599
 30
0.0
 40
5.892152
  1
99-12-16
 41
0.8
  7
ROMANS
100
AcDbText
  0
TEXT
  5
16F
100
AcDbEntity
  8
RAMTEXT
 62
     6
100
AcDbText
 10
-957.250006
 20
91.999996
 30
0.0
 40
4.05
  1
Ersatt av
 41
0.8
  7
ROMANS
100
AcDbText
  0
TEXT
  5
170
100
AcDbEntity
  8
RAMTEXT
 62
     6
100
AcDbText
 10
-957.250006
 20
73.999996
 30
0.0
 40
4.05
  1
Dat.
 41
0.8
  7
ROMANS
100
AcDbText
  0
LINE
  5
171
100
AcDbEntity
  8
RAM
100
AcDbLine
 10
-960.625006
 20
98.749996
 30
0.0
 11
-960.625006
 21
64.999996
 31
0.0
  0
TEXT
  5
172
100
AcDbEntity
  8
RAMTEXT
 62
     6
100
AcDbText
 10
-1092.027802
 20
257.709225
 30
0.0
 40
6.696
  1
av värmestrålning genom glasrutor.
 41
0.8
  7
ROMANS
100
AcDbText
  0
LINE
  5
173
100
AcDbEntity
  8
RAM
100
AcDbLine
 10
-797.500006
 20
375.374996
 30
0.0
 11
-825.625006
 21
375.374996
 31
0.0
  0
CIRCLE
  5
174
100
AcDbEntity
  8
TEXT
 62
     1
100
AcDbCircle
 10
-1106.680933
 20
734.611693
 30
0.0
 40
1.531699
  0
LINE
  5
175
100
AcDbEntity
  8
RAM
100
AcDbLine
 10
-1015.750006
 20
745.27103
 30
0.0
 11
-1015.750006
 21
767.77103
 31
0.0
  0
ENDSEC
  0
SECTION
  2
OBJECTS
  0
DICTIONARY
  5
1A
100
AcDbDictionary
  3
ACAD_GROUP
350
18
  3
ACAD_LAYOUT
350
92
  3
ACAD_MLINESTYLE
350
19
  3
ACAD_PLOTSETTINGS
350
93
  3
ACAD_PLOTSTYLENAME
350
90
  3
ACDBHEADERROUNDTRIPXREC
350
179
  0
DICTIONARY
  5
177
100
AcDbDictionary
280
     1
  3
ACAD_XREC_ROUNDTRIP
360
178
  0
DICTIONARY
  5
19D
100
AcDbDictionary
280
     1
  3
ACAD_XREC_ROUNDTRIP
360
19E
  0
DICTIONARY
  5
199
100
AcDbDictionary
280
     1
  3
ACAD_LAYOUTSELFREF
360
19A
  0
DICTIONARY
  5
19B
100
AcDbDictionary
280
     1
  3
ACAD_LAYOUTSELFREF
360
19C
  0
DICTIONARY
  5
18
102
{ACAD_REACTORS
330
1A
102
}
100
AcDbDictionary
  0
DICTIONARY
  5
92
102
{ACAD_XDICTIONARY
360
19F
102
}
102
{ACAD_REACTORS
330
1A
102
}
100
AcDbDictionary
  3
LAYOUT1
350
95
  3
MODEL
350
94
  0
DICTIONARY
  5
19
102
{ACAD_REACTORS
330
1A
102
}
100
AcDbDictionary
  3
STANDARD
350
1D
  0
DICTIONARY
  5
93
102
{ACAD_REACTORS
330
1A
102
}
100
AcDbDictionary
  0
ACAD_PROXY_OBJECT
  5
90
102
{ACAD_REACTORS
330
1A
102
}
100
AcDbProxyObject
 90
      499
 91
      503
 93
       86
310
405010041939BDC9B585B0
350
91
340
91
 94
        0
  0
DICTIONARY
  5
179
102
{ACAD_REACTORS
330
1A
102
}
100
AcDbDictionary
  3
CEPSNTYPE
350
183
  3
FINGERPRINTGUID
350
184
  3
HYPERLINKBASE
350
17C
  3
INSUNITS
350
182
  3
LAYOUTDICT
350
17E
  3
LWETCUNION
350
181
  3
PLOTSETDICT
350
17F
  3
PLOTSTYLNAMDICT
350
180
  3
PSVPSCALE
350
186
  3
PUCSBASE
350
189
  3
PUCSORGBACK
350
18F
  3
PUCSORGBOTTOM
350
18B
  3
PUCSORGFRONT
350
18E
  3
PUCSORGLEFT
350
18C
  3
PUCSORGRIGHT
350
18D
  3
PUCSORGTOP
350
18A
  3
PUCSORTHOREF
350
187
  3
PUCSORTHOVIEW
350
188
  3
STYLESHEET
350
17D
  3
TSTACKALIGN
350
17A
  3
TSTACKSIZE
350
17B
  3
UCSBASE
350
192
  3
UCSORGBACK
350
198
  3
UCSORGBOTTOM
350
194
  3
UCSORGFRONT
350
197
  3
UCSORGLEFT
350
195
  3
UCSORGRIGHT
350
196
  3
UCSORGTOP
350
193
  3
UCSORTHOREF
350
190
  3
UCSORTHOVIEW
350
191
  3
VERSIONGUID
350
185
  0
XRECORD
  5
178
102
{ACAD_REACTORS
330
177
102
}
100
AcDbXrecord
102
EXTNAMES
  1
*ACTIVE
  2
*Active
102
UCS
 74
     0
 71
     1
 10
0.0
 20
0.0
 30
0.0
 10
1.0
 20
0.0
 30
0.0
 10
0.0
 20
1.0
 30
0.0
146
0.0
 79
     0
102
VIEW
281
     0
  0
XRECORD
  5
19E
102
{ACAD_REACTORS
330
19D
102
}
100
AcDbXrecord
102
ACADR14ROUNDTRIP
1000
DSTYLE
1002
{
1070
   279
 70
     2
1002
}
  0
XRECORD
  5
19A
102
{ACAD_REACTORS
330
199
102
}
100
AcDbXrecord
340
2
  0
XRECORD
  5
19C
102
{ACAD_REACTORS
330
19B
102
}
100
AcDbXrecord
340
7
  0
DICTIONARY
  5
19F
100
AcDbDictionary
280
     1
  3
ACAD_XREC_ROUNDTRIP
360
1A0
  0
ACAD_PROXY_OBJECT
  5
95
102
{ACAD_REACTORS
330
92
102
}
100
AcDbProxyObject
 90
      499
 91
      505
 93
     1092
310
91D4850204C617365724A65742034562F344D5620506F73745363726970742C00AAAAAA416AA591069074C61796F75743140501A800000000000000000000000000000000000000000101E900000000000241C902A6A6A10232D5E076BC5510408CB5781DAF154410232D5E076BC5510408CB5781DAF15C410232D5E076BC5
310
710408CB5781DAF15C40
330
7
330
0
340
0
340
0
 94
        0
  0
ACAD_PROXY_OBJECT
  5
94
102
{ACAD_REACTORS
330
92
102
}
100
AcDbProxyObject
 90
      499
 91
      505
 93
      668
310
91D4850204C617365724A65742034562F344D5620506F73745363726970742C01AAAAAAAAA5A69054D6F64656C901A800000000000000000000000000000000000000000000A1000000000000008902A6A6AAAA1
330
2
330
0
340
0
340
0
 94
        0
  0
MLINESTYLE
  5
1D
102
{ACAD_REACTORS
330
19
102
}
100
AcDbMlineStyle
  2
STANDARD
 70
     0
  3

 62
     0
 51
90.0
 52
90.0
 71
     2
 49
0.5
 62
   256
  6
BYLAYER
 49
-0.5
 62
   256
  6
BYLAYER
  0
ACAD_PROXY_OBJECT
  5
91
102
{ACAD_REACTORS
330
90
102
}
100
AcDbProxyObject
 90
      499
 91
      504
 93
        0
 94
        0
  0
XRECORD
  5
183
102
{ACAD_REACTORS
330
179
102
}
100
AcDbXrecord
 90
        0
  0
XRECORD
  5
184
102
{ACAD_REACTORS
330
179
102
}
100
AcDbXrecord
  1
{DCFA0898-0BE8-11D6-AA0B-00D0B7E2A69D}
  0
XRECORD
  5
17C
102
{ACAD_REACTORS
330
179
102
}
100
AcDbXrecord
  1

  0
XRECORD
  5
182
102
{ACAD_REACTORS
330
179
102
}
100
AcDbXrecord
 90
        0
  0
XRECORD
  5
17E
102
{ACAD_REACTORS
330
179
102
}
100
AcDbXrecord
340
92
  0
XRECORD
  5
181
102
{ACAD_REACTORS
330
179
102
}
100
AcDbXrecord
 90
    14877
  0
XRECORD
  5
17F
102
{ACAD_REACTORS
330
179
102
}
100
AcDbXrecord
340
93
  0
XRECORD
  5
180
102
{ACAD_REACTORS
330
179
102
}
100
AcDbXrecord
340
90
  0
XRECORD
  5
186
102
{ACAD_REACTORS
330
179
102
}
100
AcDbXrecord
 40
0.0
  0
XRECORD
  5
189
102
{ACAD_REACTORS
330
179
102
}
100
AcDbXrecord
340
0
  0
XRECORD
  5
18F
102
{ACAD_REACTORS
330
179
102
}
100
AcDbXrecord
 10
0.0
 20
0.0
 30
0.0
  0
XRECORD
  5
18B
102
{ACAD_REACTORS
330
179
102
}
100
AcDbXrecord
 10
0.0
 20
0.0
 30
0.0
  0
XRECORD
  5
18E
102
{ACAD_REACTORS
330
179
102
}
100
AcDbXrecord
 10
0.0
 20
0.0
 30
0.0
  0
XRECORD
  5
18C
102
{ACAD_REACTORS
330
179
102
}
100
AcDbXrecord
 10
0.0
 20
0.0
 30
0.0
  0
XRECORD
  5
18D
102
{ACAD_REACTORS
330
179
102
}
100
AcDbXrecord
 10
0.0
 20
0.0
 30
0.0
  0
XRECORD
  5
18A
102
{ACAD_REACTORS
330
179
102
}
100
AcDbXrecord
 10
0.0
 20
0.0
 30
0.0
  0
XRECORD
  5
187
102
{ACAD_REACTORS
330
179
102
}
100
AcDbXrecord
340
0
  0
XRECORD
  5
188
102
{ACAD_REACTORS
330
179
102
}
100
AcDbXrecord
 70
     0
  0
XRECORD
  5
17D
102
{ACAD_REACTORS
330
179
102
}
100
AcDbXrecord
  1

  0
XRECORD
  5
17A
102
{ACAD_REACTORS
330
179
102
}
100
AcDbXrecord
 90
        1
  0
XRECORD
  5
17B
102
{ACAD_REACTORS
330
179
102
}
100
AcDbXrecord
 90
       70
  0
XRECORD
  5
192
102
{ACAD_REACTORS
330
179
102
}
100
AcDbXrecord
340
0
  0
XRECORD
  5
198
102
{ACAD_REACTORS
330
179
102
}
100
AcDbXrecord
 10
0.0
 20
0.0
 30
0.0
  0
XRECORD
  5
194
102
{ACAD_REACTORS
330
179
102
}
100
AcDbXrecord
 10
0.0
 20
0.0
 30
0.0
  0
XRECORD
  5
197
102
{ACAD_REACTORS
330
179
102
}
100
AcDbXrecord
 10
0.0
 20
0.0
 30
0.0
  0
XRECORD
  5
195
102
{ACAD_REACTORS
330
179
102
}
100
AcDbXrecord
 10
0.0
 20
0.0
 30
0.0
  0
XRECORD
  5
196
102
{ACAD_REACTORS
330
179
102
}
100
AcDbXrecord
 10
0.0
 20
0.0
 30
0.0
  0
XRECORD
  5
193
102
{ACAD_REACTORS
330
179
102
}
100
AcDbXrecord
 10
0.0
 20
0.0
 30
0.0
  0
XRECORD
  5
190
102
{ACAD_REACTORS
330
179
102
}
100
AcDbXrecord
340
0
  0
XRECORD
  5
191
102
{ACAD_REACTORS
330
179
102
}
100
AcDbXrecord
 70
     0
  0
XRECORD
  5
185
102
{ACAD_REACTORS
330
179
102
}
100
AcDbXrecord
  1
{DCFA08A8-0BE8-11D6-AA0B-00D0B7E2A69D}
  0
XRECORD
  5
1A0
102
{ACAD_REACTORS
330
19F
102
}
100
AcDbXrecord
102
EXTNAMES
  1
LAYOUT1
  2
Layout1
  1
MODEL
  2
Model
  0
ENDSEC
  0
EOF
