  0
SECTION
  2
HEADER
  9
$ACADVER
  1
AC1014
  9
$ACADMAINTVER
 70
     0
  9
$DWGCODEPAGE
  3
ANSI_1252
  9
$INSBASE
 10
85.0
 20
570.0
 30
0.0
  9
$EXTMIN
 10
-455.0
 20
571.0
 30
0.0
  9
$EXTMAX
 10
75.590476
 20
1327.5
 30
0.0
  9
$LIMMIN
 10
0.0
 20
0.0
  9
$LIMMAX
 10
420.0
 20
297.0
  9
$ORTHOMODE
 70
     0
  9
$REGENMODE
 70
     1
  9
$FILLMODE
 70
     1
  9
$QTEXTMODE
 70
     0
  9
$MIRRTEXT
 70
     1
  9
$DRAGMODE
 70
     2
  9
$LTSCALE
 40
25.0
  9
$OSMODE
 70
   547
  9
$ATTMODE
 70
     1
  9
$TEXTSIZE
 40
5.0
  9
$TRACEWID
 40
0.05
  9
$TEXTSTYLE
  7
ARIALBOLD
  9
$CLAYER
  8
DIMENSION
  9
$CELTYPE
  6
BYLAYER
  9
$CECOLOR
 62
   256
  9
$CELTSCALE
 40
1.0
  9
$DELOBJ
 70
     1
  9
$DISPSILH
 70
     0
  9
$DIMSCALE
 40
0.0
  9
$DIMASZ
 40
3.0
  9
$DIMEXO
 40
1.0
  9
$DIMDLI
 40
10.0
  9
$DIMRND
 40
0.0
  9
$DIMDLE
 40
0.0
  9
$DIMEXE
 40
2.0
  9
$DIMTP
 40
0.0
  9
$DIMTM
 40
0.0
  9
$DIMTXT
 40
4.5
  9
$DIMCEN
 40
2.5
  9
$DIMTSZ
 40
0.0
  9
$DIMTOL
 70
     0
  9
$DIMLIM
 70
     0
  9
$DIMTIH
 70
     0
  9
$DIMTOH
 70
     0
  9
$DIMSE1
 70
     0
  9
$DIMSE2
 70
     0
  9
$DIMTAD
 70
     1
  9
$DIMZIN
 70
     8
  9
$DIMBLK
  1

  9
$DIMASO
 70
     1
  9
$DIMSHO
 70
     1
  9
$DIMPOST
  1

  9
$DIMAPOST
  1

  9
$DIMALT
 70
     0
  9
$DIMALTD
 70
     2
  9
$DIMALTF
 40
25.4
  9
$DIMLFAC
 40
1.0
  9
$DIMTOFL
 70
     1
  9
$DIMTVP
 40
0.0
  9
$DIMTIX
 70
     0
  9
$DIMSOXD
 70
     0
  9
$DIMSAH
 70
     0
  9
$DIMBLK1
  1

  9
$DIMBLK2
  1

  9
$DIMSTYLE
  2
ACADUS
  9
$DIMCLRD
 70
     0
  9
$DIMCLRE
 70
     0
  9
$DIMCLRT
 70
     6
  9
$DIMTFAC
 40
1.0
  9
$DIMGAP
 40
1.5
  9
$DIMJUST
 70
     0
  9
$DIMSD1
 70
     0
  9
$DIMSD2
 70
     0
  9
$DIMTOLJ
 70
     1
  9
$DIMTZIN
 70
     8
  9
$DIMALTZ
 70
     8
  9
$DIMALTTZ
 70
     8
  9
$DIMFIT
 70
     5
  9
$DIMUPT
 70
     0
  9
$DIMUNIT
 70
     2
  9
$DIMDEC
 70
     3
  9
$DIMTDEC
 70
     3
  9
$DIMALTU
 70
     2
  9
$DIMALTTD
 70
     2
  9
$DIMTXSTY
  7
ROMANS
  9
$DIMAUNIT
 70
     0
  9
$LUNITS
 70
     2
  9
$LUPREC
 70
     3
  9
$SKETCHINC
 40
0.1
  9
$FILLETRAD
 40
10.0
  9
$AUNITS
 70
     0
  9
$AUPREC
 70
     4
  9
$MENU
  1
acad
  9
$ELEVATION
 40
0.0
  9
$PELEVATION
 40
0.0
  9
$THICKNESS
 40
0.0
  9
$LIMCHECK
 70
     0
  9
$BLIPMODE
 70
     0
  9
$CHAMFERA
 40
10.0
  9
$CHAMFERB
 40
10.0
  9
$CHAMFERC
 40
0.0
  9
$CHAMFERD
 40
0.0
  9
$SKPOLY
 70
     0
  9
$TDCREATE
 40
2450331.418237847
  9
$TDUPDATE
 40
2452293.457162500
  9
$TDINDWG
 40
6.6378774306
  9
$TDUSRTIMER
 40
6.6378774306
  9
$USRTIMER
 70
     1
  9
$ANGBASE
 50
0.0
  9
$ANGDIR
 70
     0
  9
$PDMODE
 70
    35
  9
$PDSIZE
 40
0.0
  9
$PLINEWID
 40
0.0
  9
$COORDS
 70
     1
  9
$SPLFRAME
 70
     0
  9
$SPLINETYPE
 70
     6
  9
$SPLINESEGS
 70
     8
  9
$ATTDIA
 70
     0
  9
$ATTREQ
 70
     1
  9
$HANDLING
 70
     1
  9
$HANDSEED
  5
427
  9
$SURFTAB1
 70
     6
  9
$SURFTAB2
 70
     6
  9
$SURFTYPE
 70
     6
  9
$SURFU
 70
     6
  9
$SURFV
 70
     6
  9
$UCSNAME
  2

  9
$UCSORG
 10
0.0
 20
0.0
 30
0.0
  9
$UCSXDIR
 10
1.0
 20
0.0
 30
0.0
  9
$UCSYDIR
 10
0.0
 20
1.0
 30
0.0
  9
$PUCSNAME
  2

  9
$PUCSORG
 10
0.0
 20
0.0
 30
0.0
  9
$PUCSXDIR
 10
1.0
 20
0.0
 30
0.0
  9
$PUCSYDIR
 10
0.0
 20
1.0
 30
0.0
  9
$USERI1
 70
     0
  9
$USERI2
 70
     0
  9
$USERI3
 70
     0
  9
$USERI4
 70
     0
  9
$USERI5
 70
     0
  9
$USERR1
 40
0.0
  9
$USERR2
 40
0.0
  9
$USERR3
 40
0.0
  9
$USERR4
 40
0.0
  9
$USERR5
 40
0.0
  9
$WORLDVIEW
 70
     1
  9
$SHADEDGE
 70
     3
  9
$SHADEDIF
 70
    70
  9
$TILEMODE
 70
     1
  9
$MAXACTVP
 70
    16
  9
$PINSBASE
 10
0.0
 20
0.0
 30
0.0
  9
$PLIMCHECK
 70
     0
  9
$PEXTMIN
 10
1.000000E+20
 20
1.000000E+20
 30
1.000000E+20
  9
$PEXTMAX
 10
-1.000000E+20
 20
-1.000000E+20
 30
-1.000000E+20
  9
$PLIMMIN
 10
0.0
 20
0.0
  9
$PLIMMAX
 10
420.0
 20
297.0
  9
$UNITMODE
 70
     0
  9
$VISRETAIN
 70
     0
  9
$PLINEGEN
 70
     0
  9
$PSLTSCALE
 70
     1
  9
$TREEDEPTH
 70
  3020
  9
$PICKSTYLE
 70
     1
  9
$CMLSTYLE
  2
STANDARD
  9
$CMLJUST
 70
     0
  9
$CMLSCALE
 40
1.0
  9
$PROXYGRAPHICS
 70
     1
  9
$MEASUREMENT
 70
     0
  0
ENDSEC
  0
SECTION
  2
CLASSES
  0
CLASS
  1
DICTIONARYVAR
  2
AcDbDictionaryVar
  3
"AutoCAD"
 90
        0
280
     0
281
     0
  0
CLASS
  1
LWPOLYLINE
  2
AcDbPolyline
  3
"AutoCAD"
 90
        0
280
     0
281
     1
  0
CLASS
  1
HATCH
  2
AcDbHatch
  3
"ACAD_SEDONA"
 90
        0
280
     0
281
     1
  0
CLASS
  1
ACDBDICTIONARYWDFLT
  2
AcDbDictionaryWithDefault
  3
AutoCAD 2000
 90
        0
280
     0
281
     0
  0
CLASS
  1
ACDBPLACEHOLDER
  2
AcDbPlaceHolder
  3
AutoCAD 2000
 90
        0
280
     0
281
     0
  0
CLASS
  1
LAYOUT
  2
AcDbLayout
  3
AutoCAD 2000
 90
        0
280
     0
281
     0
  0
CLASS
  1
LONG_TRANSACTION
  2
AcDbLongTransaction
  3
AutoCAD 2000
 90
        0
280
     0
281
     0
  0
CLASS
  1
LWPOLYLINE
  2
AcDbPolyline
  3
"AutoCAD"
 90
        0
280
     0
281
     1
  0
CLASS
  1
HATCH
  2
AcDbHatch
  3
"ACAD_SEDONA"
 90
        0
280
     0
281
     1
  0
CLASS
  1
XRECORD
  2
AcDbXrecord
  3
"<Built In>"
 90
        0
280
     0
281
     0
  0
ENDSEC
  0
SECTION
  2
TABLES
  0
TABLE
  2
VPORT
  5
12
100
AcDbSymbolTable
 70
     1
  0
VPORT
  5
3ED
102
{ACAD_XDICTIONARY
360
3EE
102
}
100
AcDbSymbolTableRecord
100
AcDbViewportTableRecord
  2
*ACTIVE
 70
     0
 10
0.0
 20
0.0
 11
1.0
 21
1.0
 12
-104.708186
 22
983.503396
 13
0.0
 23
0.0
 14
5.0
 24
5.0
 15
10.0
 25
10.0
 16
0.0
 26
0.0
 36
1.0
 17
0.0
 27
0.0
 37
0.0
 40
869.08301
 41
1.630435
 42
50.0
 43
0.0
 44
0.0
 50
0.0
 51
0.0
 71
     0
 72
   100
 73
     1
 74
     1
 75
     1
 76
     0
 77
     0
 78
     0
  0
ENDTAB
  0
TABLE
  2
LTYPE
  5
D
100
AcDbSymbolTable
 70
     1
  0
LTYPE
  5
E
100
AcDbSymbolTableRecord
100
AcDbLinetypeTableRecord
  2
BYBLOCK
 70
     0
  3

 72
    65
 73
     0
 40
0.0
  0
LTYPE
  5
F
100
AcDbSymbolTableRecord
100
AcDbLinetypeTableRecord
  2
BYLAYER
 70
     0
  3

 72
    65
 73
     0
 40
0.0
  0
LTYPE
  5
5
100
AcDbSymbolTableRecord
100
AcDbLinetypeTableRecord
  2
CONTINUOUS
 70
     0
  3
Solid line
 72
    65
 73
     0
 40
0.0
  0
ENDTAB
  0
TABLE
  2
LAYER
  5
A
100
AcDbSymbolTable
 70
     6
  0
LAYER
  5
4
100
AcDbSymbolTableRecord
100
AcDbLayerTableRecord
  2
0
 70
     0
 62
     7
  6
CONTINUOUS
  0
LAYER
  5
29
100
AcDbSymbolTableRecord
100
AcDbLayerTableRecord
  2
STALPROFIL
 70
     0
 62
     1
  6
CONTINUOUS
  0
LAYER
  5
27
100
AcDbSymbolTableRecord
100
AcDbLayerTableRecord
  2
SPKONTUR
 70
     0
 62
     7
  6
CONTINUOUS
  0
LAYER
  5
24
100
AcDbSymbolTableRecord
100
AcDbLayerTableRecord
  2
GLAS_MED_FOGNING
 70
     0
 62
     2
  6
CONTINUOUS
  0
LAYER
  5
21
100
AcDbSymbolTableRecord
100
AcDbLayerTableRecord
  2
TEXT
 70
     0
 62
     6
  6
CONTINUOUS
  0
LAYER
  5
1B
100
AcDbSymbolTableRecord
100
AcDbLayerTableRecord
  2
DIMENSION
 70
     0
 62
     2
  6
CONTINUOUS
  0
ENDTAB
  0
TABLE
  2
STYLE
  5
B
100
AcDbSymbolTable
 70
     3
  0
STYLE
  5
C
100
AcDbSymbolTableRecord
100
AcDbTextStyleTableRecord
  2
STANDARD
 70
     0
 40
0.0
 41
1.0
 50
0.0
 71
     0
 42
5.0
  3
txt
  4

  0
STYLE
  5
1C
100
AcDbSymbolTableRecord
100
AcDbTextStyleTableRecord
  2
ROMANS
 70
     0
 40
0.0
 41
0.8
 50
0.0
 71
     0
 42
5.0
  3
romans
  4

  0
STYLE
  5
1D
100
AcDbSymbolTableRecord
100
AcDbTextStyleTableRecord
  2
ARIALBOLD
 70
     0
 40
0.0
 41
1.0
 50
0.0
 71
     0
 42
5.0
  3
arlrdbd.ttf
  4

1001
ACAD
1000
Arial Rounded MT Bold
1071
 33554466
  0
ENDTAB
  0
TABLE
  2
VIEW
  5
10
100
AcDbSymbolTable
 70
     0
  0
ENDTAB
  0
TABLE
  2
UCS
  5
11
100
AcDbSymbolTable
 70
     0
  0
ENDTAB
  0
TABLE
  2
APPID
  5
14
100
AcDbSymbolTable
 70
     2
  0
APPID
  5
15
100
AcDbSymbolTableRecord
100
AcDbRegAppTableRecord
  2
ACAD
 70
     0
  0
APPID
  5
B0
100
AcDbSymbolTableRecord
100
AcDbRegAppTableRecord
  2
CONTENTBLOCKICON
 70
     0
  0
ENDTAB
  0
TABLE
  2
DIMSTYLE
  5
16
100
AcDbSymbolTable
 70
     1
  0
DIMSTYLE
105
1F
102
{ACAD_XDICTIONARY
360
415
102
}
100
AcDbSymbolTableRecord
100
AcDbDimStyleTableRecord
  2
ACADUS
 70
     0
  3

  4

  5

  6

  7

 40
1.0
 41
0.18
 42
0.0625
 43
0.38
 44
0.18
 45
0.0
 46
0.0
 47
0.0
 48
0.0
140
0.18
141
0.09
142
0.0
143
25.4
144
1.0
145
0.0
146
1.0
147
0.09
 71
     0
 72
     0
 73
     1
 74
     1
 75
     0
 76
     0
 77
     0
 78
     0
170
     0
171
     2
172
     0
173
     0
174
     0
175
     0
176
     0
177
     0
178
     0
270
     2
271
     3
272
     3
273
     2
274
     2
340
1C
275
     0
280
     0
281
     0
282
     0
283
     1
284
     8
285
     8
286
     8
287
     5
288
     0
  0
ENDTAB
  0
TABLE
  2
BLOCK_RECORD
  5
1
100
AcDbSymbolTable
 70
    15
  0
BLOCK_RECORD
  5
2
102
{ACAD_XDICTIONARY
360
411
102
}
100
AcDbSymbolTableRecord
100
AcDbBlockTableRecord
  2
*MODEL_SPACE
  0
BLOCK_RECORD
  5
7
102
{ACAD_XDICTIONARY
360
413
102
}
100
AcDbSymbolTableRecord
100
AcDbBlockTableRecord
  2
*PAPER_SPACE
  0
BLOCK_RECORD
  5
26B
100
AcDbSymbolTableRecord
100
AcDbBlockTableRecord
  2
*X0
  0
BLOCK_RECORD
  5
1D6
100
AcDbSymbolTableRecord
100
AcDbBlockTableRecord
  2
*X1
  0
BLOCK_RECORD
  5
143
100
AcDbSymbolTableRecord
100
AcDbBlockTableRecord
  2
*X2
  0
BLOCK_RECORD
  5
B4
100
AcDbSymbolTableRecord
100
AcDbBlockTableRecord
  2
*X3
  0
BLOCK_RECORD
  5
35C
100
AcDbSymbolTableRecord
100
AcDbBlockTableRecord
  2
*X4
  0
BLOCK_RECORD
  5
2D
100
AcDbSymbolTableRecord
100
AcDbBlockTableRecord
  2
*X5
  0
BLOCK_RECORD
  5
25
100
AcDbSymbolTableRecord
100
AcDbBlockTableRecord
  2
58022
1001
CONTENTBLOCKICON
1071
        0
1004
2800000020000000200000000100040000000000000200000000000000000000000000000000000000000000000080000080000000808000800000008000800080800000C0C0C000808080000000FF0000FF000000FFFF00FF000000FF00FF00FFFF0000FFFFFF00FF00FFFFFFFFFFFFFFFFFFFFFFFFFFFFFF90FFFFFFFFFF
1004
FFFFFFFFFFFFFFFFFFFF90FFFFFFFFFFFFFFFFFFFFFFFFFFFFFF90FFFFFFFFFFFFFFFFFFFFFFFFFFFFFF90FFFFFFFFFFFFFFFFFFFFFFFFFFFFFF90FFFFFFFFFFFFFFFFFFFFFFFFFFFFFF90FFFFFFFFFFFFFFFFFFFFFFFFFFFFFF900000000000000000BBB0000000FFFF99999999999999999BBBB999999FFFFF9FFFFFFFFF
1004
FFFFFFFBBBB0FFFFF0FFFF9FFFFFFFFFFFFFFFFBBBB0FFFFF0FFFF9FFFFFFFFFFFFFFFFBBBB0FFFFF0FFFF9FFFFFFFFFFFFFFFFBBBB0FFFFF0FFFF9FFFFFFFFFFFFFFFFBBBB0FFFFF0FFFF9FFFFFFFFFFFFFFFFBBBB0FFFFF0FFFF9FFFFFFFFFFFFFFFFBBBB0FFFFF0FFFF9FFFFFFFFFFFFFFFFBBBB0FFFFF0FFFF9FFFFFFF
1004
FFFFFFFFFBBBB0FFFFF0FFFF9FFFFFFFFFFFFFFFFBBBB0FFFFF0FFFF9FFFFFFFFFFFFFFFFBBBB0FFFFF0FFFF9FFFFFFFFFFFFFFFFBBBB0FFFFF0FFFF9FFFFFFFFFFFFFFFFBBBB0FFFFF0FFFF9FFFFFFFFFFFFFFFFBBBB0FFFFF0FFFF9FFFFFFFFFFFFFFFFBBBBBFFFFF0FFFF99999999999999999BBBBB999990FFFF90FFFF
1004
FFFFFFFFFFFFFFFFFFFFFFFFFF90FFFFFFFFFFFFFFFFFFFFFFFFFFFFFF90FFFFFFFFFFFFFFFFFFFFFFFFFFFFFF90FFFFFFFFFFFFFFFFFFFFFFFFFFFFFF90FFFFFFFFFFFFFFFFFFFFFFFFFFFFFF90FFFFFFFFFFFFFFFFFFFFFFFFFFFFFF90FFFFFFFFFFFFFFFFFFFFFFFFFFFF44FECB000C00CB00FC6FCC00
  0
BLOCK_RECORD
  5
25C
100
AcDbSymbolTableRecord
100
AcDbBlockTableRecord
  2
SP58011
1001
CONTENTBLOCKICON
1071
        0
1004
2800000020000000200000000100040000000000000200000000000000000000000000000000000000000000000080000080000000808000800000008000800080800000C0C0C000808080000000FF0000FF000000FFFF00FF000000FF00FF00FFFF0000FFFFFF00FF0F00000000000000000000000000FFFF999999999999
1004
999999999999999FFFFFF99999990FFFFFFFFFFFFFFFFF90FFFFFFFFFFFF0FFFFFFFFFFFFFFFFF90FFFFFFFFFFFF0FFFFFFFFFFFFFFFFF90FFFFFFFFFFFF0FFFFFFFFFFFFFFFFF90FFFFFFFFFFFF0FFFFFFFFFFFFFFFFF90FFFFFFFFFFFF0FFFFFFFFFFFFFFFFF90FFFFFFFFFFFF0FFFFFFFFFFFFFFFFF90FFFFFFFFFFFF0F
1004
FFFFFFFFFFFFFFFF90FFFFFFFFFFFF0FFFFFFFFFFFFFFFFF90FFFFFFFFFFFF0FFFFFFFFFFFFFFFFF90FFFFFFFFFFFF0FFFFFFFFFFFFFFFFF90FFFFFFFFFFFF0FFFFFFFFFFFFFFFFF90FFFFFFFFFFFF0FFFFFFFFFFFFFFFFF90FFFFFFFFFFFF0FFFFFFFFFFFFFFFFF90FFFFFFFFFFFF0FFFFFFFFFFFFFFFFF90FFFFFFFFFFFF
1004
0FFFFFFFFFFFFFFFFF90FFFFFFFFFFFF0FFFFFFFFFFFFFFFFF90FFFFFFFFFFFFBBBBBBBBBBBBBBBBBBBBFFFFFFFFFFFFBBBBBBBBBBBBBBBBBBBBFFFFFFFFFFFFBBBBBBBBBBBBBBBBBBBBFFFFFFFFFFFFBBBBBBBBBBBBBBBBBBBBFFFFFFFFFFFF00000000000000000000FFFFFFFFFFFF9999999999999999999FFFFFFFFFFF
1004
FF0000FFFFFFFFFFFFFF90FFFFFFFFFFFF90F9FFFFFFFFFFFFFF90FFFFFFFFFFFF90F0FFFFFFFFFFFFFF90FFFFFFFFFFFF9090FFFFFFFFFFFFFF90FFFFFFFFFFFFFFF990FFFFFFFFFFFF90FFFFFFFFFFFFFFFFF9FFFFFFFFFFFF90FFFFFFFFFFFFFFFFFF99999999999990FF0000000000000000FC6FCC00
  0
BLOCK_RECORD
  5
352
100
AcDbSymbolTableRecord
100
AcDbBlockTableRecord
  2
SP58012
1001
CONTENTBLOCKICON
1071
        0
1004
2800000020000000200000000100040000000000000200000000000000000000000000000000000000000000000080000080000000808000800000008000800080800000C0C0C000808080000000FF0000FF000000FFFF00FF000000FF00FF00FFFF0000FFFFFF00FFFFFFFFFFFFFFFFFFFFFFFFFFFFFFFFFFFFFFFFFFFFFF
1004
FFFFFFFFFFFFFFFFFF0000000000000000000000000000000000000000999999999999999900000000FFFFFFF0FFFFFFFFFFFFFFF90FFFFFFFFFFFFFF0FFFFFFFFFFFFFFF90FFFFFFFFFFFFFF0FFFFFFFFFFFFFFF90FFFFFFFFFFFFFF0FFFFFFFFFFFFFFF90FFFFFFFFFFFFFF0FFFFFFFFFFFFFFF90FFFFFFFFFFFFFF0FFFF
1004
FFFFFFFFFFF90FFFFFFFFFFFFFF0FFFFFFFFFFFFFFF90FFFFFFFFFFFFFF0FFFFFFFFFFFFFFF90FFFFFFFFFFFFFF0FFFFFFFFFFFFFFF90FFFFFFFFFFFFFF0FFFFFFFFFFFFFFF90FFFFFFFFFFFFFF0FFFFFFFFFFFFFFF90FFFFFFFFFFFFFF0FFFFFFFFFFFFFFF90FFFFFFFFFFFFFF0FFFFFFFFFFFFFFF90FFFFFFFFFFFFFF0FF
1004
FFFFFFFFFFFFF90FFFFFFFFFFFFFF0FFFFFFFFFFFFFFF90FFFFFFFFFFFFFFBBBBBBBBBBBBBBBBB0FFFFFFFFFFFFFFBBBBBBBBBBBBBBBBBBFFFFFFFFFFFFFFBBBBBBBBBBBBBBBBBBFFFFFFFFFFFFFFBBBBBBBBBBBBBBBBBBFFFFFFFFFFFFFF0B0000000000000000FFFFFFFFFFFFFF9FFFFFFFFFFFFFFF90FFFFFFFFFFFFFF9
1004
999FFFFFFFFFFFF90FFFFFFFFFFFFFF90F0FFFFFFFFFFFF90FFFFFFFFFFFFFF909FFFFFFFFFFFFF90FFFFFFFFFFFFFFFFF99FFFFFFFFFFF90FFFFFFFFFFFFFFFFFFF0000000000090FFFFFFFFFFFFFFFFFFFFFFFFFFFFFFFFFFFFFFFFFFFFFFFFFFFFFFFFFFFFFFFFFFFFFFF44FECB000C00CB00FC6FCC00
  0
BLOCK_RECORD
  5
B2
100
AcDbSymbolTableRecord
100
AcDbBlockTableRecord
  2
SP58021
1001
CONTENTBLOCKICON
1071
        0
1004
2800000020000000200000000100040000000000000200000000000000000000000000000000000000000000000080000080000000808000800000008000800080800000C0C0C000808080000000FF0000FF000000FFFF00FF000000FF00FF00FFFF0000FFFFFF00FF0F00000000000000000000000000FFFF999999999999
1004
999999999999999FFFFFF99999999FFFFFFFFFFFFFFFFF90FFFFFFFFFFFF9FFFFFFFFFFFFFFFFF90FFFFFFFFFFFF9FFFFFFFFFFFFFFFFF90FFFFFFFFFFFF9FFFFFFFFFFFFFFFFF90FFFFFFFFFFFF9FFFFFFFFFFFFFFFFF90FFFFFFFFFFFF9FFFFFFFFFFFFFFFFF90FFFFFFFFFFFF9FFFFFFFFFFFFFFFFF90FFFFFFFFFFFF9F
1004
FFFFFFFFFFFFFFFF90FFFFFFFFFFFF9FFFFFFFFFFFFFFFFF90FFFFFFFFFFFF9FFFFFFFFFFFFFFFFF90FFFFFFFFFFFF9FFFFFFFFFFFFFFFFF90FFFFFFFFFFFF9FFFFFFFFFFFFFFFFF90FFFFFFFFFFFF9FFFFFFFFFFFFFFFFF90FFFFFFFFFFFF9FFFFFFFFFFFFFFFFF90FFFFFFFFFFFF9FFFFFFFFFFFFFFFFF90FFFFFFFFFFFF
1004
9FFFFFFFFFFFFFFFFF90FFFFFFFFFFFF9FFFFFFFFFFFFFFFFF90FFFFFFFFFFFFB000000000000000009BFFFFFFFFFFFFBBBBBBBBBBBBBBBBBBBBFFFFFFFFFFFFBBBBBBBBBBBBBBBBBBBBFFFFFFFFFFFFBBBBBBBBBBBBBBBBBBBBFFFFFFFFFFFFBB0000000000000000BBFFFFFFFFFFFF9999999999999999999FFFFFFFFFFF
1004
FF9FFFFFFFFFFFFFFFFF90FFFFFFFFFFFF9FFFFFFFFFFFFFFFFF90FFFFFFFFFFFF9FFFFFFFFFFFFFFFFF90FFFFFFFFFFFF9FFFFFFFFFFFFFFFFF90FFFFFFFFFFFF9FFFFFFFFFFFFFFFFF90FFFFFFFFFFFF9FFFFFFFFFFFFFFFFF90FFFFFFFFFFFF99999999999999999990FF44FECB0000000000FC6FCC00
  0
BLOCK_RECORD
  5
1C9
100
AcDbSymbolTableRecord
100
AcDbBlockTableRecord
  2
SP58022
1001
CONTENTBLOCKICON
1071
        0
1004
2800000020000000200000000100040000000000000200000000000000000000000000000000000000000000000080000080000000808000800000008000800080800000C0C0C000808080000000FF0000FF000000FFFF00FF000000FF00FF00FFFF0000FFFFFF00FFFFFFFFFFFFFFFFFFFFFFFFFFFFFFFFFFFFFFFFFFFFFF
1004
FFFFFFFFFFFFFFFFFF0000000000000000000000000000000099999999999999999999999999999990FFFFFFF9FFFFFFFFFFFFFFF90FFFFFFFFFFFFFF9FFFFFFFFFFFFFFF90FFFFFFFFFFFFFF9FFFFFFFFFFFFFFF90FFFFFFFFFFFFFF9FFFFFFFFFFFFFFF90FFFFFFFFFFFFFF9FFFFFFFFFFFFFFF90FFFFFFFFFFFFFF9FFFF
1004
FFFFFFFFFFF90FFFFFFFFFFFFFF9FFFFFFFFFFFFFFF90FFFFFFFFFFFFFF9FFFFFFFFFFFFFFF90FFFFFFFFFFFFFF9FFFFFFFFFFFFFFF90FFFFFFFFFFFFFF9FFFFFFFFFFFFFFF90FFFFFFFFFFFFFF9FFFFFFFFFFFFFFF90FFFFFFFFFFFFFF9FFFFFFFFFFFFFFF90FFFFFFFFFFFFFF9FFFFFFFFFFFFFFF90FFFFFFFFFFFFFF9FF
1004
FFFFFFFFFFFFF90FFFFFFFFFFFFFF9FFFFFFFFFFFFFFF90FFFFFFFFFFFFFFBBBBBBBBBBBBBBBBB0FFFFFFFFFFFFFFBBBBBBBBBBBBBBBBBBFFFFFFFFFFFFFFBBBBBBBBBBBBBBBBBBFFFFFFFFFFFFFFBBBBBBBBBBBBBBBBBBFFFFFFFFFFFFFFBB0000000000000000FFFFFFFFFFFFFF9FFFFFFFFFFFFFFF90FFFFFFFFFFFFFF9
1004
FFFFFFFFFFFFFFF90FFFFFFFFFFFFFF9FFFFFFFFFFFFFFF90FFFFFFFFFFFFFF9FFFFFFFFFFFFFFF90FFFFFFFFFFFFFF9FFFFFFFFFFFFFFF90FFFFFFFFFFFFFF900000000000000090FFFFFFFFFFFFFFFFFFFFFFFFFFFFFFFFFFFFFFFFFFFFFFFFFFFFFFFFFFFFFFFFFFFFFFF44FECB0000000000FC6FCC00
  0
BLOCK_RECORD
  5
267
100
AcDbSymbolTableRecord
100
AcDbBlockTableRecord
  2
SP58012-85
1001
CONTENTBLOCKICON
1071
        0
1004
2800000020000000200000000100040000000000000200000000000000000000000000000000000000000000000080000080000000808000800000008000800080800000C0C0C000808080000000FF0000FF000000FFFF00FF000000FF00FF00FFFF0000FFFFFF00FFFFFFFFFFFFFFFFFFFFFFFFFFFFFFFFFFFFFFFFFFFFFF
1004
FFFFFFFFFFFFFFFFFFFFFFFFFFFFFFFFFFFFFFFFFFFFFFFFFFFFFFFFFFFFFFFFFFFFFFFFFFFFFFFFFFFFFFFFFFFFFFFFFFFFFFFFFFFFFFFFFFFFFFFFFFFFFFFFFFFFFFFFFFFFFFFFFF90000000000000000000000000000009999990FFFFFFFFFFFFFFFFFFFF999990FFFFF0FFFFFFFFFFFFFFFFFFFF0FFFFFFFFFF0FFFFFF
1004
FFFFFFFFFFFFFF0FFFFFFFFFF0FFFFFFFFFFFFFFFFFFFF0FFFFFFFFFF0FFFFFFFFFFFFFFFFFFFF0FFFFFFFFFF0FFFFFFFFFFFFFFFFFFFF0FFFFFFFFFF0FFFFFFFFFFFFFFFFFFFF0FFFFFFFFFF0FFFFFFFFFFFFFFFFFFFF0FFFFFFFFFF0FFFFFFFFFFFFFFFFFF000FFFFFFFFFF0FFFFFFFFFFFFFFFFFF090FFFFFFFFFF0FFFF
1004
FFFFFFFFFFFFFF099FFFFFFFFFFBBBBBBBBBBBBBBBBBBBBBBFFFFFFFFFFBBBBBBBBBBBBBBBBBBBBBBFFFFFFFFFFBBBBBBBBBBBBBBBBBBBBBBFFFFFFFFFF0000000000000000000000FFFFFFFFFF000FFFFFFFFFFFFFFFFFF0FFFFFFFFFF909FFFFFFFFFFFFFFFFFF0FFFFFFFFFF9000FFFFFFFFFFFFFFFFF0FFFFFFFFFFFFF
1004
9FFFFFFFFFFFFFFFFF0FFFFFFFFFFFFF9999999999999999990FFFFFFFFFFFFFFFFFFFFFFFFFFFFFFFFFFFFFFFFFFFFFFFFFFFFFFFFFFFFFFFFFFFFFFFFFFFFFFFFFFFFFFFFFFFFFFFFFFFFFFFFFFFFFFFFFFFFFFFFFFFFFFFFFFFFFFFFFFFFFFFFFFFFFFFFFFFFFFFFFFFFF44FECB0000000000FC6FCC00
  0
BLOCK_RECORD
  5
1D0
100
AcDbSymbolTableRecord
100
AcDbBlockTableRecord
  2
SP58013
1001
CONTENTBLOCKICON
1071
        0
1004
2800000020000000200000000100040000000000000200000000000000000000000000000000000000000000000080000080000000808000800000008000800080800000C0C0C000808080000000FF0000FF000000FFFF00FF000000FF00FF00FFFF0000FFFFFF00FFFFFFFFFFFFFFFFFFFFFFFFFFFFFFFFFFFFFFFFFFFFFF
1004
FFFFFFFFFFFFFFFFFF0F00000000000000000000000FFFFFFF999999999999999999999999FFFFFFFFFFFFFFF9FFFFFFFFFFFFFFF90FFFFFFFFFFFFFF9FFFFFFFFFFFFFFF90FFFFFFFFFFFFFF9FFFFFFFFFFFFFFF90FFFFFFFFFFFFFF9FFFFFFFFFFFFFFF90FFFFFFFFFFFFFF9FFFFFFFFFFFFFFF90FFFFFFFFFFFFFF9FFFF
1004
FFFFFFFFFFF90FFFFFFFFFFFFFF9FFFFFFFFFFFFFFF90FFFFFFFFFFFFFF9FFFFFFFFFFFFFFF90FFFFFFFFFFFFFF9FFFFFFFFFFFFFFF90FFFFFFFFFFFFFF9FFFFFFFFFFFFFFF90FFFFFFFFFFFFFF9FFFFFFFFFFFFFFF90FFFFFFFFFFFFFF9FFFFFFFFFFFFFFF90FFFFFFFFFFFFFF9FFFFFFFFFFFFFFF90FFFFFFFFFFFFFF9FF
1004
FFFFFFFFFFFFF90FFFFFFFFFFFFFF9FFFFFFFFFFFFFFF90FFFFFFFFFFFFFF900000000000000090FFFFFFFFFFFFFFBBBBBBBBBBBBBBBBBBFFFFFFFFFFFFFFBBBBBBBBBBBBBBBBBBFFFFFFFFFFFFFFBBBBBBBBBBBBBBBBBBFFFFFFFFFFFFFF0B0000000000000000FFFFFFFFFFFFFF9FFFFFFFFFFFFFFF90FFFFFFFFFFFFFF9
1004
999FFFFFFFFFFFF90FFFFFFFFFFFFFF90F0FFFFFFFFFFFF90FFFFFFFFFFFFFF909FFFFFFFFFFFFF90FFFFFFFFFFFFFFFFF99FFFFFFFFFFF900000000FFFFFFFFFFFF00000000000099999990FFFFFFFFFFFFFFFFFFFFFFFFFFFFFFFFFFFFFFFFFFFFFFFFFFFFFFFFFFFFFFFF44FECB0000000000FC6FCC00
  0
BLOCK_RECORD
  5
343
100
AcDbSymbolTableRecord
100
AcDbBlockTableRecord
  2
SP58023
1001
CONTENTBLOCKICON
1071
        0
1004
2800000020000000200000000100040000000000000200000000000000000000000000000000000000000000000080000080000000808000800000008000800080800000C0C0C000808080000000FF0000FF000000FFFF00FF000000FF00FF00FFFF0000FFFFFF00FFFFFFFFFFFFFFFFFFFFFFFFFFFFFFFFFFFFFFFFFFFFFF
1004
FFFFFFFFFFFFFFFFFF0F00000000000000000000000FFFFFFF999999999999999999999999FFFFFFFFFFFFFFF9FFFFFFFFFFFFFFF90FFFFFFFFFFFFFF9FFFFFFFFFFFFFFF90FFFFFFFFFFFFFF9FFFFFFFFFFFFFFF90FFFFFFFFFFFFFF9FFFFFFFFFFFFFFF90FFFFFFFFFFFFFF9FFFFFFFFFFFFFFF90FFFFFFFFFFFFFF9FFFF
1004
FFFFFFFFFFF90FFFFFFFFFFFFFF9FFFFFFFFFFFFFFF90FFFFFFFFFFFFFF9FFFFFFFFFFFFFFF90FFFFFFFFFFFFFF9FFFFFFFFFFFFFFF90FFFFFFFFFFFFFF9FFFFFFFFFFFFFFF90FFFFFFFFFFFFFF9FFFFFFFFFFFFFFF90FFFFFFFFFFFFFF9FFFFFFFFFFFFFFF90FFFFFFFFFFFFFF9FFFFFFFFFFFFFFF90FFFFFFFFFFFFFF9FF
1004
FFFFFFFFFFFFF90FFFFFFFFFFFFFF9FFFFFFFFFFFFFFF90FFFFFFFFFFFFFFBBBBBBBBBBBBBBBBB0FFFFFFFFFFFFFFBBBBBBBBBBBBBBBBBBFFFFFFFFFFFFFFBBBBBBBBBBBBBBBBBBFFFFFFFFFFFFFFBBBBBBBBBBBBBBBBBBFFFFFFFFFFFFFF0B0000000000000000FFFFFFFFFFFFFF9FFFFFFFFFFFFFFF90FFFFFFFFFFFFFF9
1004
FFFFFFFFFFFFFFF90FFFFFFFFFFFFFF9FFFFFFFFFFFFFFF90FFFFFFFFFFFFFF9FFFFFFFFFFFFFFF90FFFFFFFFFFFFFF9FFFFFFFFFFFFFFF900000000FFFFFFF9000000000000000099999990FFFFFFFFFFFFFFFFFFFFFFFFFFFFFFFFFFFFFFFFFFFFFFFFFFFFFFFFFFFFFFFF44FECB000C00CB00FC6FCC00
  0
BLOCK_RECORD
  5
13F
100
AcDbSymbolTableRecord
100
AcDbBlockTableRecord
  2
SP58014
1001
CONTENTBLOCKICON
1071
        0
1004
2800000020000000200000000100040000000000000200000000000000000000000000000000000000000000000080000080000000808000800000008000800080800000C0C0C000808080000000FF0000FF000000FFFF00FF000000FF00FF00FFFF0000FFFFFF00FF0F00000000000000000000000000FFFF999999999999
1004
999999999999999FFFFFF99999990FFFFFFFFFFFFFFFFF90FFFFFFFFFFFF0FFFFFFFFFFFFFFFFF90FFFFFFFFFFFF0FFFFFFFFFFFFFFFFF90FFFFFFFFFFFF0FFFFFFFFFFFFFFFFF90FFFFFFFFFFFF0FFFFFFFFFFFFFFFFF90FFFFFFFFFFFF0FFFFFFFFFFFFFFFFF90FFFFFFFFFFFF0FFFFFFFFFFFFFFFFF90FFFFFFFFFFFF0F
1004
FFFFFFFFFFFFFFFF90FFFFFFFFFFFF0FFFFFFFFFFFFFFFFF90FFFFFFFFFFFF0FFFFFFFFFFFFFFFFF90FFFFFFFFFFFF0FFFFFFFFFFFFFFFFF90FFFFFFFFFFFF0FFFFFFFFFFFFFFFFF90FFFFFFFFFFFF0FFFFFFFFFFFFFFFFF90FFFFFFFFFFFF0FFFFFFFFFFFFFFFFF90FFFFFFFFFFFF0FFFFFFFFFFFFFFFFF90FFFFFFFFFFFF
1004
0FFFFFFFFFFFFFFFFF90FFFFFFFFFFFF0FFFFFFFFFFFFFFFFF90FFFFFFFFFFFFBBBBBBBBBBBBBBBBBBBBFFFFFFFFFFFFBBBBBBBBBBBBBBBBBBBBFFFFFFFFFFFFBBBBBBBBBBBBBBBBBBBBFFFFFFFFFFFFBBBBBBBBBBBBBBBBBBBBFFFFFFFFFFFFB00000000000000000BBFFFFFFFFFFFF99999999999999999990FFFFFFFFFF
1004
FF0FFFFFFFFFFFFFFF0090FFFFFFFFFFFF0FFFFFFFFFFFFFF90F90FFFFFFFFFFFF0FFFFFFFFFFFFFF90F90FFFFFFFFFFFF0FFFFFFFFFFFFFFF0F90FFFFFFFFFFFF0FFFFFFFFFFFF990FFFFFFFFFFFFFFFF0FFFFFFFFFFFF90FFFFFFFFFFFFFFFFF99999999999990FFFFFFFF44FECB000C00CB00FC6FCC00
  0
ENDTAB
  0
ENDSEC
  0
SECTION
  2
BLOCKS
  0
BLOCK
  5
3
100
AcDbEntity
  8
0
100
AcDbBlockBegin
  2
*MODEL_SPACE
 70
     0
 10
0.0
 20
0.0
 30
0.0
  3
*MODEL_SPACE
  1

  0
ENDBLK
  5
6
100
AcDbEntity
  8
0
100
AcDbBlockEnd
  0
BLOCK
  5
8
100
AcDbEntity
 67
     1
  8
0
100
AcDbBlockBegin
  2
*PAPER_SPACE
 70
     0
 10
0.0
 20
0.0
 30
0.0
  3
*PAPER_SPACE
  1

  0
ENDBLK
  5
9
100
AcDbEntity
 67
     1
  8
0
100
AcDbBlockEnd
  0
BLOCK
  5
33B
100
AcDbEntity
  8
0
100
AcDbBlockBegin
  2
*X0
 70
     1
 10
0.0
 20
0.0
 30
0.0
  3
*X0
  1

  0
LINE
  5
26C
100
AcDbEntity
  8
0
 62
     0
100
AcDbLine
 10
2485.0
 20
375.0
 30
0.0
 11
2487.5
 21
375.0
 31
0.0
  0
LINE
  5
26D
100
AcDbEntity
  8
0
 62
     0
100
AcDbLine
 10
2490.0
 20
375.0
 30
0.0
 11
2492.5
 21
375.0
 31
0.0
  0
LINE
  5
26E
100
AcDbEntity
  8
0
 62
     0
100
AcDbLine
 10
2495.0
 20
375.0
 30
0.0
 11
2497.5
 21
375.0
 31
0.0
  0
LINE
  5
26F
100
AcDbEntity
  8
0
 62
     0
100
AcDbLine
 10
2500.0
 20
375.0
 30
0.0
 11
2502.5
 21
375.0
 31
0.0
  0
LINE
  5
270
100
AcDbEntity
  8
0
 62
     0
100
AcDbLine
 10
2505.0
 20
375.0
 30
0.0
 11
2507.5
 21
375.0
 31
0.0
  0
LINE
  5
271
100
AcDbEntity
  8
0
 62
     0
100
AcDbLine
 10
2510.0
 20
375.0
 30
0.0
 11
2512.5
 21
375.0
 31
0.0
  0
LINE
  5
272
100
AcDbEntity
  8
0
 62
     0
100
AcDbLine
 10
2515.0
 20
375.0
 30
0.0
 11
2517.5
 21
375.0
 31
0.0
  0
LINE
  5
273
100
AcDbEntity
  8
0
 62
     0
100
AcDbLine
 10
2520.0
 20
375.0
 30
0.0
 11
2522.5
 21
375.0
 31
0.0
  0
LINE
  5
274
100
AcDbEntity
  8
0
 62
     0
100
AcDbLine
 10
2525.0
 20
375.0
 30
0.0
 11
2527.5
 21
375.0
 31
0.0
  0
LINE
  5
275
100
AcDbEntity
  8
0
 62
     0
100
AcDbLine
 10
2530.0
 20
375.0
 30
0.0
 11
2532.5
 21
375.0
 31
0.0
  0
LINE
  5
276
100
AcDbEntity
  8
0
 62
     0
100
AcDbLine
 10
2535.0
 20
375.0
 30
0.0
 11
2537.5
 21
375.0
 31
0.0
  0
LINE
  5
277
100
AcDbEntity
  8
0
 62
     0
100
AcDbLine
 10
2540.0
 20
375.0
 30
0.0
 11
2542.5
 21
375.0
 31
0.0
  0
LINE
  5
278
100
AcDbEntity
  8
0
 62
     0
100
AcDbLine
 10
2545.0
 20
375.0
 30
0.0
 11
2547.5
 21
375.0
 31
0.0
  0
LINE
  5
279
100
AcDbEntity
  8
0
 62
     0
100
AcDbLine
 10
2550.0
 20
375.0
 30
0.0
 11
2552.5
 21
375.0
 31
0.0
  0
LINE
  5
27A
100
AcDbEntity
  8
0
 62
     0
100
AcDbLine
 10
2555.0
 20
375.0
 30
0.0
 11
2557.5
 21
375.0
 31
0.0
  0
LINE
  5
27B
100
AcDbEntity
  8
0
 62
     0
100
AcDbLine
 10
2560.0
 20
375.0
 30
0.0
 11
2562.5
 21
375.0
 31
0.0
  0
LINE
  5
27C
100
AcDbEntity
  8
0
 62
     0
100
AcDbLine
 10
2565.0
 20
375.0
 30
0.0
 11
2567.5
 21
375.0
 31
0.0
  0
LINE
  5
27D
100
AcDbEntity
  8
0
 62
     0
100
AcDbLine
 10
2485.0
 20
377.5
 30
0.0
 11
2487.5
 21
377.5
 31
0.0
  0
LINE
  5
27E
100
AcDbEntity
  8
0
 62
     0
100
AcDbLine
 10
2490.0
 20
377.5
 30
0.0
 11
2492.5
 21
377.5
 31
0.0
  0
LINE
  5
27F
100
AcDbEntity
  8
0
 62
     0
100
AcDbLine
 10
2495.0
 20
377.5
 30
0.0
 11
2497.5
 21
377.5
 31
0.0
  0
LINE
  5
280
100
AcDbEntity
  8
0
 62
     0
100
AcDbLine
 10
2500.0
 20
377.5
 30
0.0
 11
2502.5
 21
377.5
 31
0.0
  0
LINE
  5
281
100
AcDbEntity
  8
0
 62
     0
100
AcDbLine
 10
2505.0
 20
377.5
 30
0.0
 11
2507.5
 21
377.5
 31
0.0
  0
LINE
  5
282
100
AcDbEntity
  8
0
 62
     0
100
AcDbLine
 10
2510.0
 20
377.5
 30
0.0
 11
2512.5
 21
377.5
 31
0.0
  0
LINE
  5
283
100
AcDbEntity
  8
0
 62
     0
100
AcDbLine
 10
2515.0
 20
377.5
 30
0.0
 11
2517.5
 21
377.5
 31
0.0
  0
LINE
  5
284
100
AcDbEntity
  8
0
 62
     0
100
AcDbLine
 10
2520.0
 20
377.5
 30
0.0
 11
2522.5
 21
377.5
 31
0.0
  0
LINE
  5
285
100
AcDbEntity
  8
0
 62
     0
100
AcDbLine
 10
2525.0
 20
377.5
 30
0.0
 11
2527.5
 21
377.5
 31
0.0
  0
LINE
  5
286
100
AcDbEntity
  8
0
 62
     0
100
AcDbLine
 10
2530.0
 20
377.5
 30
0.0
 11
2532.5
 21
377.5
 31
0.0
  0
LINE
  5
287
100
AcDbEntity
  8
0
 62
     0
100
AcDbLine
 10
2535.0
 20
377.5
 30
0.0
 11
2537.5
 21
377.5
 31
0.0
  0
LINE
  5
288
100
AcDbEntity
  8
0
 62
     0
100
AcDbLine
 10
2540.0
 20
377.5
 30
0.0
 11
2542.5
 21
377.5
 31
0.0
  0
LINE
  5
289
100
AcDbEntity
  8
0
 62
     0
100
AcDbLine
 10
2545.0
 20
377.5
 30
0.0
 11
2547.5
 21
377.5
 31
0.0
  0
LINE
  5
28A
100
AcDbEntity
  8
0
 62
     0
100
AcDbLine
 10
2550.0
 20
377.5
 30
0.0
 11
2552.5
 21
377.5
 31
0.0
  0
LINE
  5
28B
100
AcDbEntity
  8
0
 62
     0
100
AcDbLine
 10
2555.0
 20
377.5
 30
0.0
 11
2557.5
 21
377.5
 31
0.0
  0
LINE
  5
28C
100
AcDbEntity
  8
0
 62
     0
100
AcDbLine
 10
2560.0
 20
377.5
 30
0.0
 11
2562.5
 21
377.5
 31
0.0
  0
LINE
  5
28D
100
AcDbEntity
  8
0
 62
     0
100
AcDbLine
 10
2565.0
 20
377.5
 30
0.0
 11
2567.5
 21
377.5
 31
0.0
  0
LINE
  5
28E
100
AcDbEntity
  8
0
 62
     0
100
AcDbLine
 10
2485.0
 20
372.5
 30
0.0
 11
2487.5
 21
372.5
 31
0.0
  0
LINE
  5
28F
100
AcDbEntity
  8
0
 62
     0
100
AcDbLine
 10
2490.0
 20
372.5
 30
0.0
 11
2492.5
 21
372.5
 31
0.0
  0
LINE
  5
290
100
AcDbEntity
  8
0
 62
     0
100
AcDbLine
 10
2495.0
 20
372.5
 30
0.0
 11
2497.5
 21
372.5
 31
0.0
  0
LINE
  5
291
100
AcDbEntity
  8
0
 62
     0
100
AcDbLine
 10
2500.0
 20
372.5
 30
0.0
 11
2502.5
 21
372.5
 31
0.0
  0
LINE
  5
292
100
AcDbEntity
  8
0
 62
     0
100
AcDbLine
 10
2505.0
 20
372.5
 30
0.0
 11
2507.5
 21
372.5
 31
0.0
  0
LINE
  5
293
100
AcDbEntity
  8
0
 62
     0
100
AcDbLine
 10
2510.0
 20
372.5
 30
0.0
 11
2512.5
 21
372.5
 31
0.0
  0
LINE
  5
294
100
AcDbEntity
  8
0
 62
     0
100
AcDbLine
 10
2515.0
 20
372.5
 30
0.0
 11
2517.5
 21
372.5
 31
0.0
  0
LINE
  5
295
100
AcDbEntity
  8
0
 62
     0
100
AcDbLine
 10
2520.0
 20
372.5
 30
0.0
 11
2522.5
 21
372.5
 31
0.0
  0
LINE
  5
296
100
AcDbEntity
  8
0
 62
     0
100
AcDbLine
 10
2525.0
 20
372.5
 30
0.0
 11
2527.5
 21
372.5
 31
0.0
  0
LINE
  5
297
100
AcDbEntity
  8
0
 62
     0
100
AcDbLine
 10
2530.0
 20
372.5
 30
0.0
 11
2532.5
 21
372.5
 31
0.0
  0
LINE
  5
298
100
AcDbEntity
  8
0
 62
     0
100
AcDbLine
 10
2535.0
 20
372.5
 30
0.0
 11
2537.5
 21
372.5
 31
0.0
  0
LINE
  5
299
100
AcDbEntity
  8
0
 62
     0
100
AcDbLine
 10
2540.0
 20
372.5
 30
0.0
 11
2542.5
 21
372.5
 31
0.0
  0
LINE
  5
29A
100
AcDbEntity
  8
0
 62
     0
100
AcDbLine
 10
2545.0
 20
372.5
 30
0.0
 11
2547.5
 21
372.5
 31
0.0
  0
LINE
  5
29B
100
AcDbEntity
  8
0
 62
     0
100
AcDbLine
 10
2550.0
 20
372.5
 30
0.0
 11
2552.5
 21
372.5
 31
0.0
  0
LINE
  5
29C
100
AcDbEntity
  8
0
 62
     0
100
AcDbLine
 10
2555.0
 20
372.5
 30
0.0
 11
2557.5
 21
372.5
 31
0.0
  0
LINE
  5
29D
100
AcDbEntity
  8
0
 62
     0
100
AcDbLine
 10
2560.0
 20
372.5
 30
0.0
 11
2562.5
 21
372.5
 31
0.0
  0
LINE
  5
29E
100
AcDbEntity
  8
0
 62
     0
100
AcDbLine
 10
2565.0
 20
372.5
 30
0.0
 11
2567.5
 21
372.5
 31
0.0
  0
LINE
  5
29F
100
AcDbEntity
  8
0
 62
     0
100
AcDbLine
 10
2522.500003
 20
370.000007
 30
0.0
 11
2522.941945
 21
370.441948
 31
0.0
  0
LINE
  5
2A0
100
AcDbEntity
  8
0
 62
     0
100
AcDbLine
 10
2524.558061
 20
372.058065
 30
0.0
 11
2525.000003
 21
372.500007
 31
0.0
  0
LINE
  5
2A1
100
AcDbEntity
  8
0
 62
     0
100
AcDbLine
 10
2527.500003
 20
375.000007
 30
0.0
 11
2527.941945
 21
375.441948
 31
0.0
  0
LINE
  5
2A2
100
AcDbEntity
  8
0
 62
     0
100
AcDbLine
 10
2529.558061
 20
377.058065
 30
0.0
 11
2530.000003
 21
377.500007
 31
0.0
  0
LINE
  5
2A3
100
AcDbEntity
  8
0
 62
     0
100
AcDbLine
 10
2519.999996
 20
370.0
 30
0.0
 11
2520.000003
 21
370.000006
 31
0.0
  0
LINE
  5
2A4
100
AcDbEntity
  8
0
 62
     0
100
AcDbLine
 10
2522.500003
 20
372.500007
 30
0.0
 11
2522.941945
 21
372.941948
 31
0.0
  0
LINE
  5
2A5
100
AcDbEntity
  8
0
 62
     0
100
AcDbLine
 10
2524.558061
 20
374.558065
 30
0.0
 11
2525.000003
 21
375.000007
 31
0.0
  0
LINE
  5
2A6
100
AcDbEntity
  8
0
 62
     0
100
AcDbLine
 10
2527.500003
 20
377.500007
 30
0.0
 11
2527.941945
 21
377.941948
 31
0.0
  0
LINE
  5
2A7
100
AcDbEntity
  8
0
 62
     0
100
AcDbLine
 10
2529.558061
 20
379.558065
 30
0.0
 11
2529.999996
 21
380.0
 31
0.0
  0
LINE
  5
2A8
100
AcDbEntity
  8
0
 62
     0
100
AcDbLine
 10
2517.500003
 20
370.000006
 30
0.0
 11
2517.941945
 21
370.441948
 31
0.0
  0
LINE
  5
2A9
100
AcDbEntity
  8
0
 62
     0
100
AcDbLine
 10
2519.558061
 20
372.058065
 30
0.0
 11
2520.000003
 21
372.500006
 31
0.0
  0
LINE
  5
2AA
100
AcDbEntity
  8
0
 62
     0
100
AcDbLine
 10
2522.500003
 20
375.000006
 30
0.0
 11
2522.941945
 21
375.441948
 31
0.0
  0
LINE
  5
2AB
100
AcDbEntity
  8
0
 62
     0
100
AcDbLine
 10
2524.558061
 20
377.058065
 30
0.0
 11
2525.000003
 21
377.500007
 31
0.0
  0
LINE
  5
2AC
100
AcDbEntity
  8
0
 62
     0
100
AcDbLine
 10
2514.999996
 20
370.0
 30
0.0
 11
2515.000003
 21
370.000006
 31
0.0
  0
LINE
  5
2AD
100
AcDbEntity
  8
0
 62
     0
100
AcDbLine
 10
2517.500003
 20
372.500006
 30
0.0
 11
2517.941945
 21
372.941948
 31
0.0
  0
LINE
  5
2AE
100
AcDbEntity
  8
0
 62
     0
100
AcDbLine
 10
2519.558061
 20
374.558065
 30
0.0
 11
2520.000003
 21
375.000006
 31
0.0
  0
LINE
  5
2AF
100
AcDbEntity
  8
0
 62
     0
100
AcDbLine
 10
2522.500003
 20
377.500006
 30
0.0
 11
2522.941945
 21
377.941948
 31
0.0
  0
LINE
  5
2B0
100
AcDbEntity
  8
0
 62
     0
100
AcDbLine
 10
2524.558061
 20
379.558065
 30
0.0
 11
2524.999996
 21
380.0
 31
0.0
  0
LINE
  5
2B1
100
AcDbEntity
  8
0
 62
     0
100
AcDbLine
 10
2512.500003
 20
370.000006
 30
0.0
 11
2512.941945
 21
370.441948
 31
0.0
  0
LINE
  5
2B2
100
AcDbEntity
  8
0
 62
     0
100
AcDbLine
 10
2514.558061
 20
372.058065
 30
0.0
 11
2515.000003
 21
372.500006
 31
0.0
  0
LINE
  5
2B3
100
AcDbEntity
  8
0
 62
     0
100
AcDbLine
 10
2517.500003
 20
375.000006
 30
0.0
 11
2517.941945
 21
375.441948
 31
0.0
  0
LINE
  5
2B4
100
AcDbEntity
  8
0
 62
     0
100
AcDbLine
 10
2519.558061
 20
377.058065
 30
0.0
 11
2520.000003
 21
377.500006
 31
0.0
  0
LINE
  5
2B5
100
AcDbEntity
  8
0
 62
     0
100
AcDbLine
 10
2509.999996
 20
370.0
 30
0.0
 11
2510.000003
 21
370.000006
 31
0.0
  0
LINE
  5
2B6
100
AcDbEntity
  8
0
 62
     0
100
AcDbLine
 10
2512.500003
 20
372.500006
 30
0.0
 11
2512.941945
 21
372.941948
 31
0.0
  0
LINE
  5
2B7
100
AcDbEntity
  8
0
 62
     0
100
AcDbLine
 10
2514.558061
 20
374.558065
 30
0.0
 11
2515.000003
 21
375.000006
 31
0.0
  0
LINE
  5
2B8
100
AcDbEntity
  8
0
 62
     0
100
AcDbLine
 10
2517.500003
 20
377.500006
 30
0.0
 11
2517.941945
 21
377.941948
 31
0.0
  0
LINE
  5
2B9
100
AcDbEntity
  8
0
 62
     0
100
AcDbLine
 10
2519.558061
 20
379.558065
 30
0.0
 11
2519.999996
 21
380.0
 31
0.0
  0
LINE
  5
2BA
100
AcDbEntity
  8
0
 62
     0
100
AcDbLine
 10
2507.500003
 20
370.000006
 30
0.0
 11
2507.941945
 21
370.441948
 31
0.0
  0
LINE
  5
2BB
100
AcDbEntity
  8
0
 62
     0
100
AcDbLine
 10
2509.558061
 20
372.058065
 30
0.0
 11
2510.000003
 21
372.500006
 31
0.0
  0
LINE
  5
2BC
100
AcDbEntity
  8
0
 62
     0
100
AcDbLine
 10
2512.500003
 20
375.000006
 30
0.0
 11
2512.941945
 21
375.441948
 31
0.0
  0
LINE
  5
2BD
100
AcDbEntity
  8
0
 62
     0
100
AcDbLine
 10
2514.558061
 20
377.058065
 30
0.0
 11
2515.000003
 21
377.500006
 31
0.0
  0
LINE
  5
2BE
100
AcDbEntity
  8
0
 62
     0
100
AcDbLine
 10
2504.999996
 20
370.0
 30
0.0
 11
2505.000003
 21
370.000006
 31
0.0
  0
LINE
  5
2BF
100
AcDbEntity
  8
0
 62
     0
100
AcDbLine
 10
2507.500003
 20
372.500006
 30
0.0
 11
2507.941945
 21
372.941948
 31
0.0
  0
LINE
  5
2C0
100
AcDbEntity
  8
0
 62
     0
100
AcDbLine
 10
2509.558061
 20
374.558065
 30
0.0
 11
2510.000003
 21
375.000006
 31
0.0
  0
LINE
  5
2C1
100
AcDbEntity
  8
0
 62
     0
100
AcDbLine
 10
2512.500003
 20
377.500006
 30
0.0
 11
2512.941945
 21
377.941948
 31
0.0
  0
LINE
  5
2C2
100
AcDbEntity
  8
0
 62
     0
100
AcDbLine
 10
2514.558061
 20
379.558065
 30
0.0
 11
2514.999996
 21
380.0
 31
0.0
  0
LINE
  5
2C3
100
AcDbEntity
  8
0
 62
     0
100
AcDbLine
 10
2502.500003
 20
370.000006
 30
0.0
 11
2502.941945
 21
370.441948
 31
0.0
  0
LINE
  5
2C4
100
AcDbEntity
  8
0
 62
     0
100
AcDbLine
 10
2504.558061
 20
372.058065
 30
0.0
 11
2505.000003
 21
372.500006
 31
0.0
  0
LINE
  5
2C5
100
AcDbEntity
  8
0
 62
     0
100
AcDbLine
 10
2507.500003
 20
375.000006
 30
0.0
 11
2507.941945
 21
375.441948
 31
0.0
  0
LINE
  5
2C6
100
AcDbEntity
  8
0
 62
     0
100
AcDbLine
 10
2509.558061
 20
377.058065
 30
0.0
 11
2510.000003
 21
377.500006
 31
0.0
  0
LINE
  5
2C7
100
AcDbEntity
  8
0
 62
     0
100
AcDbLine
 10
2499.999996
 20
370.0
 30
0.0
 11
2500.000003
 21
370.000006
 31
0.0
  0
LINE
  5
2C8
100
AcDbEntity
  8
0
 62
     0
100
AcDbLine
 10
2502.500003
 20
372.500006
 30
0.0
 11
2502.941945
 21
372.941948
 31
0.0
  0
LINE
  5
2C9
100
AcDbEntity
  8
0
 62
     0
100
AcDbLine
 10
2504.558061
 20
374.558065
 30
0.0
 11
2505.000003
 21
375.000006
 31
0.0
  0
LINE
  5
2CA
100
AcDbEntity
  8
0
 62
     0
100
AcDbLine
 10
2507.500003
 20
377.500006
 30
0.0
 11
2507.941945
 21
377.941948
 31
0.0
  0
LINE
  5
2CB
100
AcDbEntity
  8
0
 62
     0
100
AcDbLine
 10
2509.558061
 20
379.558065
 30
0.0
 11
2509.999996
 21
380.0
 31
0.0
  0
LINE
  5
2CC
100
AcDbEntity
  8
0
 62
     0
100
AcDbLine
 10
2497.500003
 20
370.000006
 30
0.0
 11
2497.941945
 21
370.441948
 31
0.0
  0
LINE
  5
2CD
100
AcDbEntity
  8
0
 62
     0
100
AcDbLine
 10
2499.558061
 20
372.058065
 30
0.0
 11
2500.000003
 21
372.500006
 31
0.0
  0
LINE
  5
2CE
100
AcDbEntity
  8
0
 62
     0
100
AcDbLine
 10
2502.500003
 20
375.000006
 30
0.0
 11
2502.941945
 21
375.441948
 31
0.0
  0
LINE
  5
2CF
100
AcDbEntity
  8
0
 62
     0
100
AcDbLine
 10
2504.558061
 20
377.058065
 30
0.0
 11
2505.000003
 21
377.500006
 31
0.0
  0
LINE
  5
2D0
100
AcDbEntity
  8
0
 62
     0
100
AcDbLine
 10
2494.999996
 20
370.0
 30
0.0
 11
2495.000003
 21
370.000006
 31
0.0
  0
LINE
  5
2D1
100
AcDbEntity
  8
0
 62
     0
100
AcDbLine
 10
2497.500003
 20
372.500006
 30
0.0
 11
2497.941945
 21
372.941948
 31
0.0
  0
LINE
  5
2D2
100
AcDbEntity
  8
0
 62
     0
100
AcDbLine
 10
2499.558061
 20
374.558065
 30
0.0
 11
2500.000003
 21
375.000006
 31
0.0
  0
LINE
  5
2D3
100
AcDbEntity
  8
0
 62
     0
100
AcDbLine
 10
2502.500003
 20
377.500006
 30
0.0
 11
2502.941945
 21
377.941948
 31
0.0
  0
LINE
  5
2D4
100
AcDbEntity
  8
0
 62
     0
100
AcDbLine
 10
2504.558061
 20
379.558065
 30
0.0
 11
2504.999996
 21
380.0
 31
0.0
  0
LINE
  5
2D5
100
AcDbEntity
  8
0
 62
     0
100
AcDbLine
 10
2492.500003
 20
370.000006
 30
0.0
 11
2492.941945
 21
370.441948
 31
0.0
  0
LINE
  5
2D6
100
AcDbEntity
  8
0
 62
     0
100
AcDbLine
 10
2494.558061
 20
372.058065
 30
0.0
 11
2495.000003
 21
372.500006
 31
0.0
  0
LINE
  5
2D7
100
AcDbEntity
  8
0
 62
     0
100
AcDbLine
 10
2497.500003
 20
375.000006
 30
0.0
 11
2497.941945
 21
375.441948
 31
0.0
  0
LINE
  5
2D8
100
AcDbEntity
  8
0
 62
     0
100
AcDbLine
 10
2499.558061
 20
377.058065
 30
0.0
 11
2500.000003
 21
377.500006
 31
0.0
  0
LINE
  5
2D9
100
AcDbEntity
  8
0
 62
     0
100
AcDbLine
 10
2489.999996
 20
370.0
 30
0.0
 11
2490.000003
 21
370.000006
 31
0.0
  0
LINE
  5
2DA
100
AcDbEntity
  8
0
 62
     0
100
AcDbLine
 10
2492.500003
 20
372.500006
 30
0.0
 11
2492.941945
 21
372.941948
 31
0.0
  0
LINE
  5
2DB
100
AcDbEntity
  8
0
 62
     0
100
AcDbLine
 10
2494.558061
 20
374.558065
 30
0.0
 11
2495.000003
 21
375.000006
 31
0.0
  0
LINE
  5
2DC
100
AcDbEntity
  8
0
 62
     0
100
AcDbLine
 10
2497.500003
 20
377.500006
 30
0.0
 11
2497.941945
 21
377.941948
 31
0.0
  0
LINE
  5
2DD
100
AcDbEntity
  8
0
 62
     0
100
AcDbLine
 10
2499.558061
 20
379.558065
 30
0.0
 11
2499.999996
 21
380.0
 31
0.0
  0
LINE
  5
2DE
100
AcDbEntity
  8
0
 62
     0
100
AcDbLine
 10
2487.500003
 20
370.000006
 30
0.0
 11
2487.941945
 21
370.441948
 31
0.0
  0
LINE
  5
2DF
100
AcDbEntity
  8
0
 62
     0
100
AcDbLine
 10
2489.558061
 20
372.058065
 30
0.0
 11
2490.000003
 21
372.500006
 31
0.0
  0
LINE
  5
2E0
100
AcDbEntity
  8
0
 62
     0
100
AcDbLine
 10
2492.500003
 20
375.000006
 30
0.0
 11
2492.941945
 21
375.441948
 31
0.0
  0
LINE
  5
2E1
100
AcDbEntity
  8
0
 62
     0
100
AcDbLine
 10
2494.558061
 20
377.058065
 30
0.0
 11
2495.000003
 21
377.500006
 31
0.0
  0
LINE
  5
2E2
100
AcDbEntity
  8
0
 62
     0
100
AcDbLine
 10
2484.999996
 20
370.0
 30
0.0
 11
2485.000003
 21
370.000006
 31
0.0
  0
LINE
  5
2E3
100
AcDbEntity
  8
0
 62
     0
100
AcDbLine
 10
2487.500003
 20
372.500006
 30
0.0
 11
2487.941945
 21
372.941948
 31
0.0
  0
LINE
  5
2E4
100
AcDbEntity
  8
0
 62
     0
100
AcDbLine
 10
2489.558061
 20
374.558065
 30
0.0
 11
2490.000003
 21
375.000006
 31
0.0
  0
LINE
  5
2E5
100
AcDbEntity
  8
0
 62
     0
100
AcDbLine
 10
2492.500003
 20
377.500006
 30
0.0
 11
2492.941945
 21
377.941948
 31
0.0
  0
LINE
  5
2E6
100
AcDbEntity
  8
0
 62
     0
100
AcDbLine
 10
2494.558061
 20
379.558065
 30
0.0
 11
2494.999996
 21
380.0
 31
0.0
  0
LINE
  5
2E7
100
AcDbEntity
  8
0
 62
     0
100
AcDbLine
 10
2485.0
 20
372.500004
 30
0.0
 11
2485.000003
 21
372.500006
 31
0.0
  0
LINE
  5
2E8
100
AcDbEntity
  8
0
 62
     0
100
AcDbLine
 10
2487.500003
 20
375.000006
 30
0.0
 11
2487.941945
 21
375.441948
 31
0.0
  0
LINE
  5
2E9
100
AcDbEntity
  8
0
 62
     0
100
AcDbLine
 10
2489.558061
 20
377.058065
 30
0.0
 11
2490.000003
 21
377.500006
 31
0.0
  0
LINE
  5
2EA
100
AcDbEntity
  8
0
 62
     0
100
AcDbLine
 10
2485.0
 20
375.000004
 30
0.0
 11
2485.000003
 21
375.000006
 31
0.0
  0
LINE
  5
2EB
100
AcDbEntity
  8
0
 62
     0
100
AcDbLine
 10
2487.500003
 20
377.500006
 30
0.0
 11
2487.941945
 21
377.941948
 31
0.0
  0
LINE
  5
2EC
100
AcDbEntity
  8
0
 62
     0
100
AcDbLine
 10
2489.558061
 20
379.558065
 30
0.0
 11
2489.999996
 21
380.0
 31
0.0
  0
LINE
  5
2ED
100
AcDbEntity
  8
0
 62
     0
100
AcDbLine
 10
2485.0
 20
377.500004
 30
0.0
 11
2485.000003
 21
377.500006
 31
0.0
  0
LINE
  5
2EE
100
AcDbEntity
  8
0
 62
     0
100
AcDbLine
 10
2524.999996
 20
370.0
 30
0.0
 11
2525.000003
 21
370.000007
 31
0.0
  0
LINE
  5
2EF
100
AcDbEntity
  8
0
 62
     0
100
AcDbLine
 10
2527.500003
 20
372.500007
 30
0.0
 11
2527.941945
 21
372.941948
 31
0.0
  0
LINE
  5
2F0
100
AcDbEntity
  8
0
 62
     0
100
AcDbLine
 10
2529.558061
 20
374.558065
 30
0.0
 11
2530.000003
 21
375.000007
 31
0.0
  0
LINE
  5
2F1
100
AcDbEntity
  8
0
 62
     0
100
AcDbLine
 10
2532.500003
 20
377.500007
 30
0.0
 11
2532.941945
 21
377.941948
 31
0.0
  0
LINE
  5
2F2
100
AcDbEntity
  8
0
 62
     0
100
AcDbLine
 10
2534.558061
 20
379.558065
 30
0.0
 11
2534.999996
 21
380.0
 31
0.0
  0
LINE
  5
2F3
100
AcDbEntity
  8
0
 62
     0
100
AcDbLine
 10
2527.500003
 20
370.000007
 30
0.0
 11
2527.941945
 21
370.441948
 31
0.0
  0
LINE
  5
2F4
100
AcDbEntity
  8
0
 62
     0
100
AcDbLine
 10
2529.558061
 20
372.058065
 30
0.0
 11
2530.000003
 21
372.500007
 31
0.0
  0
LINE
  5
2F5
100
AcDbEntity
  8
0
 62
     0
100
AcDbLine
 10
2532.500003
 20
375.000007
 30
0.0
 11
2532.941945
 21
375.441948
 31
0.0
  0
LINE
  5
2F6
100
AcDbEntity
  8
0
 62
     0
100
AcDbLine
 10
2534.558061
 20
377.058065
 30
0.0
 11
2535.000003
 21
377.500007
 31
0.0
  0
LINE
  5
2F7
100
AcDbEntity
  8
0
 62
     0
100
AcDbLine
 10
2529.999996
 20
370.0
 30
0.0
 11
2530.000003
 21
370.000007
 31
0.0
  0
LINE
  5
2F8
100
AcDbEntity
  8
0
 62
     0
100
AcDbLine
 10
2532.500003
 20
372.500007
 30
0.0
 11
2532.941945
 21
372.941948
 31
0.0
  0
LINE
  5
2F9
100
AcDbEntity
  8
0
 62
     0
100
AcDbLine
 10
2534.558061
 20
374.558065
 30
0.0
 11
2535.000003
 21
375.000007
 31
0.0
  0
LINE
  5
2FA
100
AcDbEntity
  8
0
 62
     0
100
AcDbLine
 10
2537.500003
 20
377.500007
 30
0.0
 11
2537.941945
 21
377.941948
 31
0.0
  0
LINE
  5
2FB
100
AcDbEntity
  8
0
 62
     0
100
AcDbLine
 10
2539.558061
 20
379.558065
 30
0.0
 11
2539.999996
 21
380.0
 31
0.0
  0
LINE
  5
2FC
100
AcDbEntity
  8
0
 62
     0
100
AcDbLine
 10
2532.500003
 20
370.000007
 30
0.0
 11
2532.941945
 21
370.441948
 31
0.0
  0
LINE
  5
2FD
100
AcDbEntity
  8
0
 62
     0
100
AcDbLine
 10
2534.558061
 20
372.058065
 30
0.0
 11
2535.000003
 21
372.500007
 31
0.0
  0
LINE
  5
2FE
100
AcDbEntity
  8
0
 62
     0
100
AcDbLine
 10
2537.500003
 20
375.000007
 30
0.0
 11
2537.941945
 21
375.441948
 31
0.0
  0
LINE
  5
2FF
100
AcDbEntity
  8
0
 62
     0
100
AcDbLine
 10
2539.558061
 20
377.058065
 30
0.0
 11
2540.000003
 21
377.500007
 31
0.0
  0
LINE
  5
300
100
AcDbEntity
  8
0
 62
     0
100
AcDbLine
 10
2534.999996
 20
370.0
 30
0.0
 11
2535.000003
 21
370.000007
 31
0.0
  0
LINE
  5
301
100
AcDbEntity
  8
0
 62
     0
100
AcDbLine
 10
2537.500003
 20
372.500007
 30
0.0
 11
2537.941945
 21
372.941948
 31
0.0
  0
LINE
  5
302
100
AcDbEntity
  8
0
 62
     0
100
AcDbLine
 10
2539.558061
 20
374.558065
 30
0.0
 11
2540.000003
 21
375.000007
 31
0.0
  0
LINE
  5
303
100
AcDbEntity
  8
0
 62
     0
100
AcDbLine
 10
2542.500003
 20
377.500007
 30
0.0
 11
2542.941945
 21
377.941948
 31
0.0
  0
LINE
  5
304
100
AcDbEntity
  8
0
 62
     0
100
AcDbLine
 10
2544.558061
 20
379.558065
 30
0.0
 11
2544.999996
 21
380.0
 31
0.0
  0
LINE
  5
305
100
AcDbEntity
  8
0
 62
     0
100
AcDbLine
 10
2537.500003
 20
370.000007
 30
0.0
 11
2537.941945
 21
370.441948
 31
0.0
  0
LINE
  5
306
100
AcDbEntity
  8
0
 62
     0
100
AcDbLine
 10
2539.558061
 20
372.058065
 30
0.0
 11
2540.000003
 21
372.500007
 31
0.0
  0
LINE
  5
307
100
AcDbEntity
  8
0
 62
     0
100
AcDbLine
 10
2542.500003
 20
375.000007
 30
0.0
 11
2542.941945
 21
375.441948
 31
0.0
  0
LINE
  5
308
100
AcDbEntity
  8
0
 62
     0
100
AcDbLine
 10
2544.558061
 20
377.058065
 30
0.0
 11
2545.000003
 21
377.500007
 31
0.0
  0
LINE
  5
309
100
AcDbEntity
  8
0
 62
     0
100
AcDbLine
 10
2539.999996
 20
370.0
 30
0.0
 11
2540.000003
 21
370.000007
 31
0.0
  0
LINE
  5
30A
100
AcDbEntity
  8
0
 62
     0
100
AcDbLine
 10
2542.500003
 20
372.500007
 30
0.0
 11
2542.941945
 21
372.941948
 31
0.0
  0
LINE
  5
30B
100
AcDbEntity
  8
0
 62
     0
100
AcDbLine
 10
2544.558061
 20
374.558065
 30
0.0
 11
2545.000003
 21
375.000007
 31
0.0
  0
LINE
  5
30C
100
AcDbEntity
  8
0
 62
     0
100
AcDbLine
 10
2547.500003
 20
377.500007
 30
0.0
 11
2547.941945
 21
377.941948
 31
0.0
  0
LINE
  5
30D
100
AcDbEntity
  8
0
 62
     0
100
AcDbLine
 10
2549.558061
 20
379.558065
 30
0.0
 11
2549.999996
 21
380.0
 31
0.0
  0
LINE
  5
30E
100
AcDbEntity
  8
0
 62
     0
100
AcDbLine
 10
2542.500003
 20
370.000007
 30
0.0
 11
2542.941945
 21
370.441948
 31
0.0
  0
LINE
  5
30F
100
AcDbEntity
  8
0
 62
     0
100
AcDbLine
 10
2544.558061
 20
372.058065
 30
0.0
 11
2545.000003
 21
372.500007
 31
0.0
  0
LINE
  5
310
100
AcDbEntity
  8
0
 62
     0
100
AcDbLine
 10
2547.500003
 20
375.000007
 30
0.0
 11
2547.941945
 21
375.441948
 31
0.0
  0
LINE
  5
311
100
AcDbEntity
  8
0
 62
     0
100
AcDbLine
 10
2549.558061
 20
377.058065
 30
0.0
 11
2550.000003
 21
377.500007
 31
0.0
  0
LINE
  5
312
100
AcDbEntity
  8
0
 62
     0
100
AcDbLine
 10
2544.999996
 20
370.0
 30
0.0
 11
2545.000003
 21
370.000007
 31
0.0
  0
LINE
  5
313
100
AcDbEntity
  8
0
 62
     0
100
AcDbLine
 10
2547.500003
 20
372.500007
 30
0.0
 11
2547.941945
 21
372.941948
 31
0.0
  0
LINE
  5
314
100
AcDbEntity
  8
0
 62
     0
100
AcDbLine
 10
2549.558061
 20
374.558065
 30
0.0
 11
2550.000003
 21
375.000007
 31
0.0
  0
LINE
  5
315
100
AcDbEntity
  8
0
 62
     0
100
AcDbLine
 10
2552.500003
 20
377.500007
 30
0.0
 11
2552.941945
 21
377.941948
 31
0.0
  0
LINE
  5
316
100
AcDbEntity
  8
0
 62
     0
100
AcDbLine
 10
2554.558061
 20
379.558065
 30
0.0
 11
2554.999996
 21
380.0
 31
0.0
  0
LINE
  5
317
100
AcDbEntity
  8
0
 62
     0
100
AcDbLine
 10
2547.500003
 20
370.000007
 30
0.0
 11
2547.941945
 21
370.441948
 31
0.0
  0
LINE
  5
318
100
AcDbEntity
  8
0
 62
     0
100
AcDbLine
 10
2549.558061
 20
372.058065
 30
0.0
 11
2550.000003
 21
372.500007
 31
0.0
  0
LINE
  5
319
100
AcDbEntity
  8
0
 62
     0
100
AcDbLine
 10
2552.500003
 20
375.000007
 30
0.0
 11
2552.941945
 21
375.441948
 31
0.0
  0
LINE
  5
31A
100
AcDbEntity
  8
0
 62
     0
100
AcDbLine
 10
2554.558061
 20
377.058065
 30
0.0
 11
2555.000003
 21
377.500007
 31
0.0
  0
LINE
  5
31B
100
AcDbEntity
  8
0
 62
     0
100
AcDbLine
 10
2549.999996
 20
370.0
 30
0.0
 11
2550.000003
 21
370.000007
 31
0.0
  0
LINE
  5
31C
100
AcDbEntity
  8
0
 62
     0
100
AcDbLine
 10
2552.500003
 20
372.500007
 30
0.0
 11
2552.941945
 21
372.941948
 31
0.0
  0
LINE
  5
31D
100
AcDbEntity
  8
0
 62
     0
100
AcDbLine
 10
2554.558061
 20
374.558065
 30
0.0
 11
2555.000003
 21
375.000007
 31
0.0
  0
LINE
  5
31E
100
AcDbEntity
  8
0
 62
     0
100
AcDbLine
 10
2557.500003
 20
377.500007
 30
0.0
 11
2557.941945
 21
377.941948
 31
0.0
  0
LINE
  5
31F
100
AcDbEntity
  8
0
 62
     0
100
AcDbLine
 10
2559.558061
 20
379.558065
 30
0.0
 11
2559.999996
 21
380.0
 31
0.0
  0
LINE
  5
320
100
AcDbEntity
  8
0
 62
     0
100
AcDbLine
 10
2552.500003
 20
370.000007
 30
0.0
 11
2552.941945
 21
370.441948
 31
0.0
  0
LINE
  5
321
100
AcDbEntity
  8
0
 62
     0
100
AcDbLine
 10
2554.558061
 20
372.058065
 30
0.0
 11
2555.000003
 21
372.500007
 31
0.0
  0
LINE
  5
322
100
AcDbEntity
  8
0
 62
     0
100
AcDbLine
 10
2557.500003
 20
375.000007
 30
0.0
 11
2557.941945
 21
375.441948
 31
0.0
  0
LINE
  5
323
100
AcDbEntity
  8
0
 62
     0
100
AcDbLine
 10
2559.558061
 20
377.058065
 30
0.0
 11
2560.000003
 21
377.500007
 31
0.0
  0
LINE
  5
324
100
AcDbEntity
  8
0
 62
     0
100
AcDbLine
 10
2554.999996
 20
370.0
 30
0.0
 11
2555.000003
 21
370.000007
 31
0.0
  0
LINE
  5
325
100
AcDbEntity
  8
0
 62
     0
100
AcDbLine
 10
2557.500003
 20
372.500007
 30
0.0
 11
2557.941945
 21
372.941948
 31
0.0
  0
LINE
  5
326
100
AcDbEntity
  8
0
 62
     0
100
AcDbLine
 10
2559.558061
 20
374.558065
 30
0.0
 11
2560.000003
 21
375.000007
 31
0.0
  0
LINE
  5
327
100
AcDbEntity
  8
0
 62
     0
100
AcDbLine
 10
2562.500003
 20
377.500007
 30
0.0
 11
2562.941945
 21
377.941948
 31
0.0
  0
LINE
  5
328
100
AcDbEntity
  8
0
 62
     0
100
AcDbLine
 10
2564.558061
 20
379.558065
 30
0.0
 11
2564.999996
 21
380.0
 31
0.0
  0
LINE
  5
329
100
AcDbEntity
  8
0
 62
     0
100
AcDbLine
 10
2557.500003
 20
370.000007
 30
0.0
 11
2557.941945
 21
370.441948
 31
0.0
  0
LINE
  5
32A
100
AcDbEntity
  8
0
 62
     0
100
AcDbLine
 10
2559.558061
 20
372.058065
 30
0.0
 11
2560.000003
 21
372.500007
 31
0.0
  0
LINE
  5
32B
100
AcDbEntity
  8
0
 62
     0
100
AcDbLine
 10
2562.500003
 20
375.000007
 30
0.0
 11
2562.941945
 21
375.441948
 31
0.0
  0
LINE
  5
32C
100
AcDbEntity
  8
0
 62
     0
100
AcDbLine
 10
2564.558061
 20
377.058065
 30
0.0
 11
2565.000003
 21
377.500007
 31
0.0
  0
LINE
  5
32D
100
AcDbEntity
  8
0
 62
     0
100
AcDbLine
 10
2559.999996
 20
370.0
 30
0.0
 11
2560.000003
 21
370.000007
 31
0.0
  0
LINE
  5
32E
100
AcDbEntity
  8
0
 62
     0
100
AcDbLine
 10
2562.500003
 20
372.500007
 30
0.0
 11
2562.941945
 21
372.941948
 31
0.0
  0
LINE
  5
32F
100
AcDbEntity
  8
0
 62
     0
100
AcDbLine
 10
2564.558061
 20
374.558065
 30
0.0
 11
2565.000003
 21
375.000007
 31
0.0
  0
LINE
  5
330
100
AcDbEntity
  8
0
 62
     0
100
AcDbLine
 10
2567.500003
 20
377.500007
 30
0.0
 11
2567.941945
 21
377.941948
 31
0.0
  0
LINE
  5
331
100
AcDbEntity
  8
0
 62
     0
100
AcDbLine
 10
2569.558061
 20
379.558065
 30
0.0
 11
2569.999996
 21
380.0
 31
0.0
  0
LINE
  5
332
100
AcDbEntity
  8
0
 62
     0
100
AcDbLine
 10
2562.500003
 20
370.000007
 30
0.0
 11
2562.941945
 21
370.441948
 31
0.0
  0
LINE
  5
333
100
AcDbEntity
  8
0
 62
     0
100
AcDbLine
 10
2564.558061
 20
372.058065
 30
0.0
 11
2565.000003
 21
372.500007
 31
0.0
  0
LINE
  5
334
100
AcDbEntity
  8
0
 62
     0
100
AcDbLine
 10
2567.500003
 20
375.000007
 30
0.0
 11
2567.941945
 21
375.441948
 31
0.0
  0
LINE
  5
335
100
AcDbEntity
  8
0
 62
     0
100
AcDbLine
 10
2569.558061
 20
377.058065
 30
0.0
 11
2570.0
 21
377.500004
 31
0.0
  0
LINE
  5
336
100
AcDbEntity
  8
0
 62
     0
100
AcDbLine
 10
2564.999996
 20
370.0
 30
0.0
 11
2565.000003
 21
370.000007
 31
0.0
  0
LINE
  5
337
100
AcDbEntity
  8
0
 62
     0
100
AcDbLine
 10
2567.500003
 20
372.500007
 30
0.0
 11
2567.941945
 21
372.941948
 31
0.0
  0
LINE
  5
338
100
AcDbEntity
  8
0
 62
     0
100
AcDbLine
 10
2569.558061
 20
374.558065
 30
0.0
 11
2570.0
 21
375.000004
 31
0.0
  0
LINE
  5
339
100
AcDbEntity
  8
0
 62
     0
100
AcDbLine
 10
2567.500003
 20
370.000007
 30
0.0
 11
2567.941945
 21
370.441948
 31
0.0
  0
LINE
  5
33A
100
AcDbEntity
  8
0
 62
     0
100
AcDbLine
 10
2569.558061
 20
372.058065
 30
0.0
 11
2570.0
 21
372.500004
 31
0.0
  0
ENDBLK
  5
33C
100
AcDbEntity
  8
0
100
AcDbBlockEnd
  0
BLOCK
  5
252
100
AcDbEntity
  8
0
100
AcDbBlockBegin
  2
*X1
 70
     1
 10
0.0
 20
0.0
 30
0.0
  3
*X1
  1

  0
LINE
  5
1D7
100
AcDbEntity
  8
0
 62
     0
100
AcDbLine
 10
2000.0
 20
365.0
 30
0.0
 11
2002.5
 21
365.0
 31
0.0
  0
LINE
  5
1D8
100
AcDbEntity
  8
0
 62
     0
100
AcDbLine
 10
2005.0
 20
365.0
 30
0.0
 11
2007.5
 21
365.0
 31
0.0
  0
LINE
  5
1D9
100
AcDbEntity
  8
0
 62
     0
100
AcDbLine
 10
2010.0
 20
365.0
 30
0.0
 11
2012.5
 21
365.0
 31
0.0
  0
LINE
  5
1DA
100
AcDbEntity
  8
0
 62
     0
100
AcDbLine
 10
2015.0
 20
365.0
 30
0.0
 11
2017.5
 21
365.0
 31
0.0
  0
LINE
  5
1DB
100
AcDbEntity
  8
0
 62
     0
100
AcDbLine
 10
2020.0
 20
365.0
 30
0.0
 11
2022.5
 21
365.0
 31
0.0
  0
LINE
  5
1DC
100
AcDbEntity
  8
0
 62
     0
100
AcDbLine
 10
2025.0
 20
365.0
 30
0.0
 11
2027.5
 21
365.0
 31
0.0
  0
LINE
  5
1DD
100
AcDbEntity
  8
0
 62
     0
100
AcDbLine
 10
2030.0
 20
365.0
 30
0.0
 11
2032.5
 21
365.0
 31
0.0
  0
LINE
  5
1DE
100
AcDbEntity
  8
0
 62
     0
100
AcDbLine
 10
2035.0
 20
365.0
 30
0.0
 11
2037.5
 21
365.0
 31
0.0
  0
LINE
  5
1DF
100
AcDbEntity
  8
0
 62
     0
100
AcDbLine
 10
2040.0
 20
365.0
 30
0.0
 11
2042.5
 21
365.0
 31
0.0
  0
LINE
  5
1E0
100
AcDbEntity
  8
0
 62
     0
100
AcDbLine
 10
2045.0
 20
365.0
 30
0.0
 11
2047.5
 21
365.0
 31
0.0
  0
LINE
  5
1E1
100
AcDbEntity
  8
0
 62
     0
100
AcDbLine
 10
2000.0
 20
367.5
 30
0.0
 11
2002.5
 21
367.5
 31
0.0
  0
LINE
  5
1E2
100
AcDbEntity
  8
0
 62
     0
100
AcDbLine
 10
2005.0
 20
367.5
 30
0.0
 11
2007.5
 21
367.5
 31
0.0
  0
LINE
  5
1E3
100
AcDbEntity
  8
0
 62
     0
100
AcDbLine
 10
2010.0
 20
367.5
 30
0.0
 11
2012.5
 21
367.5
 31
0.0
  0
LINE
  5
1E4
100
AcDbEntity
  8
0
 62
     0
100
AcDbLine
 10
2015.0
 20
367.5
 30
0.0
 11
2017.5
 21
367.5
 31
0.0
  0
LINE
  5
1E5
100
AcDbEntity
  8
0
 62
     0
100
AcDbLine
 10
2020.0
 20
367.5
 30
0.0
 11
2022.5
 21
367.5
 31
0.0
  0
LINE
  5
1E6
100
AcDbEntity
  8
0
 62
     0
100
AcDbLine
 10
2025.0
 20
367.5
 30
0.0
 11
2027.5
 21
367.5
 31
0.0
  0
LINE
  5
1E7
100
AcDbEntity
  8
0
 62
     0
100
AcDbLine
 10
2030.0
 20
367.5
 30
0.0
 11
2032.5
 21
367.5
 31
0.0
  0
LINE
  5
1E8
100
AcDbEntity
  8
0
 62
     0
100
AcDbLine
 10
2035.0
 20
367.5
 30
0.0
 11
2037.5
 21
367.5
 31
0.0
  0
LINE
  5
1E9
100
AcDbEntity
  8
0
 62
     0
100
AcDbLine
 10
2040.0
 20
367.5
 30
0.0
 11
2042.5
 21
367.5
 31
0.0
  0
LINE
  5
1EA
100
AcDbEntity
  8
0
 62
     0
100
AcDbLine
 10
2045.0
 20
367.5
 30
0.0
 11
2047.5
 21
367.5
 31
0.0
  0
LINE
  5
1EB
100
AcDbEntity
  8
0
 62
     0
100
AcDbLine
 10
2000.0
 20
362.5
 30
0.0
 11
2002.5
 21
362.5
 31
0.0
  0
LINE
  5
1EC
100
AcDbEntity
  8
0
 62
     0
100
AcDbLine
 10
2005.0
 20
362.5
 30
0.0
 11
2007.5
 21
362.5
 31
0.0
  0
LINE
  5
1ED
100
AcDbEntity
  8
0
 62
     0
100
AcDbLine
 10
2010.0
 20
362.5
 30
0.0
 11
2012.5
 21
362.5
 31
0.0
  0
LINE
  5
1EE
100
AcDbEntity
  8
0
 62
     0
100
AcDbLine
 10
2015.0
 20
362.5
 30
0.0
 11
2017.5
 21
362.5
 31
0.0
  0
LINE
  5
1EF
100
AcDbEntity
  8
0
 62
     0
100
AcDbLine
 10
2020.0
 20
362.5
 30
0.0
 11
2022.5
 21
362.5
 31
0.0
  0
LINE
  5
1F0
100
AcDbEntity
  8
0
 62
     0
100
AcDbLine
 10
2025.0
 20
362.5
 30
0.0
 11
2027.5
 21
362.5
 31
0.0
  0
LINE
  5
1F1
100
AcDbEntity
  8
0
 62
     0
100
AcDbLine
 10
2030.0
 20
362.5
 30
0.0
 11
2032.5
 21
362.5
 31
0.0
  0
LINE
  5
1F2
100
AcDbEntity
  8
0
 62
     0
100
AcDbLine
 10
2035.0
 20
362.5
 30
0.0
 11
2037.5
 21
362.5
 31
0.0
  0
LINE
  5
1F3
100
AcDbEntity
  8
0
 62
     0
100
AcDbLine
 10
2040.0
 20
362.5
 30
0.0
 11
2042.5
 21
362.5
 31
0.0
  0
LINE
  5
1F4
100
AcDbEntity
  8
0
 62
     0
100
AcDbLine
 10
2045.0
 20
362.5
 30
0.0
 11
2047.5
 21
362.5
 31
0.0
  0
LINE
  5
1F5
100
AcDbEntity
  8
0
 62
     0
100
AcDbLine
 10
2019.999997
 20
360.0
 30
0.0
 11
2020.000002
 21
360.000005
 31
0.0
  0
LINE
  5
1F6
100
AcDbEntity
  8
0
 62
     0
100
AcDbLine
 10
2022.500002
 20
362.500005
 30
0.0
 11
2022.941944
 21
362.941947
 31
0.0
  0
LINE
  5
1F7
100
AcDbEntity
  8
0
 62
     0
100
AcDbLine
 10
2024.558061
 20
364.558063
 30
0.0
 11
2025.000002
 21
365.000005
 31
0.0
  0
LINE
  5
1F8
100
AcDbEntity
  8
0
 62
     0
100
AcDbLine
 10
2027.500002
 20
367.500005
 30
0.0
 11
2027.941944
 21
367.941947
 31
0.0
  0
LINE
  5
1F9
100
AcDbEntity
  8
0
 62
     0
100
AcDbLine
 10
2029.558061
 20
369.558063
 30
0.0
 11
2029.999997
 21
370.0
 31
0.0
  0
LINE
  5
1FA
100
AcDbEntity
  8
0
 62
     0
100
AcDbLine
 10
2017.500002
 20
360.000005
 30
0.0
 11
2017.941944
 21
360.441947
 31
0.0
  0
LINE
  5
1FB
100
AcDbEntity
  8
0
 62
     0
100
AcDbLine
 10
2019.558061
 20
362.058063
 30
0.0
 11
2020.000002
 21
362.500005
 31
0.0
  0
LINE
  5
1FC
100
AcDbEntity
  8
0
 62
     0
100
AcDbLine
 10
2022.500002
 20
365.000005
 30
0.0
 11
2022.941944
 21
365.441947
 31
0.0
  0
LINE
  5
1FD
100
AcDbEntity
  8
0
 62
     0
100
AcDbLine
 10
2024.558061
 20
367.058063
 30
0.0
 11
2025.000002
 21
367.500005
 31
0.0
  0
LINE
  5
1FE
100
AcDbEntity
  8
0
 62
     0
100
AcDbLine
 10
2014.999997
 20
360.0
 30
0.0
 11
2015.000002
 21
360.000005
 31
0.0
  0
LINE
  5
1FF
100
AcDbEntity
  8
0
 62
     0
100
AcDbLine
 10
2017.500002
 20
362.500005
 30
0.0
 11
2017.941944
 21
362.941947
 31
0.0
  0
LINE
  5
200
100
AcDbEntity
  8
0
 62
     0
100
AcDbLine
 10
2019.558061
 20
364.558063
 30
0.0
 11
2020.000002
 21
365.000005
 31
0.0
  0
LINE
  5
201
100
AcDbEntity
  8
0
 62
     0
100
AcDbLine
 10
2022.500002
 20
367.500005
 30
0.0
 11
2022.941944
 21
367.941947
 31
0.0
  0
LINE
  5
202
100
AcDbEntity
  8
0
 62
     0
100
AcDbLine
 10
2024.558061
 20
369.558063
 30
0.0
 11
2024.999997
 21
370.0
 31
0.0
  0
LINE
  5
203
100
AcDbEntity
  8
0
 62
     0
100
AcDbLine
 10
2012.500002
 20
360.000005
 30
0.0
 11
2012.941944
 21
360.441947
 31
0.0
  0
LINE
  5
204
100
AcDbEntity
  8
0
 62
     0
100
AcDbLine
 10
2014.558061
 20
362.058063
 30
0.0
 11
2015.000002
 21
362.500005
 31
0.0
  0
LINE
  5
205
100
AcDbEntity
  8
0
 62
     0
100
AcDbLine
 10
2017.500002
 20
365.000005
 30
0.0
 11
2017.941944
 21
365.441947
 31
0.0
  0
LINE
  5
206
100
AcDbEntity
  8
0
 62
     0
100
AcDbLine
 10
2019.558061
 20
367.058063
 30
0.0
 11
2020.000002
 21
367.500005
 31
0.0
  0
LINE
  5
207
100
AcDbEntity
  8
0
 62
     0
100
AcDbLine
 10
2009.999997
 20
360.0
 30
0.0
 11
2010.000002
 21
360.000005
 31
0.0
  0
LINE
  5
208
100
AcDbEntity
  8
0
 62
     0
100
AcDbLine
 10
2012.500002
 20
362.500005
 30
0.0
 11
2012.941944
 21
362.941947
 31
0.0
  0
LINE
  5
209
100
AcDbEntity
  8
0
 62
     0
100
AcDbLine
 10
2014.558061
 20
364.558063
 30
0.0
 11
2015.000002
 21
365.000005
 31
0.0
  0
LINE
  5
20A
100
AcDbEntity
  8
0
 62
     0
100
AcDbLine
 10
2017.500002
 20
367.500005
 30
0.0
 11
2017.941944
 21
367.941947
 31
0.0
  0
LINE
  5
20B
100
AcDbEntity
  8
0
 62
     0
100
AcDbLine
 10
2019.558061
 20
369.558063
 30
0.0
 11
2019.999997
 21
370.0
 31
0.0
  0
LINE
  5
20C
100
AcDbEntity
  8
0
 62
     0
100
AcDbLine
 10
2007.500002
 20
360.000005
 30
0.0
 11
2007.941944
 21
360.441947
 31
0.0
  0
LINE
  5
20D
100
AcDbEntity
  8
0
 62
     0
100
AcDbLine
 10
2009.558061
 20
362.058063
 30
0.0
 11
2010.000002
 21
362.500005
 31
0.0
  0
LINE
  5
20E
100
AcDbEntity
  8
0
 62
     0
100
AcDbLine
 10
2012.500002
 20
365.000005
 30
0.0
 11
2012.941944
 21
365.441947
 31
0.0
  0
LINE
  5
20F
100
AcDbEntity
  8
0
 62
     0
100
AcDbLine
 10
2014.558061
 20
367.058063
 30
0.0
 11
2015.000002
 21
367.500005
 31
0.0
  0
LINE
  5
210
100
AcDbEntity
  8
0
 62
     0
100
AcDbLine
 10
2004.999997
 20
360.0
 30
0.0
 11
2005.000002
 21
360.000005
 31
0.0
  0
LINE
  5
211
100
AcDbEntity
  8
0
 62
     0
100
AcDbLine
 10
2007.500002
 20
362.500005
 30
0.0
 11
2007.941944
 21
362.941947
 31
0.0
  0
LINE
  5
212
100
AcDbEntity
  8
0
 62
     0
100
AcDbLine
 10
2009.558061
 20
364.558063
 30
0.0
 11
2010.000002
 21
365.000005
 31
0.0
  0
LINE
  5
213
100
AcDbEntity
  8
0
 62
     0
100
AcDbLine
 10
2012.500002
 20
367.500005
 30
0.0
 11
2012.941944
 21
367.941947
 31
0.0
  0
LINE
  5
214
100
AcDbEntity
  8
0
 62
     0
100
AcDbLine
 10
2014.558061
 20
369.558063
 30
0.0
 11
2014.999997
 21
370.0
 31
0.0
  0
LINE
  5
215
100
AcDbEntity
  8
0
 62
     0
100
AcDbLine
 10
2002.500002
 20
360.000005
 30
0.0
 11
2002.941944
 21
360.441947
 31
0.0
  0
LINE
  5
216
100
AcDbEntity
  8
0
 62
     0
100
AcDbLine
 10
2004.558061
 20
362.058063
 30
0.0
 11
2005.000002
 21
362.500005
 31
0.0
  0
LINE
  5
217
100
AcDbEntity
  8
0
 62
     0
100
AcDbLine
 10
2007.500002
 20
365.000005
 30
0.0
 11
2007.941944
 21
365.441947
 31
0.0
  0
LINE
  5
218
100
AcDbEntity
  8
0
 62
     0
100
AcDbLine
 10
2009.558061
 20
367.058063
 30
0.0
 11
2010.000002
 21
367.500005
 31
0.0
  0
LINE
  5
219
100
AcDbEntity
  8
0
 62
     0
100
AcDbLine
 10
1999.999997
 20
360.0
 30
0.0
 11
2000.000002
 21
360.000005
 31
0.0
  0
LINE
  5
21A
100
AcDbEntity
  8
0
 62
     0
100
AcDbLine
 10
2002.500002
 20
362.500005
 30
0.0
 11
2002.941944
 21
362.941947
 31
0.0
  0
LINE
  5
21B
100
AcDbEntity
  8
0
 62
     0
100
AcDbLine
 10
2004.558061
 20
364.558063
 30
0.0
 11
2005.000002
 21
365.000005
 31
0.0
  0
LINE
  5
21C
100
AcDbEntity
  8
0
 62
     0
100
AcDbLine
 10
2007.500002
 20
367.500005
 30
0.0
 11
2007.941944
 21
367.941947
 31
0.0
  0
LINE
  5
21D
100
AcDbEntity
  8
0
 62
     0
100
AcDbLine
 10
2009.558061
 20
369.558063
 30
0.0
 11
2009.999997
 21
370.0
 31
0.0
  0
LINE
  5
21E
100
AcDbEntity
  8
0
 62
     0
100
AcDbLine
 10
2000.0
 20
362.500003
 30
0.0
 11
2000.000002
 21
362.500005
 31
0.0
  0
LINE
  5
21F
100
AcDbEntity
  8
0
 62
     0
100
AcDbLine
 10
2002.500002
 20
365.000005
 30
0.0
 11
2002.941944
 21
365.441947
 31
0.0
  0
LINE
  5
220
100
AcDbEntity
  8
0
 62
     0
100
AcDbLine
 10
2004.558061
 20
367.058063
 30
0.0
 11
2005.000002
 21
367.500005
 31
0.0
  0
LINE
  5
221
100
AcDbEntity
  8
0
 62
     0
100
AcDbLine
 10
2000.0
 20
365.000003
 30
0.0
 11
2000.000002
 21
365.000005
 31
0.0
  0
LINE
  5
222
100
AcDbEntity
  8
0
 62
     0
100
AcDbLine
 10
2002.500002
 20
367.500005
 30
0.0
 11
2002.941944
 21
367.941947
 31
0.0
  0
LINE
  5
223
100
AcDbEntity
  8
0
 62
     0
100
AcDbLine
 10
2004.558061
 20
369.558063
 30
0.0
 11
2004.999997
 21
370.0
 31
0.0
  0
LINE
  5
224
100
AcDbEntity
  8
0
 62
     0
100
AcDbLine
 10
2000.0
 20
367.500003
 30
0.0
 11
2000.000002
 21
367.500005
 31
0.0
  0
LINE
  5
225
100
AcDbEntity
  8
0
 62
     0
100
AcDbLine
 10
2022.500002
 20
360.000005
 30
0.0
 11
2022.941944
 21
360.441947
 31
0.0
  0
LINE
  5
226
100
AcDbEntity
  8
0
 62
     0
100
AcDbLine
 10
2024.558061
 20
362.058063
 30
0.0
 11
2025.000002
 21
362.500005
 31
0.0
  0
LINE
  5
227
100
AcDbEntity
  8
0
 62
     0
100
AcDbLine
 10
2027.500002
 20
365.000005
 30
0.0
 11
2027.941944
 21
365.441947
 31
0.0
  0
LINE
  5
228
100
AcDbEntity
  8
0
 62
     0
100
AcDbLine
 10
2029.558061
 20
367.058063
 30
0.0
 11
2030.000002
 21
367.500005
 31
0.0
  0
LINE
  5
229
100
AcDbEntity
  8
0
 62
     0
100
AcDbLine
 10
2024.999997
 20
360.0
 30
0.0
 11
2025.000002
 21
360.000005
 31
0.0
  0
LINE
  5
22A
100
AcDbEntity
  8
0
 62
     0
100
AcDbLine
 10
2027.500002
 20
362.500005
 30
0.0
 11
2027.941944
 21
362.941947
 31
0.0
  0
LINE
  5
22B
100
AcDbEntity
  8
0
 62
     0
100
AcDbLine
 10
2029.558061
 20
364.558063
 30
0.0
 11
2030.000002
 21
365.000005
 31
0.0
  0
LINE
  5
22C
100
AcDbEntity
  8
0
 62
     0
100
AcDbLine
 10
2032.500002
 20
367.500005
 30
0.0
 11
2032.941944
 21
367.941947
 31
0.0
  0
LINE
  5
22D
100
AcDbEntity
  8
0
 62
     0
100
AcDbLine
 10
2034.558061
 20
369.558063
 30
0.0
 11
2034.999997
 21
370.0
 31
0.0
  0
LINE
  5
22E
100
AcDbEntity
  8
0
 62
     0
100
AcDbLine
 10
2027.500002
 20
360.000005
 30
0.0
 11
2027.941944
 21
360.441947
 31
0.0
  0
LINE
  5
22F
100
AcDbEntity
  8
0
 62
     0
100
AcDbLine
 10
2029.558061
 20
362.058063
 30
0.0
 11
2030.000002
 21
362.500005
 31
0.0
  0
LINE
  5
230
100
AcDbEntity
  8
0
 62
     0
100
AcDbLine
 10
2032.500002
 20
365.000005
 30
0.0
 11
2032.941944
 21
365.441947
 31
0.0
  0
LINE
  5
231
100
AcDbEntity
  8
0
 62
     0
100
AcDbLine
 10
2034.558061
 20
367.058063
 30
0.0
 11
2035.000002
 21
367.500005
 31
0.0
  0
LINE
  5
232
100
AcDbEntity
  8
0
 62
     0
100
AcDbLine
 10
2029.999997
 20
360.0
 30
0.0
 11
2030.000002
 21
360.000005
 31
0.0
  0
LINE
  5
233
100
AcDbEntity
  8
0
 62
     0
100
AcDbLine
 10
2032.500002
 20
362.500005
 30
0.0
 11
2032.941944
 21
362.941947
 31
0.0
  0
LINE
  5
234
100
AcDbEntity
  8
0
 62
     0
100
AcDbLine
 10
2034.558061
 20
364.558063
 30
0.0
 11
2035.000002
 21
365.000005
 31
0.0
  0
LINE
  5
235
100
AcDbEntity
  8
0
 62
     0
100
AcDbLine
 10
2037.500002
 20
367.500005
 30
0.0
 11
2037.941944
 21
367.941947
 31
0.0
  0
LINE
  5
236
100
AcDbEntity
  8
0
 62
     0
100
AcDbLine
 10
2039.558061
 20
369.558063
 30
0.0
 11
2039.999997
 21
370.0
 31
0.0
  0
LINE
  5
237
100
AcDbEntity
  8
0
 62
     0
100
AcDbLine
 10
2032.500002
 20
360.000005
 30
0.0
 11
2032.941944
 21
360.441947
 31
0.0
  0
LINE
  5
238
100
AcDbEntity
  8
0
 62
     0
100
AcDbLine
 10
2034.558061
 20
362.058063
 30
0.0
 11
2035.000002
 21
362.500005
 31
0.0
  0
LINE
  5
239
100
AcDbEntity
  8
0
 62
     0
100
AcDbLine
 10
2037.500002
 20
365.000005
 30
0.0
 11
2037.941944
 21
365.441947
 31
0.0
  0
LINE
  5
23A
100
AcDbEntity
  8
0
 62
     0
100
AcDbLine
 10
2039.558061
 20
367.058063
 30
0.0
 11
2040.000002
 21
367.500005
 31
0.0
  0
LINE
  5
23B
100
AcDbEntity
  8
0
 62
     0
100
AcDbLine
 10
2034.999997
 20
360.0
 30
0.0
 11
2035.000002
 21
360.000005
 31
0.0
  0
LINE
  5
23C
100
AcDbEntity
  8
0
 62
     0
100
AcDbLine
 10
2037.500002
 20
362.500005
 30
0.0
 11
2037.941944
 21
362.941947
 31
0.0
  0
LINE
  5
23D
100
AcDbEntity
  8
0
 62
     0
100
AcDbLine
 10
2039.558061
 20
364.558063
 30
0.0
 11
2040.000002
 21
365.000005
 31
0.0
  0
LINE
  5
23E
100
AcDbEntity
  8
0
 62
     0
100
AcDbLine
 10
2042.500002
 20
367.500005
 30
0.0
 11
2042.941944
 21
367.941947
 31
0.0
  0
LINE
  5
23F
100
AcDbEntity
  8
0
 62
     0
100
AcDbLine
 10
2044.558061
 20
369.558063
 30
0.0
 11
2044.999997
 21
370.0
 31
0.0
  0
LINE
  5
240
100
AcDbEntity
  8
0
 62
     0
100
AcDbLine
 10
2037.500002
 20
360.000005
 30
0.0
 11
2037.941944
 21
360.441947
 31
0.0
  0
LINE
  5
241
100
AcDbEntity
  8
0
 62
     0
100
AcDbLine
 10
2039.558061
 20
362.058063
 30
0.0
 11
2040.000002
 21
362.500005
 31
0.0
  0
LINE
  5
242
100
AcDbEntity
  8
0
 62
     0
100
AcDbLine
 10
2042.500002
 20
365.000005
 30
0.0
 11
2042.941944
 21
365.441947
 31
0.0
  0
LINE
  5
243
100
AcDbEntity
  8
0
 62
     0
100
AcDbLine
 10
2044.558061
 20
367.058063
 30
0.0
 11
2045.000002
 21
367.500005
 31
0.0
  0
LINE
  5
244
100
AcDbEntity
  8
0
 62
     0
100
AcDbLine
 10
2039.999997
 20
360.0
 30
0.0
 11
2040.000002
 21
360.000005
 31
0.0
  0
LINE
  5
245
100
AcDbEntity
  8
0
 62
     0
100
AcDbLine
 10
2042.500002
 20
362.500005
 30
0.0
 11
2042.941944
 21
362.941947
 31
0.0
  0
LINE
  5
246
100
AcDbEntity
  8
0
 62
     0
100
AcDbLine
 10
2044.558061
 20
364.558063
 30
0.0
 11
2045.000002
 21
365.000005
 31
0.0
  0
LINE
  5
247
100
AcDbEntity
  8
0
 62
     0
100
AcDbLine
 10
2047.500002
 20
367.500005
 30
0.0
 11
2047.941944
 21
367.941947
 31
0.0
  0
LINE
  5
248
100
AcDbEntity
  8
0
 62
     0
100
AcDbLine
 10
2049.558061
 20
369.558063
 30
0.0
 11
2049.999997
 21
370.0
 31
0.0
  0
LINE
  5
249
100
AcDbEntity
  8
0
 62
     0
100
AcDbLine
 10
2042.500002
 20
360.000005
 30
0.0
 11
2042.941944
 21
360.441947
 31
0.0
  0
LINE
  5
24A
100
AcDbEntity
  8
0
 62
     0
100
AcDbLine
 10
2044.558061
 20
362.058063
 30
0.0
 11
2045.000002
 21
362.500005
 31
0.0
  0
LINE
  5
24B
100
AcDbEntity
  8
0
 62
     0
100
AcDbLine
 10
2047.500002
 20
365.000005
 30
0.0
 11
2047.941944
 21
365.441947
 31
0.0
  0
LINE
  5
24C
100
AcDbEntity
  8
0
 62
     0
100
AcDbLine
 10
2049.558061
 20
367.058063
 30
0.0
 11
2050.0
 21
367.500003
 31
0.0
  0
LINE
  5
24D
100
AcDbEntity
  8
0
 62
     0
100
AcDbLine
 10
2044.999997
 20
360.0
 30
0.0
 11
2045.000002
 21
360.000005
 31
0.0
  0
LINE
  5
24E
100
AcDbEntity
  8
0
 62
     0
100
AcDbLine
 10
2047.500002
 20
362.500005
 30
0.0
 11
2047.941944
 21
362.941947
 31
0.0
  0
LINE
  5
24F
100
AcDbEntity
  8
0
 62
     0
100
AcDbLine
 10
2049.558061
 20
364.558063
 30
0.0
 11
2050.0
 21
365.000003
 31
0.0
  0
LINE
  5
250
100
AcDbEntity
  8
0
 62
     0
100
AcDbLine
 10
2047.500002
 20
360.000005
 30
0.0
 11
2047.941944
 21
360.441947
 31
0.0
  0
LINE
  5
251
100
AcDbEntity
  8
0
 62
     0
100
AcDbLine
 10
2049.558061
 20
362.058063
 30
0.0
 11
2050.0
 21
362.500003
 31
0.0
  0
ENDBLK
  5
253
100
AcDbEntity
  8
0
100
AcDbBlockEnd
  0
BLOCK
  5
1BF
100
AcDbEntity
  8
0
100
AcDbBlockBegin
  2
*X2
 70
     1
 10
0.0
 20
0.0
 30
0.0
  3
*X2
  1

  0
LINE
  5
144
100
AcDbEntity
  8
0
 62
     0
100
AcDbLine
 10
1705.0
 20
395.0
 30
0.0
 11
1707.5
 21
395.0
 31
0.0
  0
LINE
  5
145
100
AcDbEntity
  8
0
 62
     0
100
AcDbLine
 10
1710.0
 20
395.0
 30
0.0
 11
1712.5
 21
395.0
 31
0.0
  0
LINE
  5
146
100
AcDbEntity
  8
0
 62
     0
100
AcDbLine
 10
1715.0
 20
395.0
 30
0.0
 11
1717.5
 21
395.0
 31
0.0
  0
LINE
  5
147
100
AcDbEntity
  8
0
 62
     0
100
AcDbLine
 10
1720.0
 20
395.0
 30
0.0
 11
1722.5
 21
395.0
 31
0.0
  0
LINE
  5
148
100
AcDbEntity
  8
0
 62
     0
100
AcDbLine
 10
1725.0
 20
395.0
 30
0.0
 11
1727.5
 21
395.0
 31
0.0
  0
LINE
  5
149
100
AcDbEntity
  8
0
 62
     0
100
AcDbLine
 10
1730.0
 20
395.0
 30
0.0
 11
1732.5
 21
395.0
 31
0.0
  0
LINE
  5
14A
100
AcDbEntity
  8
0
 62
     0
100
AcDbLine
 10
1735.0
 20
395.0
 30
0.0
 11
1737.5
 21
395.0
 31
0.0
  0
LINE
  5
14B
100
AcDbEntity
  8
0
 62
     0
100
AcDbLine
 10
1740.0
 20
395.0
 30
0.0
 11
1742.5
 21
395.0
 31
0.0
  0
LINE
  5
14C
100
AcDbEntity
  8
0
 62
     0
100
AcDbLine
 10
1745.0
 20
395.0
 30
0.0
 11
1747.5
 21
395.0
 31
0.0
  0
LINE
  5
14D
100
AcDbEntity
  8
0
 62
     0
100
AcDbLine
 10
1750.0
 20
395.0
 30
0.0
 11
1752.5
 21
395.0
 31
0.0
  0
LINE
  5
14E
100
AcDbEntity
  8
0
 62
     0
100
AcDbLine
 10
1705.0
 20
397.5
 30
0.0
 11
1707.5
 21
397.5
 31
0.0
  0
LINE
  5
14F
100
AcDbEntity
  8
0
 62
     0
100
AcDbLine
 10
1710.0
 20
397.5
 30
0.0
 11
1712.5
 21
397.5
 31
0.0
  0
LINE
  5
150
100
AcDbEntity
  8
0
 62
     0
100
AcDbLine
 10
1715.0
 20
397.5
 30
0.0
 11
1717.5
 21
397.5
 31
0.0
  0
LINE
  5
151
100
AcDbEntity
  8
0
 62
     0
100
AcDbLine
 10
1720.0
 20
397.5
 30
0.0
 11
1722.5
 21
397.5
 31
0.0
  0
LINE
  5
152
100
AcDbEntity
  8
0
 62
     0
100
AcDbLine
 10
1725.0
 20
397.5
 30
0.0
 11
1727.5
 21
397.5
 31
0.0
  0
LINE
  5
153
100
AcDbEntity
  8
0
 62
     0
100
AcDbLine
 10
1730.0
 20
397.5
 30
0.0
 11
1732.5
 21
397.5
 31
0.0
  0
LINE
  5
154
100
AcDbEntity
  8
0
 62
     0
100
AcDbLine
 10
1735.0
 20
397.5
 30
0.0
 11
1737.5
 21
397.5
 31
0.0
  0
LINE
  5
155
100
AcDbEntity
  8
0
 62
     0
100
AcDbLine
 10
1740.0
 20
397.5
 30
0.0
 11
1742.5
 21
397.5
 31
0.0
  0
LINE
  5
156
100
AcDbEntity
  8
0
 62
     0
100
AcDbLine
 10
1745.0
 20
397.5
 30
0.0
 11
1747.5
 21
397.5
 31
0.0
  0
LINE
  5
157
100
AcDbEntity
  8
0
 62
     0
100
AcDbLine
 10
1750.0
 20
397.5
 30
0.0
 11
1752.5
 21
397.5
 31
0.0
  0
LINE
  5
158
100
AcDbEntity
  8
0
 62
     0
100
AcDbLine
 10
1705.0
 20
392.5
 30
0.0
 11
1707.5
 21
392.5
 31
0.0
  0
LINE
  5
159
100
AcDbEntity
  8
0
 62
     0
100
AcDbLine
 10
1710.0
 20
392.5
 30
0.0
 11
1712.5
 21
392.5
 31
0.0
  0
LINE
  5
15A
100
AcDbEntity
  8
0
 62
     0
100
AcDbLine
 10
1715.0
 20
392.5
 30
0.0
 11
1717.5
 21
392.5
 31
0.0
  0
LINE
  5
15B
100
AcDbEntity
  8
0
 62
     0
100
AcDbLine
 10
1720.0
 20
392.5
 30
0.0
 11
1722.5
 21
392.5
 31
0.0
  0
LINE
  5
15C
100
AcDbEntity
  8
0
 62
     0
100
AcDbLine
 10
1725.0
 20
392.5
 30
0.0
 11
1727.5
 21
392.5
 31
0.0
  0
LINE
  5
15D
100
AcDbEntity
  8
0
 62
     0
100
AcDbLine
 10
1730.0
 20
392.5
 30
0.0
 11
1732.5
 21
392.5
 31
0.0
  0
LINE
  5
15E
100
AcDbEntity
  8
0
 62
     0
100
AcDbLine
 10
1735.0
 20
392.5
 30
0.0
 11
1737.5
 21
392.5
 31
0.0
  0
LINE
  5
15F
100
AcDbEntity
  8
0
 62
     0
100
AcDbLine
 10
1740.0
 20
392.5
 30
0.0
 11
1742.5
 21
392.5
 31
0.0
  0
LINE
  5
160
100
AcDbEntity
  8
0
 62
     0
100
AcDbLine
 10
1745.0
 20
392.5
 30
0.0
 11
1747.5
 21
392.5
 31
0.0
  0
LINE
  5
161
100
AcDbEntity
  8
0
 62
     0
100
AcDbLine
 10
1750.0
 20
392.5
 30
0.0
 11
1752.5
 21
392.5
 31
0.0
  0
LINE
  5
162
100
AcDbEntity
  8
0
 62
     0
100
AcDbLine
 10
1724.999998
 20
390.0
 30
0.0
 11
1725.000002
 21
390.000004
 31
0.0
  0
LINE
  5
163
100
AcDbEntity
  8
0
 62
     0
100
AcDbLine
 10
1727.500002
 20
392.500004
 30
0.0
 11
1727.941944
 21
392.941946
 31
0.0
  0
LINE
  5
164
100
AcDbEntity
  8
0
 62
     0
100
AcDbLine
 10
1729.55806
 20
394.558062
 30
0.0
 11
1730.000002
 21
395.000004
 31
0.0
  0
LINE
  5
165
100
AcDbEntity
  8
0
 62
     0
100
AcDbLine
 10
1732.500002
 20
397.500004
 30
0.0
 11
1732.941944
 21
397.941946
 31
0.0
  0
LINE
  5
166
100
AcDbEntity
  8
0
 62
     0
100
AcDbLine
 10
1734.55806
 20
399.558062
 30
0.0
 11
1734.999998
 21
400.0
 31
0.0
  0
LINE
  5
167
100
AcDbEntity
  8
0
 62
     0
100
AcDbLine
 10
1722.500002
 20
390.000004
 30
0.0
 11
1722.941944
 21
390.441946
 31
0.0
  0
LINE
  5
168
100
AcDbEntity
  8
0
 62
     0
100
AcDbLine
 10
1724.55806
 20
392.058062
 30
0.0
 11
1725.000002
 21
392.500004
 31
0.0
  0
LINE
  5
169
100
AcDbEntity
  8
0
 62
     0
100
AcDbLine
 10
1727.500002
 20
395.000004
 30
0.0
 11
1727.941944
 21
395.441946
 31
0.0
  0
LINE
  5
16A
100
AcDbEntity
  8
0
 62
     0
100
AcDbLine
 10
1729.55806
 20
397.058062
 30
0.0
 11
1730.000002
 21
397.500004
 31
0.0
  0
LINE
  5
16B
100
AcDbEntity
  8
0
 62
     0
100
AcDbLine
 10
1719.999998
 20
390.0
 30
0.0
 11
1720.000002
 21
390.000004
 31
0.0
  0
LINE
  5
16C
100
AcDbEntity
  8
0
 62
     0
100
AcDbLine
 10
1722.500002
 20
392.500004
 30
0.0
 11
1722.941944
 21
392.941946
 31
0.0
  0
LINE
  5
16D
100
AcDbEntity
  8
0
 62
     0
100
AcDbLine
 10
1724.55806
 20
394.558062
 30
0.0
 11
1725.000002
 21
395.000004
 31
0.0
  0
LINE
  5
16E
100
AcDbEntity
  8
0
 62
     0
100
AcDbLine
 10
1727.500002
 20
397.500004
 30
0.0
 11
1727.941944
 21
397.941946
 31
0.0
  0
LINE
  5
16F
100
AcDbEntity
  8
0
 62
     0
100
AcDbLine
 10
1729.55806
 20
399.558062
 30
0.0
 11
1729.999998
 21
400.0
 31
0.0
  0
LINE
  5
170
100
AcDbEntity
  8
0
 62
     0
100
AcDbLine
 10
1717.500002
 20
390.000004
 30
0.0
 11
1717.941944
 21
390.441946
 31
0.0
  0
LINE
  5
171
100
AcDbEntity
  8
0
 62
     0
100
AcDbLine
 10
1719.55806
 20
392.058062
 30
0.0
 11
1720.000002
 21
392.500004
 31
0.0
  0
LINE
  5
172
100
AcDbEntity
  8
0
 62
     0
100
AcDbLine
 10
1722.500002
 20
395.000004
 30
0.0
 11
1722.941944
 21
395.441946
 31
0.0
  0
LINE
  5
173
100
AcDbEntity
  8
0
 62
     0
100
AcDbLine
 10
1724.55806
 20
397.058062
 30
0.0
 11
1725.000002
 21
397.500004
 31
0.0
  0
LINE
  5
174
100
AcDbEntity
  8
0
 62
     0
100
AcDbLine
 10
1714.999998
 20
390.0
 30
0.0
 11
1715.000002
 21
390.000004
 31
0.0
  0
LINE
  5
175
100
AcDbEntity
  8
0
 62
     0
100
AcDbLine
 10
1717.500002
 20
392.500004
 30
0.0
 11
1717.941944
 21
392.941946
 31
0.0
  0
LINE
  5
176
100
AcDbEntity
  8
0
 62
     0
100
AcDbLine
 10
1719.55806
 20
394.558062
 30
0.0
 11
1720.000002
 21
395.000004
 31
0.0
  0
LINE
  5
177
100
AcDbEntity
  8
0
 62
     0
100
AcDbLine
 10
1722.500002
 20
397.500004
 30
0.0
 11
1722.941944
 21
397.941946
 31
0.0
  0
LINE
  5
178
100
AcDbEntity
  8
0
 62
     0
100
AcDbLine
 10
1724.55806
 20
399.558062
 30
0.0
 11
1724.999998
 21
400.0
 31
0.0
  0
LINE
  5
179
100
AcDbEntity
  8
0
 62
     0
100
AcDbLine
 10
1712.500002
 20
390.000004
 30
0.0
 11
1712.941944
 21
390.441946
 31
0.0
  0
LINE
  5
17A
100
AcDbEntity
  8
0
 62
     0
100
AcDbLine
 10
1714.55806
 20
392.058062
 30
0.0
 11
1715.000002
 21
392.500004
 31
0.0
  0
LINE
  5
17B
100
AcDbEntity
  8
0
 62
     0
100
AcDbLine
 10
1717.500002
 20
395.000004
 30
0.0
 11
1717.941944
 21
395.441946
 31
0.0
  0
LINE
  5
17C
100
AcDbEntity
  8
0
 62
     0
100
AcDbLine
 10
1719.55806
 20
397.058062
 30
0.0
 11
1720.000002
 21
397.500004
 31
0.0
  0
LINE
  5
17D
100
AcDbEntity
  8
0
 62
     0
100
AcDbLine
 10
1709.999998
 20
390.0
 30
0.0
 11
1710.000002
 21
390.000004
 31
0.0
  0
LINE
  5
17E
100
AcDbEntity
  8
0
 62
     0
100
AcDbLine
 10
1712.500002
 20
392.500004
 30
0.0
 11
1712.941944
 21
392.941946
 31
0.0
  0
LINE
  5
17F
100
AcDbEntity
  8
0
 62
     0
100
AcDbLine
 10
1714.55806
 20
394.558062
 30
0.0
 11
1715.000002
 21
395.000004
 31
0.0
  0
LINE
  5
180
100
AcDbEntity
  8
0
 62
     0
100
AcDbLine
 10
1717.500002
 20
397.500004
 30
0.0
 11
1717.941944
 21
397.941946
 31
0.0
  0
LINE
  5
181
100
AcDbEntity
  8
0
 62
     0
100
AcDbLine
 10
1719.55806
 20
399.558062
 30
0.0
 11
1719.999998
 21
400.0
 31
0.0
  0
LINE
  5
182
100
AcDbEntity
  8
0
 62
     0
100
AcDbLine
 10
1707.500002
 20
390.000004
 30
0.0
 11
1707.941944
 21
390.441946
 31
0.0
  0
LINE
  5
183
100
AcDbEntity
  8
0
 62
     0
100
AcDbLine
 10
1709.55806
 20
392.058062
 30
0.0
 11
1710.000002
 21
392.500004
 31
0.0
  0
LINE
  5
184
100
AcDbEntity
  8
0
 62
     0
100
AcDbLine
 10
1712.500002
 20
395.000004
 30
0.0
 11
1712.941944
 21
395.441946
 31
0.0
  0
LINE
  5
185
100
AcDbEntity
  8
0
 62
     0
100
AcDbLine
 10
1714.55806
 20
397.058062
 30
0.0
 11
1715.000002
 21
397.500004
 31
0.0
  0
LINE
  5
186
100
AcDbEntity
  8
0
 62
     0
100
AcDbLine
 10
1704.999998
 20
390.0
 30
0.0
 11
1705.000002
 21
390.000004
 31
0.0
  0
LINE
  5
187
100
AcDbEntity
  8
0
 62
     0
100
AcDbLine
 10
1707.500002
 20
392.500004
 30
0.0
 11
1707.941944
 21
392.941946
 31
0.0
  0
LINE
  5
188
100
AcDbEntity
  8
0
 62
     0
100
AcDbLine
 10
1709.55806
 20
394.558062
 30
0.0
 11
1710.000002
 21
395.000004
 31
0.0
  0
LINE
  5
189
100
AcDbEntity
  8
0
 62
     0
100
AcDbLine
 10
1712.500002
 20
397.500004
 30
0.0
 11
1712.941944
 21
397.941946
 31
0.0
  0
LINE
  5
18A
100
AcDbEntity
  8
0
 62
     0
100
AcDbLine
 10
1714.55806
 20
399.558062
 30
0.0
 11
1714.999998
 21
400.0
 31
0.0
  0
LINE
  5
18B
100
AcDbEntity
  8
0
 62
     0
100
AcDbLine
 10
1705.0
 20
392.500002
 30
0.0
 11
1705.000002
 21
392.500004
 31
0.0
  0
LINE
  5
18C
100
AcDbEntity
  8
0
 62
     0
100
AcDbLine
 10
1707.500002
 20
395.000004
 30
0.0
 11
1707.941944
 21
395.441946
 31
0.0
  0
LINE
  5
18D
100
AcDbEntity
  8
0
 62
     0
100
AcDbLine
 10
1709.55806
 20
397.058062
 30
0.0
 11
1710.000002
 21
397.500004
 31
0.0
  0
LINE
  5
18E
100
AcDbEntity
  8
0
 62
     0
100
AcDbLine
 10
1705.0
 20
395.000002
 30
0.0
 11
1705.000002
 21
395.000004
 31
0.0
  0
LINE
  5
18F
100
AcDbEntity
  8
0
 62
     0
100
AcDbLine
 10
1707.500002
 20
397.500004
 30
0.0
 11
1707.941944
 21
397.941946
 31
0.0
  0
LINE
  5
190
100
AcDbEntity
  8
0
 62
     0
100
AcDbLine
 10
1709.55806
 20
399.558062
 30
0.0
 11
1709.999998
 21
400.0
 31
0.0
  0
LINE
  5
191
100
AcDbEntity
  8
0
 62
     0
100
AcDbLine
 10
1705.0
 20
397.500002
 30
0.0
 11
1705.000002
 21
397.500004
 31
0.0
  0
LINE
  5
192
100
AcDbEntity
  8
0
 62
     0
100
AcDbLine
 10
1727.500002
 20
390.000004
 30
0.0
 11
1727.941944
 21
390.441946
 31
0.0
  0
LINE
  5
193
100
AcDbEntity
  8
0
 62
     0
100
AcDbLine
 10
1729.55806
 20
392.058062
 30
0.0
 11
1730.000002
 21
392.500004
 31
0.0
  0
LINE
  5
194
100
AcDbEntity
  8
0
 62
     0
100
AcDbLine
 10
1732.500002
 20
395.000004
 30
0.0
 11
1732.941944
 21
395.441946
 31
0.0
  0
LINE
  5
195
100
AcDbEntity
  8
0
 62
     0
100
AcDbLine
 10
1734.55806
 20
397.058062
 30
0.0
 11
1735.000002
 21
397.500004
 31
0.0
  0
LINE
  5
196
100
AcDbEntity
  8
0
 62
     0
100
AcDbLine
 10
1729.999998
 20
390.0
 30
0.0
 11
1730.000002
 21
390.000004
 31
0.0
  0
LINE
  5
197
100
AcDbEntity
  8
0
 62
     0
100
AcDbLine
 10
1732.500002
 20
392.500004
 30
0.0
 11
1732.941944
 21
392.941946
 31
0.0
  0
LINE
  5
198
100
AcDbEntity
  8
0
 62
     0
100
AcDbLine
 10
1734.55806
 20
394.558062
 30
0.0
 11
1735.000002
 21
395.000004
 31
0.0
  0
LINE
  5
199
100
AcDbEntity
  8
0
 62
     0
100
AcDbLine
 10
1737.500002
 20
397.500004
 30
0.0
 11
1737.941944
 21
397.941946
 31
0.0
  0
LINE
  5
19A
100
AcDbEntity
  8
0
 62
     0
100
AcDbLine
 10
1739.55806
 20
399.558063
 30
0.0
 11
1739.999998
 21
400.0
 31
0.0
  0
LINE
  5
19B
100
AcDbEntity
  8
0
 62
     0
100
AcDbLine
 10
1732.500002
 20
390.000004
 30
0.0
 11
1732.941944
 21
390.441946
 31
0.0
  0
LINE
  5
19C
100
AcDbEntity
  8
0
 62
     0
100
AcDbLine
 10
1734.55806
 20
392.058063
 30
0.0
 11
1735.000002
 21
392.500004
 31
0.0
  0
LINE
  5
19D
100
AcDbEntity
  8
0
 62
     0
100
AcDbLine
 10
1737.500002
 20
395.000004
 30
0.0
 11
1737.941944
 21
395.441946
 31
0.0
  0
LINE
  5
19E
100
AcDbEntity
  8
0
 62
     0
100
AcDbLine
 10
1739.55806
 20
397.058063
 30
0.0
 11
1740.000002
 21
397.500004
 31
0.0
  0
LINE
  5
19F
100
AcDbEntity
  8
0
 62
     0
100
AcDbLine
 10
1734.999998
 20
390.0
 30
0.0
 11
1735.000002
 21
390.000004
 31
0.0
  0
LINE
  5
1A0
100
AcDbEntity
  8
0
 62
     0
100
AcDbLine
 10
1737.500002
 20
392.500004
 30
0.0
 11
1737.941944
 21
392.941946
 31
0.0
  0
LINE
  5
1A1
100
AcDbEntity
  8
0
 62
     0
100
AcDbLine
 10
1739.55806
 20
394.558063
 30
0.0
 11
1740.000002
 21
395.000004
 31
0.0
  0
LINE
  5
1A2
100
AcDbEntity
  8
0
 62
     0
100
AcDbLine
 10
1742.500002
 20
397.500004
 30
0.0
 11
1742.941944
 21
397.941946
 31
0.0
  0
LINE
  5
1A3
100
AcDbEntity
  8
0
 62
     0
100
AcDbLine
 10
1744.55806
 20
399.558063
 30
0.0
 11
1744.999998
 21
400.0
 31
0.0
  0
LINE
  5
1A4
100
AcDbEntity
  8
0
 62
     0
100
AcDbLine
 10
1737.500002
 20
390.000004
 30
0.0
 11
1737.941944
 21
390.441946
 31
0.0
  0
LINE
  5
1A5
100
AcDbEntity
  8
0
 62
     0
100
AcDbLine
 10
1739.55806
 20
392.058063
 30
0.0
 11
1740.000002
 21
392.500004
 31
0.0
  0
LINE
  5
1A6
100
AcDbEntity
  8
0
 62
     0
100
AcDbLine
 10
1742.500002
 20
395.000004
 30
0.0
 11
1742.941944
 21
395.441946
 31
0.0
  0
LINE
  5
1A7
100
AcDbEntity
  8
0
 62
     0
100
AcDbLine
 10
1744.55806
 20
397.058063
 30
0.0
 11
1745.000002
 21
397.500004
 31
0.0
  0
LINE
  5
1A8
100
AcDbEntity
  8
0
 62
     0
100
AcDbLine
 10
1739.999998
 20
390.0
 30
0.0
 11
1740.000002
 21
390.000004
 31
0.0
  0
LINE
  5
1A9
100
AcDbEntity
  8
0
 62
     0
100
AcDbLine
 10
1742.500002
 20
392.500004
 30
0.0
 11
1742.941944
 21
392.941946
 31
0.0
  0
LINE
  5
1AA
100
AcDbEntity
  8
0
 62
     0
100
AcDbLine
 10
1744.55806
 20
394.558063
 30
0.0
 11
1745.000002
 21
395.000004
 31
0.0
  0
LINE
  5
1AB
100
AcDbEntity
  8
0
 62
     0
100
AcDbLine
 10
1747.500002
 20
397.500004
 30
0.0
 11
1747.941944
 21
397.941946
 31
0.0
  0
LINE
  5
1AC
100
AcDbEntity
  8
0
 62
     0
100
AcDbLine
 10
1749.55806
 20
399.558063
 30
0.0
 11
1749.999998
 21
400.0
 31
0.0
  0
LINE
  5
1AD
100
AcDbEntity
  8
0
 62
     0
100
AcDbLine
 10
1742.500002
 20
390.000004
 30
0.0
 11
1742.941944
 21
390.441946
 31
0.0
  0
LINE
  5
1AE
100
AcDbEntity
  8
0
 62
     0
100
AcDbLine
 10
1744.55806
 20
392.058063
 30
0.0
 11
1745.000002
 21
392.500004
 31
0.0
  0
LINE
  5
1AF
100
AcDbEntity
  8
0
 62
     0
100
AcDbLine
 10
1747.500002
 20
395.000004
 30
0.0
 11
1747.941944
 21
395.441946
 31
0.0
  0
LINE
  5
1B0
100
AcDbEntity
  8
0
 62
     0
100
AcDbLine
 10
1749.55806
 20
397.058063
 30
0.0
 11
1750.000002
 21
397.500004
 31
0.0
  0
LINE
  5
1B1
100
AcDbEntity
  8
0
 62
     0
100
AcDbLine
 10
1744.999998
 20
390.0
 30
0.0
 11
1745.000002
 21
390.000004
 31
0.0
  0
LINE
  5
1B2
100
AcDbEntity
  8
0
 62
     0
100
AcDbLine
 10
1747.500002
 20
392.500004
 30
0.0
 11
1747.941944
 21
392.941946
 31
0.0
  0
LINE
  5
1B3
100
AcDbEntity
  8
0
 62
     0
100
AcDbLine
 10
1749.55806
 20
394.558063
 30
0.0
 11
1750.000002
 21
395.000004
 31
0.0
  0
LINE
  5
1B4
100
AcDbEntity
  8
0
 62
     0
100
AcDbLine
 10
1752.500002
 20
397.500004
 30
0.0
 11
1752.941944
 21
397.941946
 31
0.0
  0
LINE
  5
1B5
100
AcDbEntity
  8
0
 62
     0
100
AcDbLine
 10
1754.55806
 20
399.558063
 30
0.0
 11
1754.999998
 21
400.0
 31
0.0
  0
LINE
  5
1B6
100
AcDbEntity
  8
0
 62
     0
100
AcDbLine
 10
1747.500002
 20
390.000004
 30
0.0
 11
1747.941944
 21
390.441946
 31
0.0
  0
LINE
  5
1B7
100
AcDbEntity
  8
0
 62
     0
100
AcDbLine
 10
1749.55806
 20
392.058063
 30
0.0
 11
1750.000002
 21
392.500004
 31
0.0
  0
LINE
  5
1B8
100
AcDbEntity
  8
0
 62
     0
100
AcDbLine
 10
1752.500002
 20
395.000004
 30
0.0
 11
1752.941944
 21
395.441946
 31
0.0
  0
LINE
  5
1B9
100
AcDbEntity
  8
0
 62
     0
100
AcDbLine
 10
1754.55806
 20
397.058063
 30
0.0
 11
1755.0
 21
397.500002
 31
0.0
  0
LINE
  5
1BA
100
AcDbEntity
  8
0
 62
     0
100
AcDbLine
 10
1749.999998
 20
390.0
 30
0.0
 11
1750.000002
 21
390.000004
 31
0.0
  0
LINE
  5
1BB
100
AcDbEntity
  8
0
 62
     0
100
AcDbLine
 10
1752.500002
 20
392.500004
 30
0.0
 11
1752.941944
 21
392.941946
 31
0.0
  0
LINE
  5
1BC
100
AcDbEntity
  8
0
 62
     0
100
AcDbLine
 10
1754.55806
 20
394.558063
 30
0.0
 11
1755.0
 21
395.000002
 31
0.0
  0
LINE
  5
1BD
100
AcDbEntity
  8
0
 62
     0
100
AcDbLine
 10
1752.500002
 20
390.000004
 30
0.0
 11
1752.941944
 21
390.441946
 31
0.0
  0
LINE
  5
1BE
100
AcDbEntity
  8
0
 62
     0
100
AcDbLine
 10
1754.55806
 20
392.058063
 30
0.0
 11
1755.0
 21
392.500002
 31
0.0
  0
ENDBLK
  5
1C0
100
AcDbEntity
  8
0
100
AcDbBlockEnd
  0
BLOCK
  5
130
100
AcDbEntity
  8
0
100
AcDbBlockBegin
  2
*X3
 70
     1
 10
0.0
 20
0.0
 30
0.0
  3
*X3
  1

  0
LINE
  5
B5
100
AcDbEntity
  8
0
 62
     0
100
AcDbLine
 10
1800.0
 20
395.0
 30
0.0
 11
1802.5
 21
395.0
 31
0.0
  0
LINE
  5
B6
100
AcDbEntity
  8
0
 62
     0
100
AcDbLine
 10
1805.0
 20
395.0
 30
0.0
 11
1807.5
 21
395.0
 31
0.0
  0
LINE
  5
B7
100
AcDbEntity
  8
0
 62
     0
100
AcDbLine
 10
1810.0
 20
395.0
 30
0.0
 11
1812.5
 21
395.0
 31
0.0
  0
LINE
  5
B8
100
AcDbEntity
  8
0
 62
     0
100
AcDbLine
 10
1815.0
 20
395.0
 30
0.0
 11
1817.5
 21
395.0
 31
0.0
  0
LINE
  5
B9
100
AcDbEntity
  8
0
 62
     0
100
AcDbLine
 10
1820.0
 20
395.0
 30
0.0
 11
1822.5
 21
395.0
 31
0.0
  0
LINE
  5
BA
100
AcDbEntity
  8
0
 62
     0
100
AcDbLine
 10
1825.0
 20
395.0
 30
0.0
 11
1827.5
 21
395.0
 31
0.0
  0
LINE
  5
BB
100
AcDbEntity
  8
0
 62
     0
100
AcDbLine
 10
1830.0
 20
395.0
 30
0.0
 11
1832.5
 21
395.0
 31
0.0
  0
LINE
  5
BC
100
AcDbEntity
  8
0
 62
     0
100
AcDbLine
 10
1835.0
 20
395.0
 30
0.0
 11
1837.5
 21
395.0
 31
0.0
  0
LINE
  5
BD
100
AcDbEntity
  8
0
 62
     0
100
AcDbLine
 10
1840.0
 20
395.0
 30
0.0
 11
1842.5
 21
395.0
 31
0.0
  0
LINE
  5
BE
100
AcDbEntity
  8
0
 62
     0
100
AcDbLine
 10
1845.0
 20
395.0
 30
0.0
 11
1847.5
 21
395.0
 31
0.0
  0
LINE
  5
BF
100
AcDbEntity
  8
0
 62
     0
100
AcDbLine
 10
1800.0
 20
397.5
 30
0.0
 11
1802.5
 21
397.5
 31
0.0
  0
LINE
  5
C0
100
AcDbEntity
  8
0
 62
     0
100
AcDbLine
 10
1805.0
 20
397.5
 30
0.0
 11
1807.5
 21
397.5
 31
0.0
  0
LINE
  5
C1
100
AcDbEntity
  8
0
 62
     0
100
AcDbLine
 10
1810.0
 20
397.5
 30
0.0
 11
1812.5
 21
397.5
 31
0.0
  0
LINE
  5
C2
100
AcDbEntity
  8
0
 62
     0
100
AcDbLine
 10
1815.0
 20
397.5
 30
0.0
 11
1817.5
 21
397.5
 31
0.0
  0
LINE
  5
C3
100
AcDbEntity
  8
0
 62
     0
100
AcDbLine
 10
1820.0
 20
397.5
 30
0.0
 11
1822.5
 21
397.5
 31
0.0
  0
LINE
  5
C4
100
AcDbEntity
  8
0
 62
     0
100
AcDbLine
 10
1825.0
 20
397.5
 30
0.0
 11
1827.5
 21
397.5
 31
0.0
  0
LINE
  5
C5
100
AcDbEntity
  8
0
 62
     0
100
AcDbLine
 10
1830.0
 20
397.5
 30
0.0
 11
1832.5
 21
397.5
 31
0.0
  0
LINE
  5
C6
100
AcDbEntity
  8
0
 62
     0
100
AcDbLine
 10
1835.0
 20
397.5
 30
0.0
 11
1837.5
 21
397.5
 31
0.0
  0
LINE
  5
C7
100
AcDbEntity
  8
0
 62
     0
100
AcDbLine
 10
1840.0
 20
397.5
 30
0.0
 11
1842.5
 21
397.5
 31
0.0
  0
LINE
  5
C8
100
AcDbEntity
  8
0
 62
     0
100
AcDbLine
 10
1845.0
 20
397.5
 30
0.0
 11
1847.5
 21
397.5
 31
0.0
  0
LINE
  5
C9
100
AcDbEntity
  8
0
 62
     0
100
AcDbLine
 10
1800.0
 20
392.5
 30
0.0
 11
1802.5
 21
392.5
 31
0.0
  0
LINE
  5
CA
100
AcDbEntity
  8
0
 62
     0
100
AcDbLine
 10
1805.0
 20
392.5
 30
0.0
 11
1807.5
 21
392.5
 31
0.0
  0
LINE
  5
CB
100
AcDbEntity
  8
0
 62
     0
100
AcDbLine
 10
1810.0
 20
392.5
 30
0.0
 11
1812.5
 21
392.5
 31
0.0
  0
LINE
  5
CC
100
AcDbEntity
  8
0
 62
     0
100
AcDbLine
 10
1815.0
 20
392.5
 30
0.0
 11
1817.5
 21
392.5
 31
0.0
  0
LINE
  5
CD
100
AcDbEntity
  8
0
 62
     0
100
AcDbLine
 10
1820.0
 20
392.5
 30
0.0
 11
1822.5
 21
392.5
 31
0.0
  0
LINE
  5
CE
100
AcDbEntity
  8
0
 62
     0
100
AcDbLine
 10
1825.0
 20
392.5
 30
0.0
 11
1827.5
 21
392.5
 31
0.0
  0
LINE
  5
CF
100
AcDbEntity
  8
0
 62
     0
100
AcDbLine
 10
1830.0
 20
392.5
 30
0.0
 11
1832.5
 21
392.5
 31
0.0
  0
LINE
  5
D0
100
AcDbEntity
  8
0
 62
     0
100
AcDbLine
 10
1835.0
 20
392.5
 30
0.0
 11
1837.5
 21
392.5
 31
0.0
  0
LINE
  5
D1
100
AcDbEntity
  8
0
 62
     0
100
AcDbLine
 10
1840.0
 20
392.5
 30
0.0
 11
1842.5
 21
392.5
 31
0.0
  0
LINE
  5
D2
100
AcDbEntity
  8
0
 62
     0
100
AcDbLine
 10
1845.0
 20
392.5
 30
0.0
 11
1847.5
 21
392.5
 31
0.0
  0
LINE
  5
D3
100
AcDbEntity
  8
0
 62
     0
100
AcDbLine
 10
1819.999998
 20
390.0
 30
0.0
 11
1820.000002
 21
390.000004
 31
0.0
  0
LINE
  5
D4
100
AcDbEntity
  8
0
 62
     0
100
AcDbLine
 10
1822.500002
 20
392.500004
 30
0.0
 11
1822.941944
 21
392.941946
 31
0.0
  0
LINE
  5
D5
100
AcDbEntity
  8
0
 62
     0
100
AcDbLine
 10
1824.55806
 20
394.558063
 30
0.0
 11
1825.000002
 21
395.000004
 31
0.0
  0
LINE
  5
D6
100
AcDbEntity
  8
0
 62
     0
100
AcDbLine
 10
1827.500002
 20
397.500004
 30
0.0
 11
1827.941944
 21
397.941946
 31
0.0
  0
LINE
  5
D7
100
AcDbEntity
  8
0
 62
     0
100
AcDbLine
 10
1829.55806
 20
399.558063
 30
0.0
 11
1829.999998
 21
400.0
 31
0.0
  0
LINE
  5
D8
100
AcDbEntity
  8
0
 62
     0
100
AcDbLine
 10
1817.500002
 20
390.000004
 30
0.0
 11
1817.941944
 21
390.441946
 31
0.0
  0
LINE
  5
D9
100
AcDbEntity
  8
0
 62
     0
100
AcDbLine
 10
1819.55806
 20
392.058063
 30
0.0
 11
1820.000002
 21
392.500004
 31
0.0
  0
LINE
  5
DA
100
AcDbEntity
  8
0
 62
     0
100
AcDbLine
 10
1822.500002
 20
395.000004
 30
0.0
 11
1822.941944
 21
395.441946
 31
0.0
  0
LINE
  5
DB
100
AcDbEntity
  8
0
 62
     0
100
AcDbLine
 10
1824.55806
 20
397.058063
 30
0.0
 11
1825.000002
 21
397.500004
 31
0.0
  0
LINE
  5
DC
100
AcDbEntity
  8
0
 62
     0
100
AcDbLine
 10
1814.999998
 20
390.0
 30
0.0
 11
1815.000002
 21
390.000004
 31
0.0
  0
LINE
  5
DD
100
AcDbEntity
  8
0
 62
     0
100
AcDbLine
 10
1817.500002
 20
392.500004
 30
0.0
 11
1817.941944
 21
392.941946
 31
0.0
  0
LINE
  5
DE
100
AcDbEntity
  8
0
 62
     0
100
AcDbLine
 10
1819.55806
 20
394.558063
 30
0.0
 11
1820.000002
 21
395.000004
 31
0.0
  0
LINE
  5
DF
100
AcDbEntity
  8
0
 62
     0
100
AcDbLine
 10
1822.500002
 20
397.500004
 30
0.0
 11
1822.941944
 21
397.941946
 31
0.0
  0
LINE
  5
E0
100
AcDbEntity
  8
0
 62
     0
100
AcDbLine
 10
1824.55806
 20
399.558063
 30
0.0
 11
1824.999998
 21
400.0
 31
0.0
  0
LINE
  5
E1
100
AcDbEntity
  8
0
 62
     0
100
AcDbLine
 10
1812.500002
 20
390.000004
 30
0.0
 11
1812.941944
 21
390.441946
 31
0.0
  0
LINE
  5
E2
100
AcDbEntity
  8
0
 62
     0
100
AcDbLine
 10
1814.55806
 20
392.058063
 30
0.0
 11
1815.000002
 21
392.500004
 31
0.0
  0
LINE
  5
E3
100
AcDbEntity
  8
0
 62
     0
100
AcDbLine
 10
1817.500002
 20
395.000004
 30
0.0
 11
1817.941944
 21
395.441946
 31
0.0
  0
LINE
  5
E4
100
AcDbEntity
  8
0
 62
     0
100
AcDbLine
 10
1819.55806
 20
397.058063
 30
0.0
 11
1820.000002
 21
397.500004
 31
0.0
  0
LINE
  5
E5
100
AcDbEntity
  8
0
 62
     0
100
AcDbLine
 10
1809.999998
 20
390.0
 30
0.0
 11
1810.000002
 21
390.000004
 31
0.0
  0
LINE
  5
E6
100
AcDbEntity
  8
0
 62
     0
100
AcDbLine
 10
1812.500002
 20
392.500004
 30
0.0
 11
1812.941944
 21
392.941946
 31
0.0
  0
LINE
  5
E7
100
AcDbEntity
  8
0
 62
     0
100
AcDbLine
 10
1814.55806
 20
394.558063
 30
0.0
 11
1815.000002
 21
395.000004
 31
0.0
  0
LINE
  5
E8
100
AcDbEntity
  8
0
 62
     0
100
AcDbLine
 10
1817.500002
 20
397.500004
 30
0.0
 11
1817.941944
 21
397.941946
 31
0.0
  0
LINE
  5
E9
100
AcDbEntity
  8
0
 62
     0
100
AcDbLine
 10
1819.55806
 20
399.558063
 30
0.0
 11
1819.999998
 21
400.0
 31
0.0
  0
LINE
  5
EA
100
AcDbEntity
  8
0
 62
     0
100
AcDbLine
 10
1807.500002
 20
390.000004
 30
0.0
 11
1807.941944
 21
390.441946
 31
0.0
  0
LINE
  5
EB
100
AcDbEntity
  8
0
 62
     0
100
AcDbLine
 10
1809.55806
 20
392.058063
 30
0.0
 11
1810.000002
 21
392.500004
 31
0.0
  0
LINE
  5
EC
100
AcDbEntity
  8
0
 62
     0
100
AcDbLine
 10
1812.500002
 20
395.000004
 30
0.0
 11
1812.941944
 21
395.441946
 31
0.0
  0
LINE
  5
ED
100
AcDbEntity
  8
0
 62
     0
100
AcDbLine
 10
1814.55806
 20
397.058063
 30
0.0
 11
1815.000002
 21
397.500004
 31
0.0
  0
LINE
  5
EE
100
AcDbEntity
  8
0
 62
     0
100
AcDbLine
 10
1804.999998
 20
390.0
 30
0.0
 11
1805.000002
 21
390.000004
 31
0.0
  0
LINE
  5
EF
100
AcDbEntity
  8
0
 62
     0
100
AcDbLine
 10
1807.500002
 20
392.500004
 30
0.0
 11
1807.941944
 21
392.941946
 31
0.0
  0
LINE
  5
F0
100
AcDbEntity
  8
0
 62
     0
100
AcDbLine
 10
1809.55806
 20
394.558063
 30
0.0
 11
1810.000002
 21
395.000004
 31
0.0
  0
LINE
  5
F1
100
AcDbEntity
  8
0
 62
     0
100
AcDbLine
 10
1812.500002
 20
397.500004
 30
0.0
 11
1812.941944
 21
397.941946
 31
0.0
  0
LINE
  5
F2
100
AcDbEntity
  8
0
 62
     0
100
AcDbLine
 10
1814.55806
 20
399.558063
 30
0.0
 11
1814.999998
 21
400.0
 31
0.0
  0
LINE
  5
F3
100
AcDbEntity
  8
0
 62
     0
100
AcDbLine
 10
1802.500002
 20
390.000004
 30
0.0
 11
1802.941944
 21
390.441946
 31
0.0
  0
LINE
  5
F4
100
AcDbEntity
  8
0
 62
     0
100
AcDbLine
 10
1804.55806
 20
392.058063
 30
0.0
 11
1805.000002
 21
392.500004
 31
0.0
  0
LINE
  5
F5
100
AcDbEntity
  8
0
 62
     0
100
AcDbLine
 10
1807.500002
 20
395.000004
 30
0.0
 11
1807.941944
 21
395.441946
 31
0.0
  0
LINE
  5
F6
100
AcDbEntity
  8
0
 62
     0
100
AcDbLine
 10
1809.55806
 20
397.058063
 30
0.0
 11
1810.000002
 21
397.500004
 31
0.0
  0
LINE
  5
F7
100
AcDbEntity
  8
0
 62
     0
100
AcDbLine
 10
1799.999998
 20
390.0
 30
0.0
 11
1800.000002
 21
390.000004
 31
0.0
  0
LINE
  5
F8
100
AcDbEntity
  8
0
 62
     0
100
AcDbLine
 10
1802.500002
 20
392.500004
 30
0.0
 11
1802.941944
 21
392.941946
 31
0.0
  0
LINE
  5
F9
100
AcDbEntity
  8
0
 62
     0
100
AcDbLine
 10
1804.55806
 20
394.558063
 30
0.0
 11
1805.000002
 21
395.000004
 31
0.0
  0
LINE
  5
FA
100
AcDbEntity
  8
0
 62
     0
100
AcDbLine
 10
1807.500002
 20
397.500004
 30
0.0
 11
1807.941944
 21
397.941946
 31
0.0
  0
LINE
  5
FB
100
AcDbEntity
  8
0
 62
     0
100
AcDbLine
 10
1809.55806
 20
399.558063
 30
0.0
 11
1809.999998
 21
400.0
 31
0.0
  0
LINE
  5
FC
100
AcDbEntity
  8
0
 62
     0
100
AcDbLine
 10
1800.0
 20
392.500002
 30
0.0
 11
1800.000002
 21
392.500004
 31
0.0
  0
LINE
  5
FD
100
AcDbEntity
  8
0
 62
     0
100
AcDbLine
 10
1802.500002
 20
395.000004
 30
0.0
 11
1802.941944
 21
395.441946
 31
0.0
  0
LINE
  5
FE
100
AcDbEntity
  8
0
 62
     0
100
AcDbLine
 10
1804.55806
 20
397.058063
 30
0.0
 11
1805.000002
 21
397.500004
 31
0.0
  0
LINE
  5
FF
100
AcDbEntity
  8
0
 62
     0
100
AcDbLine
 10
1800.0
 20
395.000002
 30
0.0
 11
1800.000002
 21
395.000004
 31
0.0
  0
LINE
  5
100
100
AcDbEntity
  8
0
 62
     0
100
AcDbLine
 10
1802.500002
 20
397.500004
 30
0.0
 11
1802.941944
 21
397.941946
 31
0.0
  0
LINE
  5
101
100
AcDbEntity
  8
0
 62
     0
100
AcDbLine
 10
1804.55806
 20
399.558063
 30
0.0
 11
1804.999998
 21
400.0
 31
0.0
  0
LINE
  5
102
100
AcDbEntity
  8
0
 62
     0
100
AcDbLine
 10
1800.0
 20
397.500002
 30
0.0
 11
1800.000002
 21
397.500004
 31
0.0
  0
LINE
  5
103
100
AcDbEntity
  8
0
 62
     0
100
AcDbLine
 10
1822.500002
 20
390.000004
 30
0.0
 11
1822.941944
 21
390.441946
 31
0.0
  0
LINE
  5
104
100
AcDbEntity
  8
0
 62
     0
100
AcDbLine
 10
1824.55806
 20
392.058063
 30
0.0
 11
1825.000002
 21
392.500004
 31
0.0
  0
LINE
  5
105
100
AcDbEntity
  8
0
 62
     0
100
AcDbLine
 10
1827.500002
 20
395.000004
 30
0.0
 11
1827.941944
 21
395.441946
 31
0.0
  0
LINE
  5
106
100
AcDbEntity
  8
0
 62
     0
100
AcDbLine
 10
1829.55806
 20
397.058063
 30
0.0
 11
1830.000002
 21
397.500005
 31
0.0
  0
LINE
  5
107
100
AcDbEntity
  8
0
 62
     0
100
AcDbLine
 10
1824.999998
 20
390.0
 30
0.0
 11
1825.000002
 21
390.000005
 31
0.0
  0
LINE
  5
108
100
AcDbEntity
  8
0
 62
     0
100
AcDbLine
 10
1827.500002
 20
392.500005
 30
0.0
 11
1827.941944
 21
392.941946
 31
0.0
  0
LINE
  5
109
100
AcDbEntity
  8
0
 62
     0
100
AcDbLine
 10
1829.55806
 20
394.558063
 30
0.0
 11
1830.000002
 21
395.000005
 31
0.0
  0
LINE
  5
10A
100
AcDbEntity
  8
0
 62
     0
100
AcDbLine
 10
1832.500002
 20
397.500005
 30
0.0
 11
1832.941944
 21
397.941946
 31
0.0
  0
LINE
  5
10B
100
AcDbEntity
  8
0
 62
     0
100
AcDbLine
 10
1834.55806
 20
399.558063
 30
0.0
 11
1834.999998
 21
400.0
 31
0.0
  0
LINE
  5
10C
100
AcDbEntity
  8
0
 62
     0
100
AcDbLine
 10
1827.500002
 20
390.000005
 30
0.0
 11
1827.941944
 21
390.441946
 31
0.0
  0
LINE
  5
10D
100
AcDbEntity
  8
0
 62
     0
100
AcDbLine
 10
1829.55806
 20
392.058063
 30
0.0
 11
1830.000002
 21
392.500005
 31
0.0
  0
LINE
  5
10E
100
AcDbEntity
  8
0
 62
     0
100
AcDbLine
 10
1832.500002
 20
395.000005
 30
0.0
 11
1832.941944
 21
395.441946
 31
0.0
  0
LINE
  5
10F
100
AcDbEntity
  8
0
 62
     0
100
AcDbLine
 10
1834.55806
 20
397.058063
 30
0.0
 11
1835.000002
 21
397.500005
 31
0.0
  0
LINE
  5
110
100
AcDbEntity
  8
0
 62
     0
100
AcDbLine
 10
1829.999998
 20
390.0
 30
0.0
 11
1830.000002
 21
390.000005
 31
0.0
  0
LINE
  5
111
100
AcDbEntity
  8
0
 62
     0
100
AcDbLine
 10
1832.500002
 20
392.500005
 30
0.0
 11
1832.941944
 21
392.941946
 31
0.0
  0
LINE
  5
112
100
AcDbEntity
  8
0
 62
     0
100
AcDbLine
 10
1834.55806
 20
394.558063
 30
0.0
 11
1835.000002
 21
395.000005
 31
0.0
  0
LINE
  5
113
100
AcDbEntity
  8
0
 62
     0
100
AcDbLine
 10
1837.500002
 20
397.500005
 30
0.0
 11
1837.941944
 21
397.941946
 31
0.0
  0
LINE
  5
114
100
AcDbEntity
  8
0
 62
     0
100
AcDbLine
 10
1839.55806
 20
399.558063
 30
0.0
 11
1839.999998
 21
400.0
 31
0.0
  0
LINE
  5
115
100
AcDbEntity
  8
0
 62
     0
100
AcDbLine
 10
1832.500002
 20
390.000005
 30
0.0
 11
1832.941944
 21
390.441946
 31
0.0
  0
LINE
  5
116
100
AcDbEntity
  8
0
 62
     0
100
AcDbLine
 10
1834.55806
 20
392.058063
 30
0.0
 11
1835.000002
 21
392.500005
 31
0.0
  0
LINE
  5
117
100
AcDbEntity
  8
0
 62
     0
100
AcDbLine
 10
1837.500002
 20
395.000005
 30
0.0
 11
1837.941944
 21
395.441946
 31
0.0
  0
LINE
  5
118
100
AcDbEntity
  8
0
 62
     0
100
AcDbLine
 10
1839.55806
 20
397.058063
 30
0.0
 11
1840.000002
 21
397.500005
 31
0.0
  0
LINE
  5
119
100
AcDbEntity
  8
0
 62
     0
100
AcDbLine
 10
1834.999998
 20
390.0
 30
0.0
 11
1835.000002
 21
390.000005
 31
0.0
  0
LINE
  5
11A
100
AcDbEntity
  8
0
 62
     0
100
AcDbLine
 10
1837.500002
 20
392.500005
 30
0.0
 11
1837.941944
 21
392.941946
 31
0.0
  0
LINE
  5
11B
100
AcDbEntity
  8
0
 62
     0
100
AcDbLine
 10
1839.55806
 20
394.558063
 30
0.0
 11
1840.000002
 21
395.000005
 31
0.0
  0
LINE
  5
11C
100
AcDbEntity
  8
0
 62
     0
100
AcDbLine
 10
1842.500002
 20
397.500005
 30
0.0
 11
1842.941944
 21
397.941946
 31
0.0
  0
LINE
  5
11D
100
AcDbEntity
  8
0
 62
     0
100
AcDbLine
 10
1844.55806
 20
399.558063
 30
0.0
 11
1844.999998
 21
400.0
 31
0.0
  0
LINE
  5
11E
100
AcDbEntity
  8
0
 62
     0
100
AcDbLine
 10
1837.500002
 20
390.000005
 30
0.0
 11
1837.941944
 21
390.441946
 31
0.0
  0
LINE
  5
11F
100
AcDbEntity
  8
0
 62
     0
100
AcDbLine
 10
1839.55806
 20
392.058063
 30
0.0
 11
1840.000002
 21
392.500005
 31
0.0
  0
LINE
  5
120
100
AcDbEntity
  8
0
 62
     0
100
AcDbLine
 10
1842.500002
 20
395.000005
 30
0.0
 11
1842.941944
 21
395.441946
 31
0.0
  0
LINE
  5
121
100
AcDbEntity
  8
0
 62
     0
100
AcDbLine
 10
1844.55806
 20
397.058063
 30
0.0
 11
1845.000002
 21
397.500005
 31
0.0
  0
LINE
  5
122
100
AcDbEntity
  8
0
 62
     0
100
AcDbLine
 10
1839.999998
 20
390.0
 30
0.0
 11
1840.000002
 21
390.000005
 31
0.0
  0
LINE
  5
123
100
AcDbEntity
  8
0
 62
     0
100
AcDbLine
 10
1842.500002
 20
392.500005
 30
0.0
 11
1842.941944
 21
392.941946
 31
0.0
  0
LINE
  5
124
100
AcDbEntity
  8
0
 62
     0
100
AcDbLine
 10
1844.55806
 20
394.558063
 30
0.0
 11
1845.000002
 21
395.000005
 31
0.0
  0
LINE
  5
125
100
AcDbEntity
  8
0
 62
     0
100
AcDbLine
 10
1847.500002
 20
397.500005
 30
0.0
 11
1847.941944
 21
397.941946
 31
0.0
  0
LINE
  5
126
100
AcDbEntity
  8
0
 62
     0
100
AcDbLine
 10
1849.55806
 20
399.558063
 30
0.0
 11
1849.999998
 21
400.0
 31
0.0
  0
LINE
  5
127
100
AcDbEntity
  8
0
 62
     0
100
AcDbLine
 10
1842.500002
 20
390.000005
 30
0.0
 11
1842.941944
 21
390.441946
 31
0.0
  0
LINE
  5
128
100
AcDbEntity
  8
0
 62
     0
100
AcDbLine
 10
1844.55806
 20
392.058063
 30
0.0
 11
1845.000002
 21
392.500005
 31
0.0
  0
LINE
  5
129
100
AcDbEntity
  8
0
 62
     0
100
AcDbLine
 10
1847.500002
 20
395.000005
 30
0.0
 11
1847.941944
 21
395.441946
 31
0.0
  0
LINE
  5
12A
100
AcDbEntity
  8
0
 62
     0
100
AcDbLine
 10
1849.55806
 20
397.058063
 30
0.0
 11
1850.0
 21
397.500002
 31
0.0
  0
LINE
  5
12B
100
AcDbEntity
  8
0
 62
     0
100
AcDbLine
 10
1844.999998
 20
390.0
 30
0.0
 11
1845.000002
 21
390.000005
 31
0.0
  0
LINE
  5
12C
100
AcDbEntity
  8
0
 62
     0
100
AcDbLine
 10
1847.500002
 20
392.500005
 30
0.0
 11
1847.941944
 21
392.941946
 31
0.0
  0
LINE
  5
12D
100
AcDbEntity
  8
0
 62
     0
100
AcDbLine
 10
1849.55806
 20
394.558063
 30
0.0
 11
1850.0
 21
395.000002
 31
0.0
  0
LINE
  5
12E
100
AcDbEntity
  8
0
 62
     0
100
AcDbLine
 10
1847.500002
 20
390.000005
 30
0.0
 11
1847.941944
 21
390.441946
 31
0.0
  0
LINE
  5
12F
100
AcDbEntity
  8
0
 62
     0
100
AcDbLine
 10
1849.55806
 20
392.058063
 30
0.0
 11
1850.0
 21
392.500002
 31
0.0
  0
ENDBLK
  5
131
100
AcDbEntity
  8
0
100
AcDbBlockEnd
  0
BLOCK
  5
3DB
100
AcDbEntity
  8
0
100
AcDbBlockBegin
  2
*X4
 70
     1
 10
0.0
 20
0.0
 30
0.0
  3
*X4
  1

  0
LINE
  5
35D
100
AcDbEntity
  8
0
 62
     0
100
AcDbLine
 10
1705.0
 20
290.0
 30
0.0
 11
1707.5
 21
290.0
 31
0.0
  0
LINE
  5
35E
100
AcDbEntity
  8
0
 62
     0
100
AcDbLine
 10
1710.0
 20
290.0
 30
0.0
 11
1712.5
 21
290.0
 31
0.0
  0
LINE
  5
35F
100
AcDbEntity
  8
0
 62
     0
100
AcDbLine
 10
1715.0
 20
290.0
 30
0.0
 11
1717.5
 21
290.0
 31
0.0
  0
LINE
  5
360
100
AcDbEntity
  8
0
 62
     0
100
AcDbLine
 10
1720.0
 20
290.0
 30
0.0
 11
1722.5
 21
290.0
 31
0.0
  0
LINE
  5
361
100
AcDbEntity
  8
0
 62
     0
100
AcDbLine
 10
1725.0
 20
290.0
 30
0.0
 11
1727.5
 21
290.0
 31
0.0
  0
LINE
  5
362
100
AcDbEntity
  8
0
 62
     0
100
AcDbLine
 10
1730.0
 20
290.0
 30
0.0
 11
1732.5
 21
290.0
 31
0.0
  0
LINE
  5
363
100
AcDbEntity
  8
0
 62
     0
100
AcDbLine
 10
1735.0
 20
290.0
 30
0.0
 11
1737.5
 21
290.0
 31
0.0
  0
LINE
  5
364
100
AcDbEntity
  8
0
 62
     0
100
AcDbLine
 10
1740.0
 20
290.0
 30
0.0
 11
1742.5
 21
290.0
 31
0.0
  0
LINE
  5
365
100
AcDbEntity
  8
0
 62
     0
100
AcDbLine
 10
1745.0
 20
290.0
 30
0.0
 11
1747.5
 21
290.0
 31
0.0
  0
LINE
  5
366
100
AcDbEntity
  8
0
 62
     0
100
AcDbLine
 10
1750.0
 20
290.0
 30
0.0
 11
1752.5
 21
290.0
 31
0.0
  0
LINE
  5
367
100
AcDbEntity
  8
0
 62
     0
100
AcDbLine
 10
1755.0
 20
290.0
 30
0.0
 11
1755.0
 21
290.0
 31
0.0
  0
LINE
  5
368
100
AcDbEntity
  8
0
 62
     0
100
AcDbLine
 10
1705.0
 20
292.5
 30
0.0
 11
1707.5
 21
292.5
 31
0.0
  0
LINE
  5
369
100
AcDbEntity
  8
0
 62
     0
100
AcDbLine
 10
1710.0
 20
292.5
 30
0.0
 11
1712.5
 21
292.5
 31
0.0
  0
LINE
  5
36A
100
AcDbEntity
  8
0
 62
     0
100
AcDbLine
 10
1715.0
 20
292.5
 30
0.0
 11
1717.5
 21
292.5
 31
0.0
  0
LINE
  5
36B
100
AcDbEntity
  8
0
 62
     0
100
AcDbLine
 10
1720.0
 20
292.5
 30
0.0
 11
1722.5
 21
292.5
 31
0.0
  0
LINE
  5
36C
100
AcDbEntity
  8
0
 62
     0
100
AcDbLine
 10
1725.0
 20
292.5
 30
0.0
 11
1727.5
 21
292.5
 31
0.0
  0
LINE
  5
36D
100
AcDbEntity
  8
0
 62
     0
100
AcDbLine
 10
1730.0
 20
292.5
 30
0.0
 11
1732.5
 21
292.5
 31
0.0
  0
LINE
  5
36E
100
AcDbEntity
  8
0
 62
     0
100
AcDbLine
 10
1735.0
 20
292.5
 30
0.0
 11
1737.5
 21
292.5
 31
0.0
  0
LINE
  5
36F
100
AcDbEntity
  8
0
 62
     0
100
AcDbLine
 10
1740.0
 20
292.5
 30
0.0
 11
1742.5
 21
292.5
 31
0.0
  0
LINE
  5
370
100
AcDbEntity
  8
0
 62
     0
100
AcDbLine
 10
1745.0
 20
292.5
 30
0.0
 11
1747.5
 21
292.5
 31
0.0
  0
LINE
  5
371
100
AcDbEntity
  8
0
 62
     0
100
AcDbLine
 10
1750.0
 20
292.5
 30
0.0
 11
1752.5
 21
292.5
 31
0.0
  0
LINE
  5
372
100
AcDbEntity
  8
0
 62
     0
100
AcDbLine
 10
1755.0
 20
292.5
 30
0.0
 11
1755.0
 21
292.5
 31
0.0
  0
LINE
  5
373
100
AcDbEntity
  8
0
 62
     0
100
AcDbLine
 10
1705.0
 20
287.5
 30
0.0
 11
1707.5
 21
287.5
 31
0.0
  0
LINE
  5
374
100
AcDbEntity
  8
0
 62
     0
100
AcDbLine
 10
1710.0
 20
287.5
 30
0.0
 11
1712.5
 21
287.5
 31
0.0
  0
LINE
  5
375
100
AcDbEntity
  8
0
 62
     0
100
AcDbLine
 10
1715.0
 20
287.5
 30
0.0
 11
1717.5
 21
287.5
 31
0.0
  0
LINE
  5
376
100
AcDbEntity
  8
0
 62
     0
100
AcDbLine
 10
1720.0
 20
287.5
 30
0.0
 11
1722.5
 21
287.5
 31
0.0
  0
LINE
  5
377
100
AcDbEntity
  8
0
 62
     0
100
AcDbLine
 10
1725.0
 20
287.5
 30
0.0
 11
1727.5
 21
287.5
 31
0.0
  0
LINE
  5
378
100
AcDbEntity
  8
0
 62
     0
100
AcDbLine
 10
1730.0
 20
287.5
 30
0.0
 11
1732.5
 21
287.5
 31
0.0
  0
LINE
  5
379
100
AcDbEntity
  8
0
 62
     0
100
AcDbLine
 10
1735.0
 20
287.5
 30
0.0
 11
1737.5
 21
287.5
 31
0.0
  0
LINE
  5
37A
100
AcDbEntity
  8
0
 62
     0
100
AcDbLine
 10
1740.0
 20
287.5
 30
0.0
 11
1742.5
 21
287.5
 31
0.0
  0
LINE
  5
37B
100
AcDbEntity
  8
0
 62
     0
100
AcDbLine
 10
1745.0
 20
287.5
 30
0.0
 11
1747.5
 21
287.5
 31
0.0
  0
LINE
  5
37C
100
AcDbEntity
  8
0
 62
     0
100
AcDbLine
 10
1750.0
 20
287.5
 30
0.0
 11
1752.5
 21
287.5
 31
0.0
  0
LINE
  5
37D
100
AcDbEntity
  8
0
 62
     0
100
AcDbLine
 10
1755.0
 20
287.5
 30
0.0
 11
1755.0
 21
287.5
 31
0.0
  0
LINE
  5
37E
100
AcDbEntity
  8
0
 62
     0
100
AcDbLine
 10
1724.999998
 20
285.0
 30
0.0
 11
1725.000002
 21
285.000004
 31
0.0
  0
LINE
  5
37F
100
AcDbEntity
  8
0
 62
     0
100
AcDbLine
 10
1727.500002
 20
287.500004
 30
0.0
 11
1727.941944
 21
287.941946
 31
0.0
  0
LINE
  5
380
100
AcDbEntity
  8
0
 62
     0
100
AcDbLine
 10
1729.55806
 20
289.558063
 30
0.0
 11
1730.000002
 21
290.000004
 31
0.0
  0
LINE
  5
381
100
AcDbEntity
  8
0
 62
     0
100
AcDbLine
 10
1732.500002
 20
292.500004
 30
0.0
 11
1732.941944
 21
292.941946
 31
0.0
  0
LINE
  5
382
100
AcDbEntity
  8
0
 62
     0
100
AcDbLine
 10
1734.55806
 20
294.558063
 30
0.0
 11
1734.999998
 21
295.0
 31
0.0
  0
LINE
  5
383
100
AcDbEntity
  8
0
 62
     0
100
AcDbLine
 10
1722.500002
 20
285.000004
 30
0.0
 11
1722.941944
 21
285.441946
 31
0.0
  0
LINE
  5
384
100
AcDbEntity
  8
0
 62
     0
100
AcDbLine
 10
1724.55806
 20
287.058063
 30
0.0
 11
1725.000002
 21
287.500004
 31
0.0
  0
LINE
  5
385
100
AcDbEntity
  8
0
 62
     0
100
AcDbLine
 10
1727.500002
 20
290.000004
 30
0.0
 11
1727.941944
 21
290.441946
 31
0.0
  0
LINE
  5
386
100
AcDbEntity
  8
0
 62
     0
100
AcDbLine
 10
1729.55806
 20
292.058063
 30
0.0
 11
1730.000002
 21
292.500004
 31
0.0
  0
LINE
  5
387
100
AcDbEntity
  8
0
 62
     0
100
AcDbLine
 10
1719.999998
 20
285.0
 30
0.0
 11
1720.000002
 21
285.000004
 31
0.0
  0
LINE
  5
388
100
AcDbEntity
  8
0
 62
     0
100
AcDbLine
 10
1722.500002
 20
287.500004
 30
0.0
 11
1722.941944
 21
287.941946
 31
0.0
  0
LINE
  5
389
100
AcDbEntity
  8
0
 62
     0
100
AcDbLine
 10
1724.55806
 20
289.558063
 30
0.0
 11
1725.000002
 21
290.000004
 31
0.0
  0
LINE
  5
38A
100
AcDbEntity
  8
0
 62
     0
100
AcDbLine
 10
1727.500002
 20
292.500004
 30
0.0
 11
1727.941944
 21
292.941946
 31
0.0
  0
LINE
  5
38B
100
AcDbEntity
  8
0
 62
     0
100
AcDbLine
 10
1729.55806
 20
294.558063
 30
0.0
 11
1729.999998
 21
295.0
 31
0.0
  0
LINE
  5
38C
100
AcDbEntity
  8
0
 62
     0
100
AcDbLine
 10
1717.500002
 20
285.000004
 30
0.0
 11
1717.941944
 21
285.441946
 31
0.0
  0
LINE
  5
38D
100
AcDbEntity
  8
0
 62
     0
100
AcDbLine
 10
1719.55806
 20
287.058063
 30
0.0
 11
1720.000002
 21
287.500004
 31
0.0
  0
LINE
  5
38E
100
AcDbEntity
  8
0
 62
     0
100
AcDbLine
 10
1722.500002
 20
290.000004
 30
0.0
 11
1722.941944
 21
290.441946
 31
0.0
  0
LINE
  5
38F
100
AcDbEntity
  8
0
 62
     0
100
AcDbLine
 10
1724.55806
 20
292.058063
 30
0.0
 11
1725.000002
 21
292.500004
 31
0.0
  0
LINE
  5
390
100
AcDbEntity
  8
0
 62
     0
100
AcDbLine
 10
1714.999998
 20
285.0
 30
0.0
 11
1715.000002
 21
285.000004
 31
0.0
  0
LINE
  5
391
100
AcDbEntity
  8
0
 62
     0
100
AcDbLine
 10
1717.500002
 20
287.500004
 30
0.0
 11
1717.941944
 21
287.941946
 31
0.0
  0
LINE
  5
392
100
AcDbEntity
  8
0
 62
     0
100
AcDbLine
 10
1719.55806
 20
289.558063
 30
0.0
 11
1720.000002
 21
290.000004
 31
0.0
  0
LINE
  5
393
100
AcDbEntity
  8
0
 62
     0
100
AcDbLine
 10
1722.500002
 20
292.500004
 30
0.0
 11
1722.941944
 21
292.941946
 31
0.0
  0
LINE
  5
394
100
AcDbEntity
  8
0
 62
     0
100
AcDbLine
 10
1724.55806
 20
294.558063
 30
0.0
 11
1724.999998
 21
295.0
 31
0.0
  0
LINE
  5
395
100
AcDbEntity
  8
0
 62
     0
100
AcDbLine
 10
1712.500002
 20
285.000004
 30
0.0
 11
1712.941944
 21
285.441946
 31
0.0
  0
LINE
  5
396
100
AcDbEntity
  8
0
 62
     0
100
AcDbLine
 10
1714.55806
 20
287.058063
 30
0.0
 11
1715.000002
 21
287.500004
 31
0.0
  0
LINE
  5
397
100
AcDbEntity
  8
0
 62
     0
100
AcDbLine
 10
1717.500002
 20
290.000004
 30
0.0
 11
1717.941944
 21
290.441946
 31
0.0
  0
LINE
  5
398
100
AcDbEntity
  8
0
 62
     0
100
AcDbLine
 10
1719.55806
 20
292.058063
 30
0.0
 11
1720.000002
 21
292.500004
 31
0.0
  0
LINE
  5
399
100
AcDbEntity
  8
0
 62
     0
100
AcDbLine
 10
1709.999998
 20
285.0
 30
0.0
 11
1710.000002
 21
285.000004
 31
0.0
  0
LINE
  5
39A
100
AcDbEntity
  8
0
 62
     0
100
AcDbLine
 10
1712.500002
 20
287.500004
 30
0.0
 11
1712.941944
 21
287.941946
 31
0.0
  0
LINE
  5
39B
100
AcDbEntity
  8
0
 62
     0
100
AcDbLine
 10
1714.55806
 20
289.558063
 30
0.0
 11
1715.000002
 21
290.000004
 31
0.0
  0
LINE
  5
39C
100
AcDbEntity
  8
0
 62
     0
100
AcDbLine
 10
1717.500002
 20
292.500004
 30
0.0
 11
1717.941944
 21
292.941946
 31
0.0
  0
LINE
  5
39D
100
AcDbEntity
  8
0
 62
     0
100
AcDbLine
 10
1719.55806
 20
294.558063
 30
0.0
 11
1719.999998
 21
295.0
 31
0.0
  0
LINE
  5
39E
100
AcDbEntity
  8
0
 62
     0
100
AcDbLine
 10
1707.500002
 20
285.000004
 30
0.0
 11
1707.941944
 21
285.441946
 31
0.0
  0
LINE
  5
39F
100
AcDbEntity
  8
0
 62
     0
100
AcDbLine
 10
1709.55806
 20
287.058063
 30
0.0
 11
1710.000002
 21
287.500004
 31
0.0
  0
LINE
  5
3A0
100
AcDbEntity
  8
0
 62
     0
100
AcDbLine
 10
1712.500002
 20
290.000004
 30
0.0
 11
1712.941944
 21
290.441946
 31
0.0
  0
LINE
  5
3A1
100
AcDbEntity
  8
0
 62
     0
100
AcDbLine
 10
1714.55806
 20
292.058063
 30
0.0
 11
1715.000002
 21
292.500004
 31
0.0
  0
LINE
  5
3A2
100
AcDbEntity
  8
0
 62
     0
100
AcDbLine
 10
1704.999998
 20
285.0
 30
0.0
 11
1705.000002
 21
285.000004
 31
0.0
  0
LINE
  5
3A3
100
AcDbEntity
  8
0
 62
     0
100
AcDbLine
 10
1707.500002
 20
287.500004
 30
0.0
 11
1707.941944
 21
287.941946
 31
0.0
  0
LINE
  5
3A4
100
AcDbEntity
  8
0
 62
     0
100
AcDbLine
 10
1709.55806
 20
289.558063
 30
0.0
 11
1710.000002
 21
290.000004
 31
0.0
  0
LINE
  5
3A5
100
AcDbEntity
  8
0
 62
     0
100
AcDbLine
 10
1712.500002
 20
292.500004
 30
0.0
 11
1712.941944
 21
292.941946
 31
0.0
  0
LINE
  5
3A6
100
AcDbEntity
  8
0
 62
     0
100
AcDbLine
 10
1714.55806
 20
294.558063
 30
0.0
 11
1714.999998
 21
295.0
 31
0.0
  0
LINE
  5
3A7
100
AcDbEntity
  8
0
 62
     0
100
AcDbLine
 10
1705.0
 20
287.500002
 30
0.0
 11
1705.000002
 21
287.500004
 31
0.0
  0
LINE
  5
3A8
100
AcDbEntity
  8
0
 62
     0
100
AcDbLine
 10
1707.500002
 20
290.000004
 30
0.0
 11
1707.941944
 21
290.441946
 31
0.0
  0
LINE
  5
3A9
100
AcDbEntity
  8
0
 62
     0
100
AcDbLine
 10
1709.55806
 20
292.058063
 30
0.0
 11
1710.000002
 21
292.500004
 31
0.0
  0
LINE
  5
3AA
100
AcDbEntity
  8
0
 62
     0
100
AcDbLine
 10
1705.0
 20
290.000002
 30
0.0
 11
1705.000002
 21
290.000004
 31
0.0
  0
LINE
  5
3AB
100
AcDbEntity
  8
0
 62
     0
100
AcDbLine
 10
1707.500002
 20
292.500004
 30
0.0
 11
1707.941944
 21
292.941946
 31
0.0
  0
LINE
  5
3AC
100
AcDbEntity
  8
0
 62
     0
100
AcDbLine
 10
1709.55806
 20
294.558063
 30
0.0
 11
1709.999998
 21
295.0
 31
0.0
  0
LINE
  5
3AD
100
AcDbEntity
  8
0
 62
     0
100
AcDbLine
 10
1705.0
 20
292.500002
 30
0.0
 11
1705.000002
 21
292.500004
 31
0.0
  0
LINE
  5
3AE
100
AcDbEntity
  8
0
 62
     0
100
AcDbLine
 10
1727.500002
 20
285.000004
 30
0.0
 11
1727.941944
 21
285.441946
 31
0.0
  0
LINE
  5
3AF
100
AcDbEntity
  8
0
 62
     0
100
AcDbLine
 10
1729.55806
 20
287.058063
 30
0.0
 11
1730.000002
 21
287.500004
 31
0.0
  0
LINE
  5
3B0
100
AcDbEntity
  8
0
 62
     0
100
AcDbLine
 10
1732.500002
 20
290.000004
 30
0.0
 11
1732.941944
 21
290.441946
 31
0.0
  0
LINE
  5
3B1
100
AcDbEntity
  8
0
 62
     0
100
AcDbLine
 10
1734.55806
 20
292.058063
 30
0.0
 11
1735.000002
 21
292.500004
 31
0.0
  0
LINE
  5
3B2
100
AcDbEntity
  8
0
 62
     0
100
AcDbLine
 10
1729.999998
 20
285.0
 30
0.0
 11
1730.000002
 21
285.000004
 31
0.0
  0
LINE
  5
3B3
100
AcDbEntity
  8
0
 62
     0
100
AcDbLine
 10
1732.500002
 20
287.500004
 30
0.0
 11
1732.941944
 21
287.941946
 31
0.0
  0
LINE
  5
3B4
100
AcDbEntity
  8
0
 62
     0
100
AcDbLine
 10
1734.55806
 20
289.558063
 30
0.0
 11
1735.000002
 21
290.000004
 31
0.0
  0
LINE
  5
3B5
100
AcDbEntity
  8
0
 62
     0
100
AcDbLine
 10
1737.500002
 20
292.500004
 30
0.0
 11
1737.941944
 21
292.941946
 31
0.0
  0
LINE
  5
3B6
100
AcDbEntity
  8
0
 62
     0
100
AcDbLine
 10
1739.55806
 20
294.558063
 30
0.0
 11
1739.999998
 21
295.0
 31
0.0
  0
LINE
  5
3B7
100
AcDbEntity
  8
0
 62
     0
100
AcDbLine
 10
1732.500002
 20
285.000004
 30
0.0
 11
1732.941944
 21
285.441946
 31
0.0
  0
LINE
  5
3B8
100
AcDbEntity
  8
0
 62
     0
100
AcDbLine
 10
1734.55806
 20
287.058063
 30
0.0
 11
1735.000002
 21
287.500004
 31
0.0
  0
LINE
  5
3B9
100
AcDbEntity
  8
0
 62
     0
100
AcDbLine
 10
1737.500002
 20
290.000004
 30
0.0
 11
1737.941944
 21
290.441946
 31
0.0
  0
LINE
  5
3BA
100
AcDbEntity
  8
0
 62
     0
100
AcDbLine
 10
1739.55806
 20
292.058063
 30
0.0
 11
1740.000002
 21
292.500004
 31
0.0
  0
LINE
  5
3BB
100
AcDbEntity
  8
0
 62
     0
100
AcDbLine
 10
1734.999998
 20
285.0
 30
0.0
 11
1735.000002
 21
285.000004
 31
0.0
  0
LINE
  5
3BC
100
AcDbEntity
  8
0
 62
     0
100
AcDbLine
 10
1737.500002
 20
287.500004
 30
0.0
 11
1737.941944
 21
287.941946
 31
0.0
  0
LINE
  5
3BD
100
AcDbEntity
  8
0
 62
     0
100
AcDbLine
 10
1739.55806
 20
289.558063
 30
0.0
 11
1740.000002
 21
290.000004
 31
0.0
  0
LINE
  5
3BE
100
AcDbEntity
  8
0
 62
     0
100
AcDbLine
 10
1742.500002
 20
292.500004
 30
0.0
 11
1742.941944
 21
292.941946
 31
0.0
  0
LINE
  5
3BF
100
AcDbEntity
  8
0
 62
     0
100
AcDbLine
 10
1744.55806
 20
294.558063
 30
0.0
 11
1744.999998
 21
295.0
 31
0.0
  0
LINE
  5
3C0
100
AcDbEntity
  8
0
 62
     0
100
AcDbLine
 10
1737.500002
 20
285.000004
 30
0.0
 11
1737.941944
 21
285.441946
 31
0.0
  0
LINE
  5
3C1
100
AcDbEntity
  8
0
 62
     0
100
AcDbLine
 10
1739.55806
 20
287.058063
 30
0.0
 11
1740.000002
 21
287.500004
 31
0.0
  0
LINE
  5
3C2
100
AcDbEntity
  8
0
 62
     0
100
AcDbLine
 10
1742.500002
 20
290.000004
 30
0.0
 11
1742.941944
 21
290.441946
 31
0.0
  0
LINE
  5
3C3
100
AcDbEntity
  8
0
 62
     0
100
AcDbLine
 10
1744.55806
 20
292.058063
 30
0.0
 11
1745.000002
 21
292.500004
 31
0.0
  0
LINE
  5
3C4
100
AcDbEntity
  8
0
 62
     0
100
AcDbLine
 10
1739.999998
 20
285.0
 30
0.0
 11
1740.000002
 21
285.000004
 31
0.0
  0
LINE
  5
3C5
100
AcDbEntity
  8
0
 62
     0
100
AcDbLine
 10
1742.500002
 20
287.500004
 30
0.0
 11
1742.941944
 21
287.941946
 31
0.0
  0
LINE
  5
3C6
100
AcDbEntity
  8
0
 62
     0
100
AcDbLine
 10
1744.55806
 20
289.558063
 30
0.0
 11
1745.000002
 21
290.000004
 31
0.0
  0
LINE
  5
3C7
100
AcDbEntity
  8
0
 62
     0
100
AcDbLine
 10
1747.500002
 20
292.500004
 30
0.0
 11
1747.941944
 21
292.941946
 31
0.0
  0
LINE
  5
3C8
100
AcDbEntity
  8
0
 62
     0
100
AcDbLine
 10
1749.55806
 20
294.558063
 30
0.0
 11
1749.999998
 21
295.0
 31
0.0
  0
LINE
  5
3C9
100
AcDbEntity
  8
0
 62
     0
100
AcDbLine
 10
1742.500002
 20
285.000004
 30
0.0
 11
1742.941944
 21
285.441946
 31
0.0
  0
LINE
  5
3CA
100
AcDbEntity
  8
0
 62
     0
100
AcDbLine
 10
1744.55806
 20
287.058063
 30
0.0
 11
1745.000002
 21
287.500004
 31
0.0
  0
LINE
  5
3CB
100
AcDbEntity
  8
0
 62
     0
100
AcDbLine
 10
1747.500002
 20
290.000004
 30
0.0
 11
1747.941944
 21
290.441946
 31
0.0
  0
LINE
  5
3CC
100
AcDbEntity
  8
0
 62
     0
100
AcDbLine
 10
1749.55806
 20
292.058063
 30
0.0
 11
1750.000002
 21
292.500004
 31
0.0
  0
LINE
  5
3CD
100
AcDbEntity
  8
0
 62
     0
100
AcDbLine
 10
1744.999998
 20
285.0
 30
0.0
 11
1745.000002
 21
285.000004
 31
0.0
  0
LINE
  5
3CE
100
AcDbEntity
  8
0
 62
     0
100
AcDbLine
 10
1747.500002
 20
287.500004
 30
0.0
 11
1747.941944
 21
287.941946
 31
0.0
  0
LINE
  5
3CF
100
AcDbEntity
  8
0
 62
     0
100
AcDbLine
 10
1749.55806
 20
289.558063
 30
0.0
 11
1750.000002
 21
290.000004
 31
0.0
  0
LINE
  5
3D0
100
AcDbEntity
  8
0
 62
     0
100
AcDbLine
 10
1752.500002
 20
292.500004
 30
0.0
 11
1752.941944
 21
292.941946
 31
0.0
  0
LINE
  5
3D1
100
AcDbEntity
  8
0
 62
     0
100
AcDbLine
 10
1754.55806
 20
294.558063
 30
0.0
 11
1754.999998
 21
295.0
 31
0.0
  0
LINE
  5
3D2
100
AcDbEntity
  8
0
 62
     0
100
AcDbLine
 10
1747.500002
 20
285.000004
 30
0.0
 11
1747.941944
 21
285.441946
 31
0.0
  0
LINE
  5
3D3
100
AcDbEntity
  8
0
 62
     0
100
AcDbLine
 10
1749.55806
 20
287.058063
 30
0.0
 11
1750.000002
 21
287.500004
 31
0.0
  0
LINE
  5
3D4
100
AcDbEntity
  8
0
 62
     0
100
AcDbLine
 10
1752.500002
 20
290.000004
 30
0.0
 11
1752.941944
 21
290.441946
 31
0.0
  0
LINE
  5
3D5
100
AcDbEntity
  8
0
 62
     0
100
AcDbLine
 10
1754.55806
 20
292.058063
 30
0.0
 11
1755.0
 21
292.500002
 31
0.0
  0
LINE
  5
3D6
100
AcDbEntity
  8
0
 62
     0
100
AcDbLine
 10
1749.999998
 20
285.0
 30
0.0
 11
1750.000002
 21
285.000004
 31
0.0
  0
LINE
  5
3D7
100
AcDbEntity
  8
0
 62
     0
100
AcDbLine
 10
1752.500002
 20
287.500004
 30
0.0
 11
1752.941944
 21
287.941946
 31
0.0
  0
LINE
  5
3D8
100
AcDbEntity
  8
0
 62
     0
100
AcDbLine
 10
1754.55806
 20
289.558063
 30
0.0
 11
1755.0
 21
290.000002
 31
0.0
  0
LINE
  5
3D9
100
AcDbEntity
  8
0
 62
     0
100
AcDbLine
 10
1752.500002
 20
285.000004
 30
0.0
 11
1752.941944
 21
285.441946
 31
0.0
  0
LINE
  5
3DA
100
AcDbEntity
  8
0
 62
     0
100
AcDbLine
 10
1754.55806
 20
287.058063
 30
0.0
 11
1755.0
 21
287.500002
 31
0.0
  0
ENDBLK
  5
3DC
100
AcDbEntity
  8
0
100
AcDbBlockEnd
  0
BLOCK
  5
A9
100
AcDbEntity
  8
0
100
AcDbBlockBegin
  2
*X5
 70
     1
 10
0.0
 20
0.0
 30
0.0
  3
*X5
  1

  0
LINE
  5
2E
100
AcDbEntity
  8
0
 62
     0
100
AcDbLine
 10
1800.0
 20
290.0
 30
0.0
 11
1802.5
 21
290.0
 31
0.0
  0
LINE
  5
2F
100
AcDbEntity
  8
0
 62
     0
100
AcDbLine
 10
1805.0
 20
290.0
 30
0.0
 11
1807.5
 21
290.0
 31
0.0
  0
LINE
  5
30
100
AcDbEntity
  8
0
 62
     0
100
AcDbLine
 10
1810.0
 20
290.0
 30
0.0
 11
1812.5
 21
290.0
 31
0.0
  0
LINE
  5
31
100
AcDbEntity
  8
0
 62
     0
100
AcDbLine
 10
1815.0
 20
290.0
 30
0.0
 11
1817.5
 21
290.0
 31
0.0
  0
LINE
  5
32
100
AcDbEntity
  8
0
 62
     0
100
AcDbLine
 10
1820.0
 20
290.0
 30
0.0
 11
1822.5
 21
290.0
 31
0.0
  0
LINE
  5
33
100
AcDbEntity
  8
0
 62
     0
100
AcDbLine
 10
1825.0
 20
290.0
 30
0.0
 11
1827.5
 21
290.0
 31
0.0
  0
LINE
  5
34
100
AcDbEntity
  8
0
 62
     0
100
AcDbLine
 10
1830.0
 20
290.0
 30
0.0
 11
1832.5
 21
290.0
 31
0.0
  0
LINE
  5
35
100
AcDbEntity
  8
0
 62
     0
100
AcDbLine
 10
1835.0
 20
290.0
 30
0.0
 11
1837.5
 21
290.0
 31
0.0
  0
LINE
  5
36
100
AcDbEntity
  8
0
 62
     0
100
AcDbLine
 10
1840.0
 20
290.0
 30
0.0
 11
1842.5
 21
290.0
 31
0.0
  0
LINE
  5
37
100
AcDbEntity
  8
0
 62
     0
100
AcDbLine
 10
1845.0
 20
290.0
 30
0.0
 11
1847.5
 21
290.0
 31
0.0
  0
LINE
  5
38
100
AcDbEntity
  8
0
 62
     0
100
AcDbLine
 10
1800.0
 20
292.5
 30
0.0
 11
1802.5
 21
292.5
 31
0.0
  0
LINE
  5
39
100
AcDbEntity
  8
0
 62
     0
100
AcDbLine
 10
1805.0
 20
292.5
 30
0.0
 11
1807.5
 21
292.5
 31
0.0
  0
LINE
  5
3A
100
AcDbEntity
  8
0
 62
     0
100
AcDbLine
 10
1810.0
 20
292.5
 30
0.0
 11
1812.5
 21
292.5
 31
0.0
  0
LINE
  5
3B
100
AcDbEntity
  8
0
 62
     0
100
AcDbLine
 10
1815.0
 20
292.5
 30
0.0
 11
1817.5
 21
292.5
 31
0.0
  0
LINE
  5
3C
100
AcDbEntity
  8
0
 62
     0
100
AcDbLine
 10
1820.0
 20
292.5
 30
0.0
 11
1822.5
 21
292.5
 31
0.0
  0
LINE
  5
3D
100
AcDbEntity
  8
0
 62
     0
100
AcDbLine
 10
1825.0
 20
292.5
 30
0.0
 11
1827.5
 21
292.5
 31
0.0
  0
LINE
  5
3E
100
AcDbEntity
  8
0
 62
     0
100
AcDbLine
 10
1830.0
 20
292.5
 30
0.0
 11
1832.5
 21
292.5
 31
0.0
  0
LINE
  5
3F
100
AcDbEntity
  8
0
 62
     0
100
AcDbLine
 10
1835.0
 20
292.5
 30
0.0
 11
1837.5
 21
292.5
 31
0.0
  0
LINE
  5
40
100
AcDbEntity
  8
0
 62
     0
100
AcDbLine
 10
1840.0
 20
292.5
 30
0.0
 11
1842.5
 21
292.5
 31
0.0
  0
LINE
  5
41
100
AcDbEntity
  8
0
 62
     0
100
AcDbLine
 10
1845.0
 20
292.5
 30
0.0
 11
1847.5
 21
292.5
 31
0.0
  0
LINE
  5
42
100
AcDbEntity
  8
0
 62
     0
100
AcDbLine
 10
1800.0
 20
287.5
 30
0.0
 11
1802.5
 21
287.5
 31
0.0
  0
LINE
  5
43
100
AcDbEntity
  8
0
 62
     0
100
AcDbLine
 10
1805.0
 20
287.5
 30
0.0
 11
1807.5
 21
287.5
 31
0.0
  0
LINE
  5
44
100
AcDbEntity
  8
0
 62
     0
100
AcDbLine
 10
1810.0
 20
287.5
 30
0.0
 11
1812.5
 21
287.5
 31
0.0
  0
LINE
  5
45
100
AcDbEntity
  8
0
 62
     0
100
AcDbLine
 10
1815.0
 20
287.5
 30
0.0
 11
1817.5
 21
287.5
 31
0.0
  0
LINE
  5
46
100
AcDbEntity
  8
0
 62
     0
100
AcDbLine
 10
1820.0
 20
287.5
 30
0.0
 11
1822.5
 21
287.5
 31
0.0
  0
LINE
  5
47
100
AcDbEntity
  8
0
 62
     0
100
AcDbLine
 10
1825.0
 20
287.5
 30
0.0
 11
1827.5
 21
287.5
 31
0.0
  0
LINE
  5
48
100
AcDbEntity
  8
0
 62
     0
100
AcDbLine
 10
1830.0
 20
287.5
 30
0.0
 11
1832.5
 21
287.5
 31
0.0
  0
LINE
  5
49
100
AcDbEntity
  8
0
 62
     0
100
AcDbLine
 10
1835.0
 20
287.5
 30
0.0
 11
1837.5
 21
287.5
 31
0.0
  0
LINE
  5
4A
100
AcDbEntity
  8
0
 62
     0
100
AcDbLine
 10
1840.0
 20
287.5
 30
0.0
 11
1842.5
 21
287.5
 31
0.0
  0
LINE
  5
4B
100
AcDbEntity
  8
0
 62
     0
100
AcDbLine
 10
1845.0
 20
287.5
 30
0.0
 11
1847.5
 21
287.5
 31
0.0
  0
LINE
  5
4C
100
AcDbEntity
  8
0
 62
     0
100
AcDbLine
 10
1819.999997
 20
285.0
 30
0.0
 11
1820.000002
 21
285.000005
 31
0.0
  0
LINE
  5
4D
100
AcDbEntity
  8
0
 62
     0
100
AcDbLine
 10
1822.500002
 20
287.500005
 30
0.0
 11
1822.941944
 21
287.941946
 31
0.0
  0
LINE
  5
4E
100
AcDbEntity
  8
0
 62
     0
100
AcDbLine
 10
1824.55806
 20
289.558063
 30
0.0
 11
1825.000002
 21
290.000005
 31
0.0
  0
LINE
  5
4F
100
AcDbEntity
  8
0
 62
     0
100
AcDbLine
 10
1827.500002
 20
292.500005
 30
0.0
 11
1827.941944
 21
292.941946
 31
0.0
  0
LINE
  5
50
100
AcDbEntity
  8
0
 62
     0
100
AcDbLine
 10
1829.55806
 20
294.558063
 30
0.0
 11
1829.999997
 21
295.0
 31
0.0
  0
LINE
  5
51
100
AcDbEntity
  8
0
 62
     0
100
AcDbLine
 10
1817.500002
 20
285.000005
 30
0.0
 11
1817.941944
 21
285.441946
 31
0.0
  0
LINE
  5
52
100
AcDbEntity
  8
0
 62
     0
100
AcDbLine
 10
1819.55806
 20
287.058063
 30
0.0
 11
1820.000002
 21
287.500005
 31
0.0
  0
LINE
  5
53
100
AcDbEntity
  8
0
 62
     0
100
AcDbLine
 10
1822.500002
 20
290.000005
 30
0.0
 11
1822.941944
 21
290.441946
 31
0.0
  0
LINE
  5
54
100
AcDbEntity
  8
0
 62
     0
100
AcDbLine
 10
1824.55806
 20
292.058063
 30
0.0
 11
1825.000002
 21
292.500005
 31
0.0
  0
LINE
  5
55
100
AcDbEntity
  8
0
 62
     0
100
AcDbLine
 10
1814.999997
 20
285.0
 30
0.0
 11
1815.000002
 21
285.000005
 31
0.0
  0
LINE
  5
56
100
AcDbEntity
  8
0
 62
     0
100
AcDbLine
 10
1817.500002
 20
287.500005
 30
0.0
 11
1817.941944
 21
287.941946
 31
0.0
  0
LINE
  5
57
100
AcDbEntity
  8
0
 62
     0
100
AcDbLine
 10
1819.55806
 20
289.558063
 30
0.0
 11
1820.000002
 21
290.000005
 31
0.0
  0
LINE
  5
58
100
AcDbEntity
  8
0
 62
     0
100
AcDbLine
 10
1822.500002
 20
292.500005
 30
0.0
 11
1822.941944
 21
292.941946
 31
0.0
  0
LINE
  5
59
100
AcDbEntity
  8
0
 62
     0
100
AcDbLine
 10
1824.55806
 20
294.558063
 30
0.0
 11
1824.999997
 21
295.0
 31
0.0
  0
LINE
  5
5A
100
AcDbEntity
  8
0
 62
     0
100
AcDbLine
 10
1812.500002
 20
285.000005
 30
0.0
 11
1812.941944
 21
285.441946
 31
0.0
  0
LINE
  5
5B
100
AcDbEntity
  8
0
 62
     0
100
AcDbLine
 10
1814.55806
 20
287.058063
 30
0.0
 11
1815.000002
 21
287.500005
 31
0.0
  0
LINE
  5
5C
100
AcDbEntity
  8
0
 62
     0
100
AcDbLine
 10
1817.500002
 20
290.000005
 30
0.0
 11
1817.941944
 21
290.441946
 31
0.0
  0
LINE
  5
5D
100
AcDbEntity
  8
0
 62
     0
100
AcDbLine
 10
1819.55806
 20
292.058063
 30
0.0
 11
1820.000002
 21
292.500005
 31
0.0
  0
LINE
  5
5E
100
AcDbEntity
  8
0
 62
     0
100
AcDbLine
 10
1809.999997
 20
285.0
 30
0.0
 11
1810.000002
 21
285.000005
 31
0.0
  0
LINE
  5
5F
100
AcDbEntity
  8
0
 62
     0
100
AcDbLine
 10
1812.500002
 20
287.500005
 30
0.0
 11
1812.941944
 21
287.941946
 31
0.0
  0
LINE
  5
60
100
AcDbEntity
  8
0
 62
     0
100
AcDbLine
 10
1814.55806
 20
289.558063
 30
0.0
 11
1815.000002
 21
290.000005
 31
0.0
  0
LINE
  5
61
100
AcDbEntity
  8
0
 62
     0
100
AcDbLine
 10
1817.500002
 20
292.500005
 30
0.0
 11
1817.941944
 21
292.941946
 31
0.0
  0
LINE
  5
62
100
AcDbEntity
  8
0
 62
     0
100
AcDbLine
 10
1819.55806
 20
294.558063
 30
0.0
 11
1819.999997
 21
295.0
 31
0.0
  0
LINE
  5
63
100
AcDbEntity
  8
0
 62
     0
100
AcDbLine
 10
1807.500002
 20
285.000005
 30
0.0
 11
1807.941944
 21
285.441946
 31
0.0
  0
LINE
  5
64
100
AcDbEntity
  8
0
 62
     0
100
AcDbLine
 10
1809.55806
 20
287.058063
 30
0.0
 11
1810.000002
 21
287.500005
 31
0.0
  0
LINE
  5
65
100
AcDbEntity
  8
0
 62
     0
100
AcDbLine
 10
1812.500002
 20
290.000005
 30
0.0
 11
1812.941944
 21
290.441946
 31
0.0
  0
LINE
  5
66
100
AcDbEntity
  8
0
 62
     0
100
AcDbLine
 10
1814.55806
 20
292.058063
 30
0.0
 11
1815.000002
 21
292.500005
 31
0.0
  0
LINE
  5
67
100
AcDbEntity
  8
0
 62
     0
100
AcDbLine
 10
1804.999997
 20
285.0
 30
0.0
 11
1805.000002
 21
285.000005
 31
0.0
  0
LINE
  5
68
100
AcDbEntity
  8
0
 62
     0
100
AcDbLine
 10
1807.500002
 20
287.500005
 30
0.0
 11
1807.941944
 21
287.941946
 31
0.0
  0
LINE
  5
69
100
AcDbEntity
  8
0
 62
     0
100
AcDbLine
 10
1809.55806
 20
289.558063
 30
0.0
 11
1810.000002
 21
290.000005
 31
0.0
  0
LINE
  5
6A
100
AcDbEntity
  8
0
 62
     0
100
AcDbLine
 10
1812.500002
 20
292.500005
 30
0.0
 11
1812.941944
 21
292.941946
 31
0.0
  0
LINE
  5
6B
100
AcDbEntity
  8
0
 62
     0
100
AcDbLine
 10
1814.55806
 20
294.558063
 30
0.0
 11
1814.999997
 21
295.0
 31
0.0
  0
LINE
  5
6C
100
AcDbEntity
  8
0
 62
     0
100
AcDbLine
 10
1802.500002
 20
285.000005
 30
0.0
 11
1802.941944
 21
285.441946
 31
0.0
  0
LINE
  5
6D
100
AcDbEntity
  8
0
 62
     0
100
AcDbLine
 10
1804.55806
 20
287.058063
 30
0.0
 11
1805.000002
 21
287.500005
 31
0.0
  0
LINE
  5
6E
100
AcDbEntity
  8
0
 62
     0
100
AcDbLine
 10
1807.500002
 20
290.000005
 30
0.0
 11
1807.941944
 21
290.441946
 31
0.0
  0
LINE
  5
6F
100
AcDbEntity
  8
0
 62
     0
100
AcDbLine
 10
1809.55806
 20
292.058063
 30
0.0
 11
1810.000002
 21
292.500005
 31
0.0
  0
LINE
  5
70
100
AcDbEntity
  8
0
 62
     0
100
AcDbLine
 10
1799.999997
 20
285.0
 30
0.0
 11
1800.000002
 21
285.000005
 31
0.0
  0
LINE
  5
71
100
AcDbEntity
  8
0
 62
     0
100
AcDbLine
 10
1802.500002
 20
287.500005
 30
0.0
 11
1802.941944
 21
287.941946
 31
0.0
  0
LINE
  5
72
100
AcDbEntity
  8
0
 62
     0
100
AcDbLine
 10
1804.55806
 20
289.558063
 30
0.0
 11
1805.000002
 21
290.000005
 31
0.0
  0
LINE
  5
73
100
AcDbEntity
  8
0
 62
     0
100
AcDbLine
 10
1807.500002
 20
292.500005
 30
0.0
 11
1807.941944
 21
292.941946
 31
0.0
  0
LINE
  5
74
100
AcDbEntity
  8
0
 62
     0
100
AcDbLine
 10
1809.55806
 20
294.558063
 30
0.0
 11
1809.999997
 21
295.0
 31
0.0
  0
LINE
  5
75
100
AcDbEntity
  8
0
 62
     0
100
AcDbLine
 10
1800.0
 20
287.500003
 30
0.0
 11
1800.000002
 21
287.500005
 31
0.0
  0
LINE
  5
76
100
AcDbEntity
  8
0
 62
     0
100
AcDbLine
 10
1802.500002
 20
290.000005
 30
0.0
 11
1802.941944
 21
290.441946
 31
0.0
  0
LINE
  5
77
100
AcDbEntity
  8
0
 62
     0
100
AcDbLine
 10
1804.55806
 20
292.058063
 30
0.0
 11
1805.000002
 21
292.500005
 31
0.0
  0
LINE
  5
78
100
AcDbEntity
  8
0
 62
     0
100
AcDbLine
 10
1800.0
 20
290.000003
 30
0.0
 11
1800.000002
 21
290.000005
 31
0.0
  0
LINE
  5
79
100
AcDbEntity
  8
0
 62
     0
100
AcDbLine
 10
1802.500002
 20
292.500005
 30
0.0
 11
1802.941944
 21
292.941946
 31
0.0
  0
LINE
  5
7A
100
AcDbEntity
  8
0
 62
     0
100
AcDbLine
 10
1804.55806
 20
294.558063
 30
0.0
 11
1804.999997
 21
295.0
 31
0.0
  0
LINE
  5
7B
100
AcDbEntity
  8
0
 62
     0
100
AcDbLine
 10
1800.0
 20
292.500003
 30
0.0
 11
1800.000002
 21
292.500005
 31
0.0
  0
LINE
  5
7C
100
AcDbEntity
  8
0
 62
     0
100
AcDbLine
 10
1822.500002
 20
285.000005
 30
0.0
 11
1822.941944
 21
285.441946
 31
0.0
  0
LINE
  5
7D
100
AcDbEntity
  8
0
 62
     0
100
AcDbLine
 10
1824.55806
 20
287.058063
 30
0.0
 11
1825.000002
 21
287.500005
 31
0.0
  0
LINE
  5
7E
100
AcDbEntity
  8
0
 62
     0
100
AcDbLine
 10
1827.500002
 20
290.000005
 30
0.0
 11
1827.941944
 21
290.441946
 31
0.0
  0
LINE
  5
7F
100
AcDbEntity
  8
0
 62
     0
100
AcDbLine
 10
1829.55806
 20
292.058063
 30
0.0
 11
1830.000002
 21
292.500005
 31
0.0
  0
LINE
  5
80
100
AcDbEntity
  8
0
 62
     0
100
AcDbLine
 10
1824.999997
 20
285.0
 30
0.0
 11
1825.000002
 21
285.000005
 31
0.0
  0
LINE
  5
81
100
AcDbEntity
  8
0
 62
     0
100
AcDbLine
 10
1827.500002
 20
287.500005
 30
0.0
 11
1827.941944
 21
287.941946
 31
0.0
  0
LINE
  5
82
100
AcDbEntity
  8
0
 62
     0
100
AcDbLine
 10
1829.55806
 20
289.558063
 30
0.0
 11
1830.000002
 21
290.000005
 31
0.0
  0
LINE
  5
83
100
AcDbEntity
  8
0
 62
     0
100
AcDbLine
 10
1832.500002
 20
292.500005
 30
0.0
 11
1832.941944
 21
292.941946
 31
0.0
  0
LINE
  5
84
100
AcDbEntity
  8
0
 62
     0
100
AcDbLine
 10
1834.55806
 20
294.558063
 30
0.0
 11
1834.999997
 21
295.0
 31
0.0
  0
LINE
  5
85
100
AcDbEntity
  8
0
 62
     0
100
AcDbLine
 10
1827.500002
 20
285.000005
 30
0.0
 11
1827.941944
 21
285.441946
 31
0.0
  0
LINE
  5
86
100
AcDbEntity
  8
0
 62
     0
100
AcDbLine
 10
1829.55806
 20
287.058063
 30
0.0
 11
1830.000002
 21
287.500005
 31
0.0
  0
LINE
  5
87
100
AcDbEntity
  8
0
 62
     0
100
AcDbLine
 10
1832.500002
 20
290.000005
 30
0.0
 11
1832.941944
 21
290.441946
 31
0.0
  0
LINE
  5
88
100
AcDbEntity
  8
0
 62
     0
100
AcDbLine
 10
1834.55806
 20
292.058063
 30
0.0
 11
1835.000002
 21
292.500005
 31
0.0
  0
LINE
  5
89
100
AcDbEntity
  8
0
 62
     0
100
AcDbLine
 10
1829.999997
 20
285.0
 30
0.0
 11
1830.000002
 21
285.000005
 31
0.0
  0
LINE
  5
8A
100
AcDbEntity
  8
0
 62
     0
100
AcDbLine
 10
1832.500002
 20
287.500005
 30
0.0
 11
1832.941944
 21
287.941946
 31
0.0
  0
LINE
  5
8B
100
AcDbEntity
  8
0
 62
     0
100
AcDbLine
 10
1834.55806
 20
289.558063
 30
0.0
 11
1835.000002
 21
290.000005
 31
0.0
  0
LINE
  5
8C
100
AcDbEntity
  8
0
 62
     0
100
AcDbLine
 10
1837.500002
 20
292.500005
 30
0.0
 11
1837.941944
 21
292.941946
 31
0.0
  0
LINE
  5
8D
100
AcDbEntity
  8
0
 62
     0
100
AcDbLine
 10
1839.55806
 20
294.558063
 30
0.0
 11
1839.999997
 21
295.0
 31
0.0
  0
LINE
  5
8E
100
AcDbEntity
  8
0
 62
     0
100
AcDbLine
 10
1832.500002
 20
285.000005
 30
0.0
 11
1832.941944
 21
285.441946
 31
0.0
  0
LINE
  5
8F
100
AcDbEntity
  8
0
 62
     0
100
AcDbLine
 10
1834.55806
 20
287.058063
 30
0.0
 11
1835.000002
 21
287.500005
 31
0.0
  0
LINE
  5
90
100
AcDbEntity
  8
0
 62
     0
100
AcDbLine
 10
1837.500002
 20
290.000005
 30
0.0
 11
1837.941944
 21
290.441946
 31
0.0
  0
LINE
  5
91
100
AcDbEntity
  8
0
 62
     0
100
AcDbLine
 10
1839.55806
 20
292.058063
 30
0.0
 11
1840.000002
 21
292.500005
 31
0.0
  0
LINE
  5
92
100
AcDbEntity
  8
0
 62
     0
100
AcDbLine
 10
1834.999997
 20
285.0
 30
0.0
 11
1835.000002
 21
285.000005
 31
0.0
  0
LINE
  5
93
100
AcDbEntity
  8
0
 62
     0
100
AcDbLine
 10
1837.500002
 20
287.500005
 30
0.0
 11
1837.941944
 21
287.941946
 31
0.0
  0
LINE
  5
94
100
AcDbEntity
  8
0
 62
     0
100
AcDbLine
 10
1839.55806
 20
289.558063
 30
0.0
 11
1840.000002
 21
290.000005
 31
0.0
  0
LINE
  5
95
100
AcDbEntity
  8
0
 62
     0
100
AcDbLine
 10
1842.500002
 20
292.500005
 30
0.0
 11
1842.941944
 21
292.941946
 31
0.0
  0
LINE
  5
96
100
AcDbEntity
  8
0
 62
     0
100
AcDbLine
 10
1844.55806
 20
294.558063
 30
0.0
 11
1844.999997
 21
295.0
 31
0.0
  0
LINE
  5
97
100
AcDbEntity
  8
0
 62
     0
100
AcDbLine
 10
1837.500002
 20
285.000005
 30
0.0
 11
1837.941944
 21
285.441946
 31
0.0
  0
LINE
  5
98
100
AcDbEntity
  8
0
 62
     0
100
AcDbLine
 10
1839.55806
 20
287.058063
 30
0.0
 11
1840.000002
 21
287.500005
 31
0.0
  0
LINE
  5
99
100
AcDbEntity
  8
0
 62
     0
100
AcDbLine
 10
1842.500002
 20
290.000005
 30
0.0
 11
1842.941944
 21
290.441946
 31
0.0
  0
LINE
  5
9A
100
AcDbEntity
  8
0
 62
     0
100
AcDbLine
 10
1844.55806
 20
292.058063
 30
0.0
 11
1845.000002
 21
292.500005
 31
0.0
  0
LINE
  5
9B
100
AcDbEntity
  8
0
 62
     0
100
AcDbLine
 10
1839.999997
 20
285.0
 30
0.0
 11
1840.000002
 21
285.000005
 31
0.0
  0
LINE
  5
9C
100
AcDbEntity
  8
0
 62
     0
100
AcDbLine
 10
1842.500002
 20
287.500005
 30
0.0
 11
1842.941944
 21
287.941946
 31
0.0
  0
LINE
  5
9D
100
AcDbEntity
  8
0
 62
     0
100
AcDbLine
 10
1844.55806
 20
289.558063
 30
0.0
 11
1845.000002
 21
290.000005
 31
0.0
  0
LINE
  5
9E
100
AcDbEntity
  8
0
 62
     0
100
AcDbLine
 10
1847.500002
 20
292.500005
 30
0.0
 11
1847.941944
 21
292.941946
 31
0.0
  0
LINE
  5
9F
100
AcDbEntity
  8
0
 62
     0
100
AcDbLine
 10
1849.55806
 20
294.558063
 30
0.0
 11
1849.999997
 21
295.0
 31
0.0
  0
LINE
  5
A0
100
AcDbEntity
  8
0
 62
     0
100
AcDbLine
 10
1842.500002
 20
285.000005
 30
0.0
 11
1842.941944
 21
285.441946
 31
0.0
  0
LINE
  5
A1
100
AcDbEntity
  8
0
 62
     0
100
AcDbLine
 10
1844.55806
 20
287.058063
 30
0.0
 11
1845.000002
 21
287.500005
 31
0.0
  0
LINE
  5
A2
100
AcDbEntity
  8
0
 62
     0
100
AcDbLine
 10
1847.500002
 20
290.000005
 30
0.0
 11
1847.941944
 21
290.441946
 31
0.0
  0
LINE
  5
A3
100
AcDbEntity
  8
0
 62
     0
100
AcDbLine
 10
1849.55806
 20
292.058063
 30
0.0
 11
1850.0
 21
292.500003
 31
0.0
  0
LINE
  5
A4
100
AcDbEntity
  8
0
 62
     0
100
AcDbLine
 10
1844.999997
 20
285.0
 30
0.0
 11
1845.000002
 21
285.000005
 31
0.0
  0
LINE
  5
A5
100
AcDbEntity
  8
0
 62
     0
100
AcDbLine
 10
1847.500002
 20
287.500005
 30
0.0
 11
1847.941944
 21
287.941946
 31
0.0
  0
LINE
  5
A6
100
AcDbEntity
  8
0
 62
     0
100
AcDbLine
 10
1849.55806
 20
289.558063
 30
0.0
 11
1850.0
 21
290.000003
 31
0.0
  0
LINE
  5
A7
100
AcDbEntity
  8
0
 62
     0
100
AcDbLine
 10
1847.500002
 20
285.000005
 30
0.0
 11
1847.941944
 21
285.441946
 31
0.0
  0
LINE
  5
A8
100
AcDbEntity
  8
0
 62
     0
100
AcDbLine
 10
1849.55806
 20
287.058063
 30
0.0
 11
1850.0
 21
287.500003
 31
0.0
  0
ENDBLK
  5
AA
100
AcDbEntity
  8
0
100
AcDbBlockEnd
  0
BLOCK
  5
AE
100
AcDbEntity
  8
0
100
AcDbBlockBegin
  2
58022
 70
     0
 10
0.0
 20
0.0
 30
0.0
  3
58022
  1

  0
LWPOLYLINE
  5
26
100
AcDbEntity
  8
SPKONTUR
100
AcDbPolyline
 90
       16
 70
     1
 43
0.0
 10
-80.0
 20
0.0
 10
-80.0
 20
-43.2
 42
0.414214
 10
-78.2
 20
-45.0
 10
-78.199
 20
-45.0
 42
0.414214
 10
-76.4
 20
-43.201
 10
-76.4
 20
-25.0
 10
-31.8
 20
-25.0
 42
0.414214
 10
-30.0
 20
-23.2
 10
-30.0
 20
0.0
 10
-30.0
 20
23.2
 42
0.414214
 10
-31.8
 20
25.0
 10
-76.4
 20
25.0
 10
-76.4
 20
43.201
 42
0.414214
 10
-78.199
 20
45.0
 10
-78.2
 20
45.0
 42
0.414214
 10
-80.0
 20
43.2
  0
LWPOLYLINE
  5
28
100
AcDbEntity
  8
STALPROFIL
100
AcDbPolyline
 90
       16
 70
     1
 43
1.8
 10
-79.1
 20
0.0
 10
-79.1
 20
-43.2
 42
0.414214
 10
-78.199
 20
-44.1
 42
0.414214
 10
-77.3
 20
-43.201
 10
-77.3
 20
-25.0
 42
-0.414214
 10
-76.4
 20
-24.1
 10
-31.8
 20
-24.1
 42
0.414214
 10
-30.9
 20
-23.2
 10
-30.9
 20
0.0
 10
-30.9
 20
23.2
 42
0.414214
 10
-31.8
 20
24.1
 10
-76.4
 20
24.1
 42
-0.414214
 10
-77.3
 20
25.0
 10
-77.3
 20
43.201
 42
0.414214
 10
-78.2
 20
44.1
 42
0.414214
 10
-79.1
 20
43.2
  0
LWPOLYLINE
  5
2A
100
AcDbEntity
  8
SPKONTUR
100
AcDbPolyline
 90
        8
 70
     1
 43
0.0
 10
-20.0
 20
23.2
 42
-0.414214
 10
-18.2
 20
25.0
 10
-1.8
 20
25.0
 42
-0.414214
 10
0.0
 20
23.2
 10
0.0
 20
-23.2
 42
-0.414214
 10
-1.8
 20
-25.0
 10
-18.2
 20
-25.0
 42
-0.414214
 10
-20.0
 20
-23.2
  0
LWPOLYLINE
  5
2B
100
AcDbEntity
  8
STALPROFIL
100
AcDbPolyline
 90
        8
 70
     1
 43
1.8
 10
-19.1
 20
23.2
 42
-0.414214
 10
-18.2
 20
24.1
 10
-1.8
 20
24.1
 42
-0.414214
 10
-0.9
 20
23.2
 10
-0.9
 20
-23.2
 42
-0.414214
 10
-1.8
 20
-24.1
 10
-18.2
 20
-24.1
 42
-0.414214
 10
-19.1
 20
-23.2
  0
INSERT
  5
2C
100
AcDbEntity
  8
GLAS_MED_FOGNING
100
AcDbBlockReference
  2
*X5
 10
-315.0
 20
1825.0
 30
0.0
 50
270.0
1001
ACAD
1000
HATCH
1002
{
1070
    16
1000
FLEX
1040
10.0
1040
0.0
1002
}
  0
LINE
  5
AB
100
AcDbEntity
  8
GLAS_MED_FOGNING
100
AcDbLine
 10
-20.0
 20
25.0
 30
0.0
 11
-20.0
 21
20.0
 31
0.0
  0
LINE
  5
AC
100
AcDbEntity
  8
GLAS_MED_FOGNING
100
AcDbLine
 10
-30.0
 20
25.0
 30
0.0
 11
-20.0
 21
25.0
 31
0.0
  0
LINE
  5
AD
100
AcDbEntity
  8
GLAS_MED_FOGNING
100
AcDbLine
 10
-30.0
 20
20.0
 30
0.0
 11
-30.0
 21
25.0
 31
0.0
  0
ENDBLK
  5
AF
100
AcDbEntity
  8
0
100
AcDbBlockEnd
  0
BLOCK
  5
264
100
AcDbEntity
  8
0
100
AcDbBlockBegin
  2
SP58011
 70
     0
 10
0.0
 20
0.0
 30
0.0
  3
SP58011
  1

  0
LWPOLYLINE
  5
25D
100
AcDbEntity
  8
SPKONTUR
100
AcDbPolyline
 90
       11
 70
     1
 43
0.0
 10
-25.0
 20
-76.4
 10
-25.0
 20
-31.8
 42
-0.414214
 10
-23.2
 20
-30.0
 10
23.2
 20
-30.0
 42
-0.414214
 10
25.0
 20
-31.8
 10
25.0
 20
-78.2
 42
-0.414214
 10
23.2
 20
-80.0
 10
-43.2
 20
-80.0
 42
-0.414214
 10
-45.0
 20
-78.2
 10
-45.0
 20
-78.199
 42
-0.414214
 10
-43.201
 20
-76.4
  0
LWPOLYLINE
  5
25E
100
AcDbEntity
  8
STALPROFIL
100
AcDbPolyline
 90
       11
 70
     1
 43
1.8
 10
-24.1
 20
-76.4
 10
-24.1
 20
-31.8
 42
-0.414214
 10
-23.2
 20
-30.9
 10
23.2
 20
-30.9
 42
-0.414214
 10
24.1
 20
-31.8
 10
24.1
 20
-78.2
 42
-0.414214
 10
23.2
 20
-79.1
 10
-43.2
 20
-79.1
 42
-0.414214
 10
-44.1
 20
-78.199
 42
-0.414214
 10
-43.201
 20
-77.3
 10
-25.0
 20
-77.3
 42
0.414214
  0
LWPOLYLINE
  5
25F
100
AcDbEntity
  8
GLAS_MED_FOGNING
100
AcDbPolyline
 90
        4
 70
     0
 43
0.0
 10
23.2
 20
-20.0
 10
25.0
 20
-20.0
 10
25.0
 20
-30.0
 10
23.2
 20
-30.0
  0
LWPOLYLINE
  5
260
100
AcDbEntity
  8
GLAS_MED_FOGNING
100
AcDbPolyline
 90
        4
 70
     0
 43
0.0
 10
-23.2
 20
-20.0
 10
-25.0
 20
-20.0
 10
-25.0
 20
-30.0
 10
-23.2
 20
-30.0
  0
INSERT
  5
261
100
AcDbEntity
  8
GLAS_MED_FOGNING
100
AcDbBlockReference
  2
*X2
 10
-1730.0
 20
-420.0
 30
0.0
1001
ACAD
1000
HATCH
1002
{
1070
    16
1000
FLEX
1040
10.0
1040
0.0
1002
}
  0
LWPOLYLINE
  5
262
100
AcDbEntity
  8
SPKONTUR
100
AcDbPolyline
 90
       25
 70
     0
 43
0.0
 10
-18.4
 20
-8.1
 10
-18.4
 20
-8.114719
 10
-18.4
 20
-8.1
 42
-0.414214
 10
-15.9
 20
-5.6
 10
-13.8
 20
-5.6
 42
0.414214
 10
-12.0
 20
-3.8
 10
-12.0
 20
-3.6
 42
-0.414214
 10
-8.4
 20
0.0
 10
23.2
 20
0.0
 42
-0.414214
 10
25.0
 20
-1.8
 10
25.0
 20
-18.2
 42
-0.414214
 10
23.2
 20
-20.0
 10
-23.2
 20
-20.0
 42
-0.414214
 10
-25.0
 20
-18.2
 10
-25.0
 20
-7.9
 42
-0.414214
 10
-23.2
 20
-6.1
 10
-23.199
 20
-6.1
 42
-0.414214
 10
-21.4
 20
-7.899
 10
-21.4
 20
-12.6
 42
0.414214
 10
-19.6
 20
-14.4
 10
-18.2
 20
-14.4
 42
0.414214
 10
-16.4
 20
-12.6
 42
0.198912
 10
-17.27868
 20
-10.47868
 10
-17.52132
 20
-10.236039
 42
-0.198912
 10
-18.4
 20
-8.114719
  0
LWPOLYLINE
  5
263
100
AcDbEntity
  8
STALPROFIL
100
AcDbPolyline
 90
       22
 70
     1
 43
1.8
 10
-17.5
 20
-8.114719
 10
-17.5
 20
-8.1
 42
-0.414214
 10
-15.9
 20
-6.5
 10
-13.8
 20
-6.5
 42
0.414214
 10
-11.1
 20
-3.8
 10
-11.1
 20
-3.6
 42
-0.414214
 10
-8.4
 20
-0.9
 10
23.2
 20
-0.9
 42
-0.414214
 10
24.1
 20
-1.8
 10
24.1
 20
-18.2
 42
-0.414214
 10
23.2
 20
-19.1
 10
-23.2
 20
-19.1
 42
-0.414214
 10
-24.1
 20
-18.2
 10
-24.1
 20
-7.9
 42
-0.414214
 10
-23.199
 20
-7.0
 42
-0.414214
 10
-22.3
 20
-7.899
 10
-22.3
 20
-12.6
 42
0.414214
 10
-19.6
 20
-15.3
 10
-18.2
 20
-15.3
 42
0.414214
 10
-15.5
 20
-12.6
 42
0.198912
 10
-16.642284
 20
-9.842284
 10
-16.884924
 20
-9.599643
 42
-0.198912
  0
ENDBLK
  5
265
100
AcDbEntity
  8
0
100
AcDbBlockEnd
  0
BLOCK
  5
3DD
100
AcDbEntity
  8
0
100
AcDbBlockBegin
  2
SP58012
 70
     0
 10
0.0
 20
0.0
 30
0.0
  3
SP58012
  1

  0
LINE
  5
353
100
AcDbEntity
  8
GLAS_MED_FOGNING
100
AcDbLine
 10
25.0
 20
-20.0
 30
0.0
 11
20.0
 21
-20.0
 31
0.0
  0
LINE
  5
354
100
AcDbEntity
  8
GLAS_MED_FOGNING
100
AcDbLine
 10
20.0
 20
-30.0
 30
0.0
 11
25.0
 21
-30.0
 31
0.0
  0
LINE
  5
355
100
AcDbEntity
  8
GLAS_MED_FOGNING
100
AcDbLine
 10
25.0
 20
-30.0
 30
0.0
 11
25.0
 21
-20.0
 31
0.0
  0
LWPOLYLINE
  5
356
100
AcDbEntity
  8
GLAS_MED_FOGNING
100
AcDbPolyline
 90
        4
 70
     0
 43
0.0
 10
-23.2
 20
-20.0
 10
-25.0
 20
-20.0
 10
-25.0
 20
-30.0
 10
-23.2
 20
-30.0
  0
LWPOLYLINE
  5
357
100
AcDbEntity
  8
STALPROFIL
100
AcDbPolyline
 90
       16
 70
     1
 43
1.8
 10
0.0
 20
-79.1
 10
43.2
 20
-79.1
 42
0.414214
 10
44.1
 20
-78.199
 42
0.414214
 10
43.201
 20
-77.3
 10
25.0
 20
-77.3
 42
-0.414214
 10
24.1
 20
-76.4
 10
24.1
 20
-31.8
 42
0.414214
 10
23.2
 20
-30.9
 10
0.0
 20
-30.9
 10
-23.2
 20
-30.9
 42
0.414214
 10
-24.1
 20
-31.8
 10
-24.1
 20
-76.4
 42
-0.414214
 10
-25.0
 20
-77.3
 10
-43.201
 20
-77.3
 42
0.414214
 10
-44.1
 20
-78.2
 42
0.414214
 10
-43.2
 20
-79.1
  0
LWPOLYLINE
  5
358
100
AcDbEntity
  8
SPKONTUR
100
AcDbPolyline
 90
       16
 70
     1
 43
0.0
 10
0.0
 20
-80.0
 10
43.2
 20
-80.0
 42
0.414214
 10
45.0
 20
-78.2
 10
45.0
 20
-78.199
 42
0.414214
 10
43.201
 20
-76.4
 10
25.0
 20
-76.4
 10
25.0
 20
-31.8
 42
0.414214
 10
23.2
 20
-30.0
 10
0.0
 20
-30.0
 10
-23.2
 20
-30.0
 42
0.414214
 10
-25.0
 20
-31.8
 10
-25.0
 20
-76.4
 10
-43.201
 20
-76.4
 42
0.414214
 10
-45.0
 20
-78.199
 10
-45.0
 20
-78.2
 42
0.414214
 10
-43.2
 20
-80.0
  0
LWPOLYLINE
  5
359
100
AcDbEntity
  8
SPKONTUR
100
AcDbPolyline
 90
       25
 70
     0
 43
0.0
 10
-18.4
 20
-8.1
 10
-18.4
 20
-8.114719
 10
-18.4
 20
-8.1
 42
-0.414214
 10
-15.9
 20
-5.6
 10
-13.8
 20
-5.6
 42
0.414214
 10
-12.0
 20
-3.8
 10
-12.0
 20
-3.6
 42
-0.414214
 10
-8.4
 20
0.0
 10
23.2
 20
0.0
 42
-0.414214
 10
25.0
 20
-1.8
 10
25.0
 20
-18.2
 42
-0.414214
 10
23.2
 20
-20.0
 10
-23.2
 20
-20.0
 42
-0.414214
 10
-25.0
 20
-18.2
 10
-25.0
 20
-7.9
 42
-0.414214
 10
-23.2
 20
-6.1
 10
-23.199
 20
-6.1
 42
-0.414214
 10
-21.4
 20
-7.899
 10
-21.4
 20
-12.6
 42
0.414214
 10
-19.6
 20
-14.4
 10
-18.2
 20
-14.4
 42
0.414214
 10
-16.4
 20
-12.6
 42
0.198912
 10
-17.27868
 20
-10.47868
 10
-17.52132
 20
-10.236039
 42
-0.198912
 10
-18.4
 20
-8.114719
  0
LWPOLYLINE
  5
35A
100
AcDbEntity
  8
STALPROFIL
100
AcDbPolyline
 90
       22
 70
     1
 43
1.8
 10
-17.5
 20
-8.114719
 10
-17.5
 20
-8.1
 42
-0.414214
 10
-15.9
 20
-6.5
 10
-13.8
 20
-6.5
 42
0.414214
 10
-11.1
 20
-3.8
 10
-11.1
 20
-3.6
 42
-0.414214
 10
-8.4
 20
-0.9
 10
23.2
 20
-0.9
 42
-0.414214
 10
24.1
 20
-1.8
 10
24.1
 20
-18.2
 42
-0.414214
 10
23.2
 20
-19.1
 10
-23.2
 20
-19.1
 42
-0.414214
 10
-24.1
 20
-18.2
 10
-24.1
 20
-7.9
 42
-0.414214
 10
-23.199
 20
-7.0
 42
-0.414214
 10
-22.3
 20
-7.899
 10
-22.3
 20
-12.6
 42
0.414214
 10
-19.6
 20
-15.3
 10
-18.2
 20
-15.3
 42
0.414214
 10
-15.5
 20
-12.6
 42
0.198912
 10
-16.642284
 20
-9.842284
 10
-16.884924
 20
-9.599643
 42
-0.198912
  0
INSERT
  5
35B
100
AcDbEntity
  8
GLAS_MED_FOGNING
100
AcDbBlockReference
  2
*X4
 10
-1730.0
 20
-315.0
 30
0.0
1001
ACAD
1000
HATCH
1002
{
1070
    16
1000
FLEX
1040
10.0
1040
0.0
1002
}
  0
ENDBLK
  5
3DE
100
AcDbEntity
  8
0
100
AcDbBlockEnd
  0
BLOCK
  5
13B
100
AcDbEntity
  8
0
100
AcDbBlockBegin
  2
SP58021
 70
     0
 10
0.0
 20
0.0
 30
0.0
  3
SP58021
  1

  0
INSERT
  5
B3
100
AcDbEntity
  8
GLAS_MED_FOGNING
100
AcDbBlockReference
  2
*X3
 10
-1825.0
 20
-420.0
 30
0.0
1001
ACAD
1000
HATCH
1002
{
1070
    16
1000
FLEX
1040
10.0
1040
0.0
1002
}
  0
LWPOLYLINE
  5
132
100
AcDbEntity
  8
SPKONTUR
100
AcDbPolyline
 90
        8
 70
     1
 43
0.0
 10
-23.2
 20
-20.0
 42
-0.414214
 10
-25.0
 20
-18.2
 10
-25.0
 20
-1.8
 42
-0.414214
 10
-23.2
 20
0.0
 10
23.2
 20
0.0
 42
-0.414214
 10
25.0
 20
-1.8
 10
25.0
 20
-18.2
 42
-0.414214
 10
23.2
 20
-20.0
  0
LWPOLYLINE
  5
133
100
AcDbEntity
  8
STALPROFIL
100
AcDbPolyline
 90
        8
 70
     1
 43
1.8
 10
-23.2
 20
-19.1
 42
-0.414214
 10
-24.1
 20
-18.2
 10
-24.1
 20
-1.8
 42
-0.414214
 10
-23.2
 20
-0.9
 10
23.2
 20
-0.9
 42
-0.414214
 10
24.1
 20
-1.8
 10
24.1
 20
-18.2
 42
-0.414214
 10
23.2
 20
-19.1
  0
LWPOLYLINE
  5
134
100
AcDbEntity
  8
SPKONTUR
100
AcDbPolyline
 90
       11
 70
     1
 43
0.0
 10
-25.0
 20
-76.4
 10
-25.0
 20
-31.8
 42
-0.414214
 10
-23.2
 20
-30.0
 10
23.2
 20
-30.0
 42
-0.414214
 10
25.0
 20
-31.8
 10
25.0
 20
-78.2
 42
-0.414214
 10
23.2
 20
-80.0
 10
-43.2
 20
-80.0
 42
-0.414214
 10
-45.0
 20
-78.2
 10
-45.0
 20
-78.199
 42
-0.414214
 10
-43.201
 20
-76.4
  0
LWPOLYLINE
  5
135
100
AcDbEntity
  8
STALPROFIL
100
AcDbPolyline
 90
       11
 70
     1
 43
1.8
 10
-24.1
 20
-76.4
 10
-24.1
 20
-31.8
 42
-0.414214
 10
-23.2
 20
-30.9
 10
23.2
 20
-30.9
 42
-0.414214
 10
24.1
 20
-31.8
 10
24.1
 20
-78.2
 42
-0.414214
 10
23.2
 20
-79.1
 10
-43.2
 20
-79.1
 42
-0.414214
 10
-44.1
 20
-78.199
 42
-0.414214
 10
-43.201
 20
-77.3
 10
-25.0
 20
-77.3
 42
0.414214
  0
LWPOLYLINE
  5
136
100
AcDbEntity
  8
GLAS_MED_FOGNING
100
AcDbPolyline
 90
        4
 70
     0
 43
0.0
 10
-23.2
 20
-20.0
 10
-25.0
 20
-20.0
 10
-25.0
 20
-30.0
 10
-23.2
 20
-30.0
  0
LWPOLYLINE
  5
137
100
AcDbEntity
  8
GLAS_MED_FOGNING
100
AcDbPolyline
 90
        4
 70
     0
 43
0.0
 10
23.2
 20
-20.0
 10
25.0
 20
-20.0
 10
25.0
 20
-30.0
 10
23.2
 20
-30.0
  0
LINE
  5
138
100
AcDbEntity
  8
GLAS_MED_FOGNING
100
AcDbLine
 10
25.0
 20
-30.0
 30
0.0
 11
25.0
 21
-28.27593
 31
0.0
  0
LINE
  5
139
100
AcDbEntity
  8
GLAS_MED_FOGNING
100
AcDbLine
 10
25.0
 20
-20.0
 30
0.0
 11
24.165255
 21
-20.0
 31
0.0
  0
LINE
  5
13A
100
AcDbEntity
  8
GLAS_MED_FOGNING
100
AcDbLine
 10
25.0
 20
-30.0
 30
0.0
 11
25.0
 21
-20.0
 31
0.0
  0
ENDBLK
  5
13C
100
AcDbEntity
  8
0
100
AcDbBlockEnd
  0
BLOCK
  5
1CD
100
AcDbEntity
  8
0
100
AcDbBlockBegin
  2
SP58022
 70
     0
 10
0.0
 20
0.0
 30
0.0
  3
SP58022
  1

  0
LWPOLYLINE
  5
1CA
100
AcDbEntity
  8
GLAS_MED_FOGNING
100
AcDbPolyline
 90
        4
 70
     0
 43
0.0
 10
23.2
 20
-20.0
 10
25.0
 20
-20.0
 10
25.0
 20
-30.0
 10
23.2
 20
-30.0
  0
LWPOLYLINE
  5
1CB
100
AcDbEntity
  8
GLAS_MED_FOGNING
100
AcDbPolyline
 90
        4
 70
     0
 43
0.0
 10
-23.2
 20
-20.0
 10
-25.0
 20
-20.0
 10
-25.0
 20
-30.0
 10
-23.2
 20
-30.0
  0
INSERT
  5
1CC
100
AcDbEntity
  8
GLAS_MED_FOGNING
100
AcDbBlockReference
  2
58022
 10
0.0
 20
0.0
 30
0.0
 50
90.0
  0
ENDBLK
  5
1CE
100
AcDbEntity
  8
0
100
AcDbBlockEnd
  0
BLOCK
  5
340
100
AcDbEntity
  8
0
100
AcDbBlockBegin
  2
SP58012-85
 70
     0
 10
0.0
 20
0.0
 30
0.0
  3
SP58012-85
  1

  0
LWPOLYLINE
  5
268
100
AcDbEntity
  8
SPKONTUR
100
AcDbPolyline
 90
       37
 70
     0
 43
0.0
 10
34.0
 20
-37.99
 10
34.0
 20
-38.0
 42
0.414214
 10
31.0
 20
-35.0
 10
28.5
 20
-35.0
 42
-0.414214
 10
27.0
 20
-33.5
 10
27.0
 20
-33.0
 42
0.414214
 10
24.0
 20
-30.0
 10
-42.5
 20
-30.0
 42
0.414214
 10
-45.0
 20
-32.5
 10
-45.0
 20
-55.0
 10
-45.0
 20
-75.5
 42
-0.414214
 10
-46.5
 20
-77.0
 10
-63.5
 20
-77.0
 42
0.414214
 10
-65.0
 20
-78.5
 10
-65.0
 20
-78.501
 42
0.414214
 10
-63.501
 20
-80.0
 10
15.0
 20
-80.0
 10
58.501
 20
-80.0
 42
0.414214
 10
60.0
 20
-78.501
 10
60.0
 20
-78.5
 42
0.414214
 10
58.5
 20
-77.0
 10
41.5
 20
-77.0
 42
-0.414214
 10
40.0
 20
-75.5
 10
40.0
 20
-55.0
 10
40.0
 20
-43.5
 10
40.0
 20
-37.499
 42
0.414214
 10
38.501
 20
-36.0
 10
38.5
 20
-36.0
 42
0.414214
 10
37.0
 20
-37.5
 10
37.0
 20
-42.0
 42
-0.414214
 10
35.5
 20
-43.5
 10
33.5
 20
-43.5
 42
-0.414214
 10
32.0
 20
-42.0
 42
-0.198912
 10
32.43934
 20
-40.93934
 10
33.12132
 20
-40.257359
 42
0.198912
 10
34.0
 20
-38.136039
 10
34.0
 20
-38.0
  0
LWPOLYLINE
  5
269
100
AcDbEntity
  8
STALPROFIL
100
AcDbPolyline
 90
       31
 70
     1
 43
1.5
 10
33.25
 20
-38.0
 42
0.414214
 10
31.0
 20
-35.75
 10
28.5
 20
-35.75
 42
-0.414214
 10
26.25
 20
-33.5
 10
26.25
 20
-33.0
 42
0.414214
 10
24.0
 20
-30.75
 10
-42.5
 20
-30.75
 42
0.414214
 10
-44.25
 20
-32.5
 10
-44.25
 20
-75.5
 42
-0.414214
 10
-46.5
 20
-77.75
 10
-63.5
 20
-77.75
 42
0.414214
 10
-64.25
 20
-78.5
 10
-64.25
 20
-78.501
 42
0.414214
 10
-63.501
 20
-79.25
 10
58.501
 20
-79.25
 42
0.414214
 10
59.25
 20
-78.501
 10
59.25
 20
-78.5
 42
0.414214
 10
58.5
 20
-77.75
 10
41.5
 20
-77.75
 42
-0.414214
 10
39.25
 20
-75.5
 10
39.25
 20
-37.499
 42
0.414214
 10
38.501
 20
-36.75
 10
38.5
 20
-36.75
 42
0.414214
 10
37.75
 20
-37.5
 10
37.75
 20
-42.0
 42
-0.414214
 10
35.5
 20
-44.25
 10
33.5
 20
-44.25
 42
-0.414214
 10
31.25
 20
-42.0
 42
-0.198912
 10
31.90901
 20
-40.40901
 10
32.59099
 20
-39.727029
 42
0.198912
 10
33.25
 20
-38.136039
  0
INSERT
  5
26A
100
AcDbEntity
  8
GLAS_MED_FOGNING
100
AcDbBlockReference
  2
*X0
 10
-2530.0
 20
-400.0
 30
0.0
1001
ACAD
1000
HATCH
1002
{
1070
    16
1000
FLEX
1040
10.0
1040
0.0
1002
}
  0
LWPOLYLINE
  5
33D
100
AcDbEntity
  8
GLAS_MED_FOGNING
100
AcDbPolyline
 90
        4
 70
     1
 43
0.0
 10
-45.0
 20
-30.0
 10
-45.0
 20
-20.0
 10
40.0
 20
-20.0
 10
40.0
 20
-30.0
  0
LWPOLYLINE
  5
33E
100
AcDbEntity
  8
SPKONTUR
100
AcDbPolyline
 90
       25
 70
     0
 43
0.0
 10
-38.4
 20
-8.1
 10
-38.4
 20
-8.114719
 10
-38.4
 20
-8.1
 42
-0.414214
 10
-35.9
 20
-5.6
 10
-33.8
 20
-5.6
 42
0.414214
 10
-32.0
 20
-3.8
 10
-32.0
 20
-3.6
 42
-0.414214
 10
-28.4
 20
0.0
 10
38.2
 20
0.0
 42
-0.414214
 10
40.0
 20
-1.8
 10
40.0
 20
-18.2
 42
-0.414214
 10
38.2
 20
-20.0
 10
-43.2
 20
-20.0
 42
-0.414214
 10
-45.0
 20
-18.2
 10
-45.0
 20
-7.9
 42
-0.414214
 10
-43.2
 20
-6.1
 10
-43.199
 20
-6.1
 42
-0.414214
 10
-41.4
 20
-7.899
 10
-41.4
 20
-12.6
 42
0.414214
 10
-39.6
 20
-14.4
 10
-38.2
 20
-14.4
 42
0.414214
 10
-36.4
 20
-12.6
 42
0.198912
 10
-37.27868
 20
-10.47868
 10
-37.52132
 20
-10.236039
 42
-0.198912
 10
-38.4
 20
-8.114719
  0
LWPOLYLINE
  5
33F
100
AcDbEntity
  8
STALPROFIL
100
AcDbPolyline
 90
       22
 70
     1
 43
1.8
 10
-37.5
 20
-8.114719
 10
-37.5
 20
-8.1
 42
-0.414214
 10
-35.9
 20
-6.5
 10
-33.8
 20
-6.5
 42
0.414214
 10
-31.1
 20
-3.8
 10
-31.1
 20
-3.6
 42
-0.414214
 10
-28.4
 20
-0.9
 10
38.2
 20
-0.9
 42
-0.414214
 10
39.1
 20
-1.8
 10
39.1
 20
-18.2
 42
-0.414214
 10
38.2
 20
-19.1
 10
-43.2
 20
-19.1
 42
-0.414214
 10
-44.1
 20
-18.2
 10
-44.1
 20
-7.9
 42
-0.414214
 10
-43.199
 20
-7.0
 42
-0.414214
 10
-42.3
 20
-7.899
 10
-42.3
 20
-12.6
 42
0.414214
 10
-39.6
 20
-15.3
 10
-38.2
 20
-15.3
 42
0.414214
 10
-35.5
 20
-12.6
 42
0.198912
 10
-36.642284
 20
-9.842284
 10
-36.884924
 20
-9.599643
 42
-0.198912
  0
ENDBLK
  5
341
100
AcDbEntity
  8
0
100
AcDbBlockEnd
  0
BLOCK
  5
256
100
AcDbEntity
  8
0
100
AcDbBlockBegin
  2
SP58013
 70
     0
 10
0.0
 20
0.0
 30
0.0
  3
SP58013
  1

  0
LWPOLYLINE
  5
1D1
100
AcDbEntity
  8
GLAS_MED_FOGNING
100
AcDbPolyline
 90
        4
 70
     0
 43
0.0
 10
23.2
 20
-20.0
 10
25.0
 20
-20.0
 10
25.0
 20
-30.0
 10
23.2
 20
-30.0
  0
LWPOLYLINE
  5
1D2
100
AcDbEntity
  8
GLAS_MED_FOGNING
100
AcDbPolyline
 90
        4
 70
     0
 43
0.0
 10
-23.2
 20
-20.0
 10
-25.0
 20
-20.0
 10
-25.0
 20
-30.0
 10
-23.2
 20
-30.0
  0
LWPOLYLINE
  5
1D3
100
AcDbEntity
  8
SPKONTUR
100
AcDbPolyline
 90
       28
 70
     0
 43
0.0
 10
-18.4
 20
-8.1
 10
-18.4
 20
-8.114719
 10
-18.4
 20
-8.1
 42
-0.414214
 10
-15.9
 20
-5.6
 10
-13.8
 20
-5.6
 42
0.414214
 10
-12.0
 20
-3.8
 10
-12.0
 20
-3.6
 42
-0.414214
 10
-8.4
 20
0.0
 10
43.2
 20
0.0
 42
-0.414214
 10
45.0
 20
-1.8
 10
45.0
 20
-1.801
 42
-0.414214
 10
43.201
 20
-3.6
 10
25.0
 20
-3.6
 10
25.0
 20
-18.2
 42
-0.414214
 10
23.2
 20
-20.0
 10
-23.2
 20
-20.0
 42
-0.414214
 10
-25.0
 20
-18.2
 10
-25.0
 20
-7.9
 42
-0.414214
 10
-23.2
 20
-6.1
 10
-23.199
 20
-6.1
 42
-0.414214
 10
-21.4
 20
-7.899
 10
-21.4
 20
-12.6
 42
0.414214
 10
-19.6
 20
-14.4
 10
-18.2
 20
-14.4
 42
0.414214
 10
-16.4
 20
-12.6
 42
0.198912
 10
-17.27868
 20
-10.47868
 10
-17.52132
 20
-10.236039
 42
-0.198912
 10
-18.4
 20
-8.114719
  0
LWPOLYLINE
  5
1D4
100
AcDbEntity
  8
STALPROFIL
100
AcDbPolyline
 90
       25
 70
     1
 43
1.8
 10
-17.5
 20
-8.114719
 10
-17.5
 20
-8.1
 42
-0.414214
 10
-15.9
 20
-6.5
 10
-13.8
 20
-6.5
 42
0.414214
 10
-11.1
 20
-3.8
 10
-11.1
 20
-3.6
 42
-0.414214
 10
-8.4
 20
-0.9
 10
43.2
 20
-0.9
 42
-0.414214
 10
44.1
 20
-1.801
 42
-0.414214
 10
43.201
 20
-2.7
 10
25.0
 20
-2.7
 42
0.414214
 10
24.1
 20
-3.6
 10
24.1
 20
-18.2
 42
-0.414214
 10
23.2
 20
-19.1
 10
-23.2
 20
-19.1
 42
-0.414214
 10
-24.1
 20
-18.2
 10
-24.1
 20
-7.9
 42
-0.414214
 10
-23.199
 20
-7.0
 42
-0.414214
 10
-22.3
 20
-7.899
 10
-22.3
 20
-12.6
 42
0.414214
 10
-19.6
 20
-15.3
 10
-18.2
 20
-15.3
 42
0.414214
 10
-15.5
 20
-12.6
 42
0.198912
 10
-16.642284
 20
-9.842284
 10
-16.884924
 20
-9.599643
 42
-0.198912
  0
INSERT
  5
1D5
100
AcDbEntity
  8
GLAS_MED_FOGNING
100
AcDbBlockReference
  2
*X1
 10
-2025.0
 20
-390.0
 30
0.0
1001
ACAD
1000
HATCH
1002
{
1070
    16
1000
FLEX
1040
10.0
1040
0.0
1002
}
  0
LWPOLYLINE
  5
254
100
AcDbEntity
  8
SPKONTUR
100
AcDbPolyline
 90
       11
 70
     1
 43
0.0
 10
-25.0
 20
-76.4
 10
-25.0
 20
-31.8
 42
-0.414214
 10
-23.2
 20
-30.0
 10
23.2
 20
-30.0
 42
-0.414214
 10
25.0
 20
-31.8
 10
25.0
 20
-78.2
 42
-0.414214
 10
23.2
 20
-80.0
 10
-43.2
 20
-80.0
 42
-0.414214
 10
-45.0
 20
-78.2
 10
-45.0
 20
-78.199
 42
-0.414214
 10
-43.201
 20
-76.4
  0
LWPOLYLINE
  5
255
100
AcDbEntity
  8
STALPROFIL
100
AcDbPolyline
 90
       11
 70
     1
 43
1.8
 10
-24.1
 20
-76.4
 10
-24.1
 20
-31.8
 42
-0.414214
 10
-23.2
 20
-30.9
 10
23.2
 20
-30.9
 42
-0.414214
 10
24.1
 20
-31.8
 10
24.1
 20
-78.2
 42
-0.414214
 10
23.2
 20
-79.1
 10
-43.2
 20
-79.1
 42
-0.414214
 10
-44.1
 20
-78.199
 42
-0.414214
 10
-43.201
 20
-77.3
 10
-25.0
 20
-77.3
 42
0.414214
  0
ENDBLK
  5
257
100
AcDbEntity
  8
0
100
AcDbBlockEnd
  0
BLOCK
  5
34B
100
AcDbEntity
  8
0
100
AcDbBlockBegin
  2
SP58023
 70
     0
 10
0.0
 20
0.0
 30
0.0
  3
SP58023
  1

  0
LWPOLYLINE
  5
344
100
AcDbEntity
  8
GLAS_MED_FOGNING
100
AcDbPolyline
 90
        4
 70
     0
 43
0.0
 10
23.2
 20
-20.0
 10
25.0
 20
-20.0
 10
25.0
 20
-30.0
 10
23.2
 20
-30.0
  0
LWPOLYLINE
  5
345
100
AcDbEntity
  8
GLAS_MED_FOGNING
100
AcDbPolyline
 90
        4
 70
     0
 43
0.0
 10
-23.2
 20
-20.0
 10
-25.0
 20
-20.0
 10
-25.0
 20
-30.0
 10
-23.2
 20
-30.0
  0
LWPOLYLINE
  5
346
100
AcDbEntity
  8
SPKONTUR
100
AcDbPolyline
 90
       11
 70
     1
 43
0.0
 10
-25.0
 20
-76.4
 10
-25.0
 20
-31.8
 42
-0.414214
 10
-23.2
 20
-30.0
 10
23.2
 20
-30.0
 42
-0.414214
 10
25.0
 20
-31.8
 10
25.0
 20
-78.2
 42
-0.414214
 10
23.2
 20
-80.0
 10
-43.2
 20
-80.0
 42
-0.414214
 10
-45.0
 20
-78.2
 10
-45.0
 20
-78.199
 42
-0.414214
 10
-43.201
 20
-76.4
  0
LWPOLYLINE
  5
347
100
AcDbEntity
  8
STALPROFIL
100
AcDbPolyline
 90
       11
 70
     1
 43
1.8
 10
-24.1
 20
-76.4
 10
-24.1
 20
-31.8
 42
-0.414214
 10
-23.2
 20
-30.9
 10
23.2
 20
-30.9
 42
-0.414214
 10
24.1
 20
-31.8
 10
24.1
 20
-78.2
 42
-0.414214
 10
23.2
 20
-79.1
 10
-43.2
 20
-79.1
 42
-0.414214
 10
-44.1
 20
-78.199
 42
-0.414214
 10
-43.201
 20
-77.3
 10
-25.0
 20
-77.3
 42
0.414214
  0
INSERT
  5
348
100
AcDbEntity
  8
GLAS_MED_FOGNING
100
AcDbBlockReference
  2
*X2
 10
-1730.0
 20
-420.0
 30
0.0
1001
ACAD
1000
HATCH
1002
{
1070
    16
1000
FLEX
1040
10.0
1040
0.0
1002
}
  0
LWPOLYLINE
  5
349
100
AcDbEntity
  8
SPKONTUR
100
AcDbPolyline
 90
       11
 70
     1
 43
0.0
 10
25.0
 20
-3.6
 10
25.0
 20
-18.2
 42
-0.414214
 10
23.2
 20
-20.0
 10
-23.2
 20
-20.0
 42
-0.414214
 10
-25.0
 20
-18.2
 10
-25.0
 20
-1.8
 42
-0.414214
 10
-23.2
 20
0.0
 10
43.2
 20
0.0
 42
-0.414214
 10
45.0
 20
-1.8
 10
45.0
 20
-1.801
 42
-0.414214
 10
43.201
 20
-3.6
  0
LWPOLYLINE
  5
34A
100
AcDbEntity
  8
STALPROFIL
100
AcDbPolyline
 90
       11
 70
     1
 43
1.8
 10
24.1
 20
-3.6
 10
24.1
 20
-18.2
 42
-0.414214
 10
23.2
 20
-19.1
 10
-23.2
 20
-19.1
 42
-0.414214
 10
-24.1
 20
-18.2
 10
-24.1
 20
-1.8
 42
-0.414214
 10
-23.2
 20
-0.9
 10
43.2
 20
-0.9
 42
-0.414214
 10
44.1
 20
-1.801
 42
-0.414214
 10
43.201
 20
-2.7
 10
25.0
 20
-2.7
 42
0.414214
  0
ENDBLK
  5
34C
100
AcDbEntity
  8
0
100
AcDbBlockEnd
  0
BLOCK
  5
1C5
100
AcDbEntity
  8
0
100
AcDbBlockBegin
  2
SP58014
 70
     0
 10
0.0
 20
0.0
 30
0.0
  3
SP58014
  1

  0
LWPOLYLINE
  5
140
100
AcDbEntity
  8
SPKONTUR
100
AcDbPolyline
 90
       11
 70
     1
 43
0.0
 10
-25.0
 20
-76.4
 10
-25.0
 20
-31.8
 42
-0.414214
 10
-23.2
 20
-30.0
 10
23.2
 20
-30.0
 42
-0.414214
 10
25.0
 20
-31.8
 10
25.0
 20
-78.2
 42
-0.414214
 10
23.2
 20
-80.0
 10
-43.2
 20
-80.0
 42
-0.414214
 10
-45.0
 20
-78.2
 10
-45.0
 20
-78.199
 42
-0.414214
 10
-43.201
 20
-76.4
  0
LWPOLYLINE
  5
141
100
AcDbEntity
  8
STALPROFIL
100
AcDbPolyline
 90
       11
 70
     1
 43
1.8
 10
-24.1
 20
-76.4
 10
-24.1
 20
-31.8
 42
-0.414214
 10
-23.2
 20
-30.9
 10
23.2
 20
-30.9
 42
-0.414214
 10
24.1
 20
-31.8
 10
24.1
 20
-78.2
 42
-0.414214
 10
23.2
 20
-79.1
 10
-43.2
 20
-79.1
 42
-0.414214
 10
-44.1
 20
-78.199
 42
-0.414214
 10
-43.201
 20
-77.3
 10
-25.0
 20
-77.3
 42
0.414214
  0
INSERT
  5
142
100
AcDbEntity
  8
GLAS_MED_FOGNING
100
AcDbBlockReference
  2
*X2
 10
-1730.0
 20
-420.0
 30
0.0
1001
ACAD
1000
HATCH
1002
{
1070
    16
1000
FLEX
1040
10.0
1040
0.0
1002
}
  0
LWPOLYLINE
  5
1C1
100
AcDbEntity
  8
SPKONTUR
100
AcDbPolyline
 90
       25
 70
     0
 43
0.0
 10
18.4
 20
-8.1
 10
18.4
 20
-8.114719
 10
18.4
 20
-8.1
 42
0.414214
 10
15.9
 20
-5.6
 10
13.8
 20
-5.6
 42
-0.414214
 10
12.0
 20
-3.8
 10
12.0
 20
-3.6
 42
0.414214
 10
8.4
 20
0.0
 10
-23.2
 20
0.0
 42
0.414214
 10
-25.0
 20
-1.8
 10
-25.0
 20
-18.2
 42
0.414214
 10
-23.2
 20
-20.0
 10
23.2
 20
-20.0
 42
0.414214
 10
25.0
 20
-18.2
 10
25.0
 20
-7.9
 42
0.414214
 10
23.2
 20
-6.1
 10
23.199
 20
-6.1
 42
0.414214
 10
21.4
 20
-7.899
 10
21.4
 20
-12.6
 42
-0.414214
 10
19.6
 20
-14.4
 10
18.2
 20
-14.4
 42
-0.414214
 10
16.4
 20
-12.6
 42
-0.198912
 10
17.27868
 20
-10.47868
 10
17.52132
 20
-10.236039
 42
0.198912
 10
18.4
 20
-8.114719
  0
LWPOLYLINE
  5
1C2
100
AcDbEntity
  8
STALPROFIL
100
AcDbPolyline
 90
       22
 70
     1
 43
1.8
 10
17.5
 20
-8.114719
 10
17.5
 20
-8.1
 42
0.414214
 10
15.9
 20
-6.5
 10
13.8
 20
-6.5
 42
-0.414214
 10
11.1
 20
-3.8
 10
11.1
 20
-3.6
 42
0.414214
 10
8.4
 20
-0.9
 10
-23.2
 20
-0.9
 42
0.414214
 10
-24.1
 20
-1.8
 10
-24.1
 20
-18.2
 42
0.414214
 10
-23.2
 20
-19.1
 10
23.2
 20
-19.1
 42
0.414214
 10
24.1
 20
-18.2
 10
24.1
 20
-7.9
 42
0.414214
 10
23.199
 20
-7.0
 42
0.414214
 10
22.3
 20
-7.899
 10
22.3
 20
-12.6
 42
-0.414214
 10
19.6
 20
-15.3
 10
18.2
 20
-15.3
 42
-0.414214
 10
15.5
 20
-12.6
 42
-0.198912
 10
16.642284
 20
-9.842284
 10
16.884924
 20
-9.599643
 42
0.198912
  0
LWPOLYLINE
  5
1C3
100
AcDbEntity
  8
GLAS_MED_FOGNING
100
AcDbPolyline
 90
        4
 70
     0
 43
0.0
 10
-23.2
 20
-20.0
 10
-25.0
 20
-20.0
 10
-25.0
 20
-30.0
 10
-23.2
 20
-30.0
  0
LWPOLYLINE
  5
1C4
100
AcDbEntity
  8
GLAS_MED_FOGNING
100
AcDbPolyline
 90
        4
 70
     0
 43
0.0
 10
23.2
 20
-20.0
 10
25.0
 20
-20.0
 10
25.0
 20
-30.0
 10
23.2
 20
-30.0
  0
ENDBLK
  5
1C6
100
AcDbEntity
  8
0
100
AcDbBlockEnd
  0
ENDSEC
  0
SECTION
  2
ENTITIES
  0
TEXT
  5
20
100
AcDbEntity
  8
TEXT
100
AcDbText
 10
-42.828571
 20
1212.0
 30
0.0
 40
6.0
  1
SP 58021
 41
0.8
  7
ROMANS
 72
     4
 11
-25.0
 21
1215.0
 31
0.0
100
AcDbText
  0
TEXT
  5
22
100
AcDbEntity
  8
TEXT
100
AcDbText
 10
-43.514286
 20
1032.0
 30
0.0
 40
6.0
  1
SP 58022
 41
0.8
  7
ROMANS
 72
     4
 11
-25.0
 21
1035.0
 31
0.0
100
AcDbText
  0
INSERT
  5
23
100
AcDbEntity
  8
GLAS_MED_FOGNING
100
AcDbBlockReference
  2
58022
 10
-25.0
 20
1090.0
 30
0.0
 50
90.0
  0
INSERT
  5
B1
100
AcDbEntity
  8
DIMENSION
100
AcDbBlockReference
  2
SP58021
 10
-25.0
 20
1270.0
 30
0.0
  0
TEXT
  5
13D
100
AcDbEntity
  8
TEXT
100
AcDbText
 10
-43.628571
 20
847.0
 30
0.0
 40
6.0
  1
SP 58014
 41
0.8
  7
ROMANS
 72
     4
 11
-25.0
 21
850.0
 31
0.0
100
AcDbText
  0
INSERT
  5
13E
100
AcDbEntity
  8
DIMENSION
100
AcDbBlockReference
  2
SP58014
 10
-25.0
 20
905.0
 30
0.0
  0
LWPOLYLINE
  5
1C7
100
AcDbEntity
  8
GLAS_MED_FOGNING
100
AcDbPolyline
 90
        4
 70
     1
 43
0.0
 10
-455.0
 20
585.0
 10
70.0
 20
585.0
 10
70.0
 20
1327.5
 10
-455.0
 20
1327.5
  0
INSERT
  5
1C8
100
AcDbEntity
  8
DIMENSION
100
AcDbBlockReference
  2
SP58022
 10
-375.0
 20
1090.0
 30
0.0
  0
INSERT
  5
1CF
100
AcDbEntity
  8
DIMENSION
100
AcDbBlockReference
  2
SP58013
 10
-375.0
 20
905.0
 30
0.0
  0
TEXT
  5
258
100
AcDbEntity
  8
TEXT
100
AcDbText
 10
-393.514286
 20
847.0
 30
0.0
 40
6.0
  1
SP 58013
 41
0.8
  7
ROMANS
 72
     4
 11
-375.0
 21
850.0
 31
0.0
100
AcDbText
  0
TEXT
  5
259
100
AcDbEntity
  8
TEXT
100
AcDbText
 10
-393.514286
 20
1032.0
 30
0.0
 40
6.0
  1
SP 58022
 41
0.8
  7
ROMANS
 72
     4
 11
-375.0
 21
1035.0
 31
0.0
100
AcDbText
  0
TEXT
  5
25A
100
AcDbEntity
  8
TEXT
100
AcDbText
 10
-392.828571
 20
1212.0
 30
0.0
 40
6.0
  1
SP 58011
 41
0.8
  7
ROMANS
 72
     4
 11
-375.0
 21
1215.0
 31
0.0
100
AcDbText
  0
INSERT
  5
25B
100
AcDbEntity
  8
DIMENSION
100
AcDbBlockReference
  2
SP58011
 10
-375.0
 20
1270.0
 30
0.0
  0
INSERT
  5
266
100
AcDbEntity
  8
DIMENSION
100
AcDbBlockReference
  2
SP58012-85
 10
-200.0
 20
1090.0
 30
0.0
  0
INSERT
  5
342
100
AcDbEntity
  8
DIMENSION
100
AcDbBlockReference
  2
SP58023
 10
-205.0
 20
905.0
 30
0.0
  0
TEXT
  5
34D
100
AcDbEntity
  8
TEXT
100
AcDbText
 10
-223.514286
 20
847.0
 30
0.0
 40
6.0
  1
SP 58023
 41
0.8
  7
ROMANS
 72
     4
 11
-205.0
 21
850.0
 31
0.0
100
AcDbText
  0
TEXT
  5
34E
100
AcDbEntity
  8
TEXT
100
AcDbText
 10
-235.6
 20
1032.428571
 30
0.0
 40
6.0
  1
SP 58012/85
 41
0.8
  7
ROMANS
 72
     4
 11
-210.0
 21
1035.0
 31
0.0
100
AcDbText
  0
LWPOLYLINE
  5
34F
100
AcDbEntity
  8
GLAS_MED_FOGNING
100
AcDbPolyline
 90
        4
 70
     0
 43
0.0
 10
-48.2
 20
1070.0
 10
-50.0
 20
1070.0
 10
-50.0
 20
1060.0
 10
-48.2
 20
1060.0
  0
TEXT
  5
350
100
AcDbEntity
  8
TEXT
100
AcDbText
 10
-228.514286
 20
1212.0
 30
0.0
 40
6.0
  1
SP 58012
 41
0.8
  7
ROMANS
 72
     4
 11
-210.0
 21
1215.0
 31
0.0
100
AcDbText
  0
INSERT
  5
351
100
AcDbEntity
  8
DIMENSION
100
AcDbBlockReference
  2
SP58012
 10
-210.0
 20
1270.0
 30
0.0
  0
TEXT
  5
3DF
100
AcDbEntity
  8
TEXT
100
AcDbText
 10
-26.809524
 20
571.0
 30
0.0
 40
8.0
  1
File name 565PAGE6
 41
0.8
  7
ROMANS
 72
     4
 11
25.0
 21
575.0
 31
0.0
100
AcDbText
  0
TEXT
  5
3E0
100
AcDbEntity
  8
TEXT
100
AcDbText
 10
-8.67619
 20
591.0
 30
0.0
 40
8.0
  1
SP565PAGE 6
 41
0.8
  7
ROMANS
 72
     4
 11
25.0
 21
595.0
 31
0.0
100
AcDbText
  0
LWPOLYLINE
  5
3E1
100
AcDbEntity
  8
GLAS_MED_FOGNING
100
AcDbPolyline
 90
        4
 70
     0
 43
0.0
 10
-1.8
 20
1070.0
 10
0.0
 20
1070.0
 10
0.0
 20
1060.0
 10
-1.8
 20
1060.0
  0
ENDSEC
  0
SECTION
  2
OBJECTS
  0
DICTIONARY
  5
1A
100
AcDbDictionary
  3
ACAD_GROUP
350
18
  3
ACAD_LAYOUT
350
3E5
  3
ACAD_MLINESTYLE
350
19
  3
ACAD_PLOTSETTINGS
350
3E6
  3
ACAD_PLOTSTYLENAME
350
3E3
  3
ACDBHEADERROUNDTRIPXREC
350
3F0
  0
DICTIONARY
  5
3EE
100
AcDbDictionary
280
     1
  3
ACAD_XREC_ROUNDTRIP
360
3EF
  0
DICTIONARY
  5
415
100
AcDbDictionary
280
     1
  3
ACAD_XREC_ROUNDTRIP
360
416
  0
DICTIONARY
  5
411
100
AcDbDictionary
280
     1
  3
ACAD_LAYOUTSELFREF
360
412
  0
DICTIONARY
  5
413
100
AcDbDictionary
280
     1
  3
ACAD_LAYOUTSELFREF
360
414
  0
DICTIONARY
  5
18
102
{ACAD_REACTORS
330
1A
102
}
100
AcDbDictionary
  0
DICTIONARY
  5
3E5
102
{ACAD_XDICTIONARY
360
420
102
}
102
{ACAD_REACTORS
330
1A
102
}
100
AcDbDictionary
  3
LAYOUT1
350
3E8
  3
MODEL
350
3E7
  0
DICTIONARY
  5
19
102
{ACAD_REACTORS
330
1A
102
}
100
AcDbDictionary
  3
STANDARD
350
1E
  0
DICTIONARY
  5
3E6
102
{ACAD_REACTORS
330
1A
102
}
100
AcDbDictionary
  0
ACAD_PROXY_OBJECT
  5
3E3
102
{ACAD_REACTORS
330
1A
102
}
100
AcDbProxyObject
 90
      499
 91
      503
 93
       86
310
405010041939BDC9B585B0
350
3E4
340
3E4
 94
        0
  0
DICTIONARY
  5
3F0
102
{ACAD_REACTORS
330
1A
102
}
100
AcDbDictionary
  3
CEPSNTYPE
350
3FA
  3
DIMSTYLEDATA
350
3FE
  3
FINGERPRINTGUID
350
3FB
  3
HYPERLINKBASE
350
3F3
  3
INSUNITS
350
3F9
  3
LAYOUTDICT
350
3F5
  3
LWETCUNION
350
3F8
  3
PLOTSETDICT
350
3F6
  3
PLOTSTYLNAMDICT
350
3F7
  3
PSVPSCALE
350
3FD
  3
PUCSBASE
350
401
  3
PUCSORGBACK
350
407
  3
PUCSORGBOTTOM
350
403
  3
PUCSORGFRONT
350
406
  3
PUCSORGLEFT
350
404
  3
PUCSORGRIGHT
350
405
  3
PUCSORGTOP
350
402
  3
PUCSORTHOREF
350
3FF
  3
PUCSORTHOVIEW
350
400
  3
STYLESHEET
350
3F4
  3
TSTACKALIGN
350
3F1
  3
TSTACKSIZE
350
3F2
  3
UCSBASE
350
40A
  3
UCSORGBACK
350
410
  3
UCSORGBOTTOM
350
40C
  3
UCSORGFRONT
350
40F
  3
UCSORGLEFT
350
40D
  3
UCSORGRIGHT
350
40E
  3
UCSORGTOP
350
40B
  3
UCSORTHOREF
350
408
  3
UCSORTHOVIEW
350
409
  3
VERSIONGUID
350
3FC
  0
XRECORD
  5
3EF
102
{ACAD_REACTORS
330
3EE
102
}
100
AcDbXrecord
102
EXTNAMES
  1
*ACTIVE
  2
*Active
102
UCS
 74
     0
 71
     1
 10
0.0
 20
0.0
 30
0.0
 10
1.0
 20
0.0
 30
0.0
 10
0.0
 20
1.0
 30
0.0
146
0.0
 79
     0
102
VIEW
281
     0
  0
XRECORD
  5
416
102
{ACAD_REACTORS
330
415
102
}
100
AcDbXrecord
102
ACADR14ROUNDTRIP
1000
DSTYLE
1002
{
1070
   279
 70
     2
1002
}
  0
XRECORD
  5
412
102
{ACAD_REACTORS
330
411
102
}
100
AcDbXrecord
340
2
  0
XRECORD
  5
414
102
{ACAD_REACTORS
330
413
102
}
100
AcDbXrecord
340
7
  0
DICTIONARY
  5
420
100
AcDbDictionary
280
     1
  3
ACAD_XREC_ROUNDTRIP
360
421
  0
ACAD_PROXY_OBJECT
  5
3E8
102
{ACAD_REACTORS
330
3E5
102
}
100
AcDbProxyObject
 90
      499
 91
      505
 93
     1092
310
91D4850204C617365724A65742034562F344D5620506F73745363726970742C00AAAAAA416AA591069074C61796F75743140501A800000000000000000000000000000000000000000101E900000000000241C902A6A6A10232D5E076BC5510408CB5781DAF154410232D5E076BC5510408CB5781DAF15C410232D5E076BC5
310
710408CB5781DAF15C40
330
7
330
0
340
0
340
0
 94
        0
  0
ACAD_PROXY_OBJECT
  5
3E7
102
{ACAD_REACTORS
330
3E5
102
}
100
AcDbProxyObject
 90
      499
 91
      505
 93
      668
310
91D4850204C617365724A65742034562F344D5620506F73745363726970742C01AAAAAAAAA5A69054D6F64656C901A800000000000000000000000000000000000000000000A1000000000000008902A6A6AAAA0
330
2
330
0
340
0
340
0
 94
        0
  0
MLINESTYLE
  5
1E
102
{ACAD_REACTORS
330
19
102
}
100
AcDbMlineStyle
  2
STANDARD
 70
     0
  3

 62
   256
 51
90.0
 52
90.0
 71
     2
 49
0.5
 62
   256
  6
BYLAYER
 49
-0.5
 62
   256
  6
BYLAYER
  0
ACAD_PROXY_OBJECT
  5
3E4
102
{ACAD_REACTORS
330
3E3
102
}
100
AcDbProxyObject
 90
      499
 91
      504
 93
        0
 94
        0
  0
XRECORD
  5
3FA
102
{ACAD_REACTORS
330
3F0
102
}
100
AcDbXrecord
 90
        0
  0
XRECORD
  5
3FE
102
{ACAD_REACTORS
330
3F0
102
}
100
AcDbXrecord
1000
DSTYLE
1002
{
1070
   279
 70
     2
1002
}
  0
XRECORD
  5
3FB
102
{ACAD_REACTORS
330
3F0
102
}
100
AcDbXrecord
  1
{DCFA0928-0BE8-11D6-AA0B-00D0B7E2A69D}
  0
XRECORD
  5
3F3
102
{ACAD_REACTORS
330
3F0
102
}
100
AcDbXrecord
  1

  0
XRECORD
  5
3F9
102
{ACAD_REACTORS
330
3F0
102
}
100
AcDbXrecord
 90
        0
  0
XRECORD
  5
3F5
102
{ACAD_REACTORS
330
3F0
102
}
100
AcDbXrecord
340
3E5
  0
XRECORD
  5
3F8
102
{ACAD_REACTORS
330
3F0
102
}
100
AcDbXrecord
 90
    14877
  0
XRECORD
  5
3F6
102
{ACAD_REACTORS
330
3F0
102
}
100
AcDbXrecord
340
3E6
  0
XRECORD
  5
3F7
102
{ACAD_REACTORS
330
3F0
102
}
100
AcDbXrecord
340
3E3
  0
XRECORD
  5
3FD
102
{ACAD_REACTORS
330
3F0
102
}
100
AcDbXrecord
 40
0.0
  0
XRECORD
  5
401
102
{ACAD_REACTORS
330
3F0
102
}
100
AcDbXrecord
340
0
  0
XRECORD
  5
407
102
{ACAD_REACTORS
330
3F0
102
}
100
AcDbXrecord
 10
0.0
 20
0.0
 30
0.0
  0
XRECORD
  5
403
102
{ACAD_REACTORS
330
3F0
102
}
100
AcDbXrecord
 10
0.0
 20
0.0
 30
0.0
  0
XRECORD
  5
406
102
{ACAD_REACTORS
330
3F0
102
}
100
AcDbXrecord
 10
0.0
 20
0.0
 30
0.0
  0
XRECORD
  5
404
102
{ACAD_REACTORS
330
3F0
102
}
100
AcDbXrecord
 10
0.0
 20
0.0
 30
0.0
  0
XRECORD
  5
405
102
{ACAD_REACTORS
330
3F0
102
}
100
AcDbXrecord
 10
0.0
 20
0.0
 30
0.0
  0
XRECORD
  5
402
102
{ACAD_REACTORS
330
3F0
102
}
100
AcDbXrecord
 10
0.0
 20
0.0
 30
0.0
  0
XRECORD
  5
3FF
102
{ACAD_REACTORS
330
3F0
102
}
100
AcDbXrecord
340
0
  0
XRECORD
  5
400
102
{ACAD_REACTORS
330
3F0
102
}
100
AcDbXrecord
 70
     0
  0
XRECORD
  5
3F4
102
{ACAD_REACTORS
330
3F0
102
}
100
AcDbXrecord
  1

  0
XRECORD
  5
3F1
102
{ACAD_REACTORS
330
3F0
102
}
100
AcDbXrecord
 90
        1
  0
XRECORD
  5
3F2
102
{ACAD_REACTORS
330
3F0
102
}
100
AcDbXrecord
 90
       70
  0
XRECORD
  5
40A
102
{ACAD_REACTORS
330
3F0
102
}
100
AcDbXrecord
340
0
  0
XRECORD
  5
410
102
{ACAD_REACTORS
330
3F0
102
}
100
AcDbXrecord
 10
0.0
 20
0.0
 30
0.0
  0
XRECORD
  5
40C
102
{ACAD_REACTORS
330
3F0
102
}
100
AcDbXrecord
 10
0.0
 20
0.0
 30
0.0
  0
XRECORD
  5
40F
102
{ACAD_REACTORS
330
3F0
102
}
100
AcDbXrecord
 10
0.0
 20
0.0
 30
0.0
  0
XRECORD
  5
40D
102
{ACAD_REACTORS
330
3F0
102
}
100
AcDbXrecord
 10
0.0
 20
0.0
 30
0.0
  0
XRECORD
  5
40E
102
{ACAD_REACTORS
330
3F0
102
}
100
AcDbXrecord
 10
0.0
 20
0.0
 30
0.0
  0
XRECORD
  5
40B
102
{ACAD_REACTORS
330
3F0
102
}
100
AcDbXrecord
 10
0.0
 20
0.0
 30
0.0
  0
XRECORD
  5
408
102
{ACAD_REACTORS
330
3F0
102
}
100
AcDbXrecord
340
0
  0
XRECORD
  5
409
102
{ACAD_REACTORS
330
3F0
102
}
100
AcDbXrecord
 70
     0
  0
XRECORD
  5
3FC
102
{ACAD_REACTORS
330
3F0
102
}
100
AcDbXrecord
  1
{DCFA092A-0BE8-11D6-AA0B-00D0B7E2A69D}
  0
XRECORD
  5
421
102
{ACAD_REACTORS
330
420
102
}
100
AcDbXrecord
102
EXTNAMES
  1
LAYOUT1
  2
Layout1
  1
MODEL
  2
Model
  0
ENDSEC
  0
EOF
