  0
SECTION
  2
HEADER
  9
$ACADVER
  1
AC1014
  9
$ACADMAINTVER
 70
     0
  9
$DWGCODEPAGE
  3
ANSI_1252
  9
$INSBASE
 10
-30.0
 20
15.0
 30
0.0
  9
$EXTMIN
 10
-405.0
 20
30.0
 30
0.0
  9
$EXTMAX
 10
-45.0
 20
555.0
 30
0.0
  9
$LIMMIN
 10
-845.0
 20
-590.0
  9
$LIMMAX
 10
-5.0
 20
10.0
  9
$ORTHOMODE
 70
     1
  9
$REGENMODE
 70
     1
  9
$FILLMODE
 70
     1
  9
$QTEXTMODE
 70
     0
  9
$MIRRTEXT
 70
     1
  9
$DRAGMODE
 70
     2
  9
$LTSCALE
 40
5.0
  9
$OSMODE
 70
   547
  9
$ATTMODE
 70
     1
  9
$TEXTSIZE
 40
5.0
  9
$TRACEWID
 40
0.05
  9
$TEXTSTYLE
  7
ROMANS
  9
$CLAYER
  8
GLAS_MED_FOGNING
  9
$CELTYPE
  6
BYLAYER
  9
$CECOLOR
 62
   256
  9
$CELTSCALE
 40
1.0
  9
$DELOBJ
 70
     1
  9
$DISPSILH
 70
     0
  9
$DIMSCALE
 40
1.0
  9
$DIMASZ
 40
0.0
  9
$DIMEXO
 40
1.0
  9
$DIMDLI
 40
10.0
  9
$DIMRND
 40
0.0
  9
$DIMDLE
 40
0.0
  9
$DIMEXE
 40
2.0
  9
$DIMTP
 40
0.0
  9
$DIMTM
 40
0.0
  9
$DIMTXT
 40
3.5
  9
$DIMCEN
 40
2.5
  9
$DIMTSZ
 40
1.0
  9
$DIMTOL
 70
     0
  9
$DIMLIM
 70
     0
  9
$DIMTIH
 70
     0
  9
$DIMTOH
 70
     0
  9
$DIMSE1
 70
     0
  9
$DIMSE2
 70
     0
  9
$DIMTAD
 70
     1
  9
$DIMZIN
 70
     8
  9
$DIMBLK
  1

  9
$DIMASO
 70
     1
  9
$DIMSHO
 70
     1
  9
$DIMPOST
  1

  9
$DIMAPOST
  1

  9
$DIMALT
 70
     0
  9
$DIMALTD
 70
     2
  9
$DIMALTF
 40
25.4
  9
$DIMLFAC
 40
1.0
  9
$DIMTOFL
 70
     1
  9
$DIMTVP
 40
0.0
  9
$DIMTIX
 70
     0
  9
$DIMSOXD
 70
     0
  9
$DIMSAH
 70
     0
  9
$DIMBLK1
  1

  9
$DIMBLK2
  1

  9
$DIMSTYLE
  2
STANDARD
  9
$DIMCLRD
 70
     0
  9
$DIMCLRE
 70
     0
  9
$DIMCLRT
 70
     6
  9
$DIMTFAC
 40
1.0
  9
$DIMGAP
 40
0.1
  9
$DIMJUST
 70
     0
  9
$DIMSD1
 70
     0
  9
$DIMSD2
 70
     0
  9
$DIMTOLJ
 70
     1
  9
$DIMTZIN
 70
     0
  9
$DIMALTZ
 70
     0
  9
$DIMALTTZ
 70
     0
  9
$DIMFIT
 70
     3
  9
$DIMUPT
 70
     0
  9
$DIMUNIT
 70
     2
  9
$DIMDEC
 70
     4
  9
$DIMTDEC
 70
     4
  9
$DIMALTU
 70
     2
  9
$DIMALTTD
 70
     2
  9
$DIMTXSTY
  7
ROMANS
  9
$DIMAUNIT
 70
     0
  9
$LUNITS
 70
     2
  9
$LUPREC
 70
     2
  9
$SKETCHINC
 40
0.1
  9
$FILLETRAD
 40
0.5
  9
$AUNITS
 70
     0
  9
$AUPREC
 70
     4
  9
$MENU
  1
acad
  9
$ELEVATION
 40
0.0
  9
$PELEVATION
 40
0.0
  9
$THICKNESS
 40
0.0
  9
$LIMCHECK
 70
     0
  9
$BLIPMODE
 70
     0
  9
$CHAMFERA
 40
10.0
  9
$CHAMFERB
 40
10.0
  9
$CHAMFERC
 40
0.0
  9
$CHAMFERD
 40
0.0
  9
$SKPOLY
 70
     0
  9
$TDCREATE
 40
2450610.827521759
  9
$TDUPDATE
 40
2452293.460225347
  9
$TDINDWG
 40
0.0242447917
  9
$TDUSRTIMER
 40
0.0242447917
  9
$USRTIMER
 70
     1
  9
$ANGBASE
 50
0.0
  9
$ANGDIR
 70
     0
  9
$PDMODE
 70
    35
  9
$PDSIZE
 40
0.0
  9
$PLINEWID
 40
0.0
  9
$COORDS
 70
     1
  9
$SPLFRAME
 70
     0
  9
$SPLINETYPE
 70
     6
  9
$SPLINESEGS
 70
     8
  9
$ATTDIA
 70
     0
  9
$ATTREQ
 70
     1
  9
$HANDLING
 70
     1
  9
$HANDSEED
  5
CC5
  9
$SURFTAB1
 70
     6
  9
$SURFTAB2
 70
     6
  9
$SURFTYPE
 70
     6
  9
$SURFU
 70
     6
  9
$SURFV
 70
     6
  9
$UCSNAME
  2

  9
$UCSORG
 10
0.0
 20
0.0
 30
0.0
  9
$UCSXDIR
 10
1.0
 20
0.0
 30
0.0
  9
$UCSYDIR
 10
0.0
 20
1.0
 30
0.0
  9
$PUCSNAME
  2

  9
$PUCSORG
 10
0.0
 20
0.0
 30
0.0
  9
$PUCSXDIR
 10
1.0
 20
0.0
 30
0.0
  9
$PUCSYDIR
 10
0.0
 20
1.0
 30
0.0
  9
$USERI1
 70
     0
  9
$USERI2
 70
     0
  9
$USERI3
 70
     0
  9
$USERI4
 70
     0
  9
$USERI5
 70
     0
  9
$USERR1
 40
0.0
  9
$USERR2
 40
0.0
  9
$USERR3
 40
0.0
  9
$USERR4
 40
0.0
  9
$USERR5
 40
0.0
  9
$WORLDVIEW
 70
     1
  9
$SHADEDGE
 70
     3
  9
$SHADEDIF
 70
    70
  9
$TILEMODE
 70
     1
  9
$MAXACTVP
 70
    16
  9
$PINSBASE
 10
0.0
 20
0.0
 30
0.0
  9
$PLIMCHECK
 70
     0
  9
$PEXTMIN
 10
1.000000E+20
 20
1.000000E+20
 30
1.000000E+20
  9
$PEXTMAX
 10
-1.000000E+20
 20
-1.000000E+20
 30
-1.000000E+20
  9
$PLIMMIN
 10
-845.0
 20
-590.0
  9
$PLIMMAX
 10
-425.0
 20
-293.0
  9
$UNITMODE
 70
     0
  9
$VISRETAIN
 70
     0
  9
$PLINEGEN
 70
     0
  9
$PSLTSCALE
 70
     1
  9
$TREEDEPTH
 70
  3020
  9
$PICKSTYLE
 70
     1
  9
$CMLSTYLE
  2
STANDARD
  9
$CMLJUST
 70
     0
  9
$CMLSCALE
 40
1.0
  9
$PROXYGRAPHICS
 70
     1
  9
$MEASUREMENT
 70
     0
  0
ENDSEC
  0
SECTION
  2
CLASSES
  0
CLASS
  1
LWPOLYLINE
  2
AcDbPolyline
  3
"AutoCAD"
 90
        0
280
     0
281
     1
  0
CLASS
  1
DICTIONARYVAR
  2
AcDbDictionaryVar
  3
"AutoCAD"
 90
        0
280
     0
281
     0
  0
CLASS
  1
HATCH
  2
AcDbHatch
  3
"ACAD_SEDONA"
 90
        0
280
     0
281
     1
  0
CLASS
  1
ACDBDICTIONARYWDFLT
  2
AcDbDictionaryWithDefault
  3
AutoCAD 2000
 90
        0
280
     0
281
     0
  0
CLASS
  1
ACDBPLACEHOLDER
  2
AcDbPlaceHolder
  3
AutoCAD 2000
 90
        0
280
     0
281
     0
  0
CLASS
  1
LAYOUT
  2
AcDbLayout
  3
AutoCAD 2000
 90
        0
280
     0
281
     0
  0
CLASS
  1
LONG_TRANSACTION
  2
AcDbLongTransaction
  3
AutoCAD 2000
 90
        0
280
     0
281
     0
  0
CLASS
  1
LWPOLYLINE
  2
AcDbPolyline
  3
"AutoCAD"
 90
        0
280
     0
281
     1
  0
CLASS
  1
HATCH
  2
AcDbHatch
  3
"ACAD_SEDONA"
 90
        0
280
     0
281
     1
  0
CLASS
  1
XRECORD
  2
AcDbXrecord
  3
"<Built In>"
 90
        0
280
     0
281
     0
  0
ENDSEC
  0
SECTION
  2
TABLES
  0
TABLE
  2
VPORT
  5
12
100
AcDbSymbolTable
 70
     1
  0
VPORT
  5
C97
102
{ACAD_XDICTIONARY
360
C98
102
}
100
AcDbSymbolTableRecord
100
AcDbViewportTableRecord
  2
*ACTIVE
 70
     0
 10
0.0
 20
0.0
 11
1.0
 21
1.0
 12
722.978094
 22
875.231694
 13
0.0
 23
0.0
 14
5.0
 24
5.0
 15
10.0
 25
10.0
 16
0.0
 26
0.0
 36
1.0
 17
-845.0
 27
-590.0
 37
0.0
 40
701.669701
 41
1.630435
 42
50.0
 43
0.0
 44
0.0
 50
0.0
 51
0.0
 71
     0
 72
   100
 73
     1
 74
     1
 75
     1
 76
     0
 77
     0
 78
     0
  0
ENDTAB
  0
TABLE
  2
LTYPE
  5
D
100
AcDbSymbolTable
 70
     2
  0
LTYPE
  5
E
100
AcDbSymbolTableRecord
100
AcDbLinetypeTableRecord
  2
BYBLOCK
 70
     0
  3

 72
    65
 73
     0
 40
0.0
  0
LTYPE
  5
F
100
AcDbSymbolTableRecord
100
AcDbLinetypeTableRecord
  2
BYLAYER
 70
     0
  3

 72
    65
 73
     0
 40
0.0
  0
LTYPE
  5
5
100
AcDbSymbolTableRecord
100
AcDbLinetypeTableRecord
  2
CONTINUOUS
 70
     0
  3
Solid line
 72
    65
 73
     0
 40
0.0
  0
LTYPE
  5
24
100
AcDbSymbolTableRecord
100
AcDbLinetypeTableRecord
  2
DASHDOT
 70
     0
  3
__ . __ . __ . __ . __ . __ . __ . __ . __ . __
 72
    65
 73
     4
 40
1.0
 49
0.5
 74
     0
 49
-0.25
 74
     0
 49
0.0
 74
     0
 49
-0.25
 74
     0
  0
ENDTAB
  0
TABLE
  2
LAYER
  5
A
100
AcDbSymbolTable
 70
    12
  0
LAYER
  5
4
100
AcDbSymbolTableRecord
100
AcDbLayerTableRecord
  2
0
 70
     0
 62
     7
  6
CONTINUOUS
  0
LAYER
  5
39
100
AcDbSymbolTableRecord
100
AcDbLayerTableRecord
  2
STALPROFIL
 70
     0
 62
     1
  6
CONTINUOUS
  0
LAYER
  5
37
100
AcDbSymbolTableRecord
100
AcDbLayerTableRecord
  2
SPKONTUR
 70
     0
 62
     7
  6
CONTINUOUS
  0
LAYER
  5
1B
100
AcDbSymbolTableRecord
100
AcDbLayerTableRecord
  2
GLAS_MED_FOGNING
 70
     0
 62
     2
  6
CONTINUOUS
  0
LAYER
  5
3E
100
AcDbSymbolTableRecord
100
AcDbLayerTableRecord
  2
CENTRUM
 70
     0
 62
     3
  6
DASHDOT
  0
LAYER
  5
12E
100
AcDbSymbolTableRecord
100
AcDbLayerTableRecord
  2
TEXT
 70
     0
 62
     6
  6
CONTINUOUS
  0
LAYER
  5
22
100
AcDbSymbolTableRecord
100
AcDbLayerTableRecord
  2
RAM
 70
     0
 62
     5
  6
CONTINUOUS
  0
LAYER
  5
3B
100
AcDbSymbolTableRecord
100
AcDbLayerTableRecord
  2
FOGNINGR
 70
     0
 62
     1
  6
CONTINUOUS
  0
LAYER
  5
67A
100
AcDbSymbolTableRecord
100
AcDbLayerTableRecord
  2
ISOLERING
 70
     0
 62
     3
  6
CONTINUOUS
  0
LAYER
  5
72B
100
AcDbSymbolTableRecord
100
AcDbLayerTableRecord
  2
DIM
 70
     0
 62
     5
  6
CONTINUOUS
  0
LAYER
  5
72C
100
AcDbSymbolTableRecord
100
AcDbLayerTableRecord
  2
KON
 70
     0
 62
     7
  6
CONTINUOUS
  0
LAYER
  5
72D
100
AcDbSymbolTableRecord
100
AcDbLayerTableRecord
  2
RAMTEXT
 70
     0
 62
     6
  6
CONTINUOUS
  0
ENDTAB
  0
TABLE
  2
STYLE
  5
B
100
AcDbSymbolTable
 70
     3
  0
STYLE
  5
C
100
AcDbSymbolTableRecord
100
AcDbTextStyleTableRecord
  2
STANDARD
 70
     0
 40
0.0
 41
1.0
 50
0.0
 71
     0
 42
5.0
  3
txt
  4

  0
STYLE
  5
1C
100
AcDbSymbolTableRecord
100
AcDbTextStyleTableRecord
  2
ROMANS
 70
     0
 40
0.0
 41
0.8
 50
0.0
 71
     0
 42
5.0
  3
romans
  4

  0
STYLE
  5
72E
100
AcDbSymbolTableRecord
100
AcDbTextStyleTableRecord
  2
SIMPLEX
 70
     0
 40
0.0
 41
1.0
 50
0.0
 71
     0
 42
0.4
  3
simplex
  4

  0
ENDTAB
  0
TABLE
  2
VIEW
  5
10
100
AcDbSymbolTable
 70
     0
  0
ENDTAB
  0
TABLE
  2
UCS
  5
11
100
AcDbSymbolTable
 70
     0
  0
ENDTAB
  0
TABLE
  2
APPID
  5
14
100
AcDbSymbolTable
 70
     5
  0
APPID
  5
15
100
AcDbSymbolTableRecord
100
AcDbRegAppTableRecord
  2
ACAD
 70
     0
  0
APPID
  5
934
100
AcDbSymbolTableRecord
100
AcDbRegAppTableRecord
  2
CONTENTBLOCKDESCRIPTION
 70
     0
  0
APPID
  5
935
100
AcDbSymbolTableRecord
100
AcDbRegAppTableRecord
  2
CONTENTBLOCKICON
 70
     0
  0
APPID
  5
C79
100
AcDbSymbolTableRecord
100
AcDbRegAppTableRecord
  2
CONTENTTABDATA
 70
     0
  0
APPID
  5
C7A
100
AcDbSymbolTableRecord
100
AcDbRegAppTableRecord
  2
CONTENTCURRENTTAB
 70
     0
  0
ENDTAB
  0
TABLE
  2
DIMSTYLE
  5
16
100
AcDbSymbolTable
 70
     1
  0
DIMSTYLE
105
1E
100
AcDbSymbolTableRecord
100
AcDbDimStyleTableRecord
  2
STANDARD
 70
     0
  3

  4

  5

  6

  7

 40
1.0
 41
0.18
 42
0.0625
 43
0.38
 44
0.18
 45
0.0
 46
0.0
 47
0.0
 48
0.0
140
0.18
141
0.09
142
0.0
143
25.4
144
1.0
145
0.0
146
1.0
147
0.09
 71
     0
 72
     0
 73
     1
 74
     1
 75
     0
 76
     0
 77
     0
 78
     0
170
     0
171
     2
172
     0
173
     0
174
     0
175
     0
176
     0
177
     0
178
     0
270
     2
271
     4
272
     4
273
     2
274
     2
340
C
275
     0
280
     0
281
     0
282
     0
283
     1
284
     0
285
     0
286
     0
287
     3
288
     0
  0
ENDTAB
  0
TABLE
  2
BLOCK_RECORD
  5
1
100
AcDbSymbolTable
 70
    48
  0
BLOCK_RECORD
  5
2
102
{ACAD_XDICTIONARY
360
CBA
102
}
100
AcDbSymbolTableRecord
100
AcDbBlockTableRecord
  2
*MODEL_SPACE
  0
BLOCK_RECORD
  5
7
102
{ACAD_XDICTIONARY
360
CBC
102
}
100
AcDbSymbolTableRecord
100
AcDbBlockTableRecord
  2
*PAPER_SPACE
  0
BLOCK_RECORD
  5
3C
100
AcDbSymbolTableRecord
100
AcDbBlockTableRecord
  2
SP40020
  0
BLOCK_RECORD
  5
4EC
100
AcDbSymbolTableRecord
100
AcDbBlockTableRecord
  2
SP43020
  0
BLOCK_RECORD
  5
149
100
AcDbSymbolTableRecord
100
AcDbBlockTableRecord
  2
*X2
  0
BLOCK_RECORD
  5
3ED
100
AcDbSymbolTableRecord
100
AcDbBlockTableRecord
  2
*X3
  0
BLOCK_RECORD
  5
38A
100
AcDbSymbolTableRecord
100
AcDbBlockTableRecord
  2
*X4
  0
BLOCK_RECORD
  5
CF
100
AcDbSymbolTableRecord
100
AcDbBlockTableRecord
  2
*X5
  0
BLOCK_RECORD
  5
5E
100
AcDbSymbolTableRecord
100
AcDbBlockTableRecord
  2
*X6
  0
BLOCK_RECORD
  5
35
100
AcDbSymbolTableRecord
100
AcDbBlockTableRecord
  2
SP42520
  0
BLOCK_RECORD
  5
53
100
AcDbSymbolTableRecord
100
AcDbBlockTableRecord
  2
GLAS26-5DK
  0
BLOCK_RECORD
  5
4C4
100
AcDbSymbolTableRecord
100
AcDbBlockTableRecord
  2
65_SP42520TRI
  0
BLOCK_RECORD
  5
6C7
100
AcDbSymbolTableRecord
100
AcDbBlockTableRecord
  2
65_SP43020
  0
BLOCK_RECORD
  5
33
100
AcDbSymbolTableRecord
100
AcDbBlockTableRecord
  2
65_SP42520DKTRI
  0
BLOCK_RECORD
  5
277
100
AcDbSymbolTableRecord
100
AcDbBlockTableRecord
  2
SP43520
  0
BLOCK_RECORD
  5
486
100
AcDbSymbolTableRecord
100
AcDbBlockTableRecord
  2
65_SP43520
  0
BLOCK_RECORD
  5
4A4
100
AcDbSymbolTableRecord
100
AcDbBlockTableRecord
  2
65_SP43520DK
  0
BLOCK_RECORD
  5
337
100
AcDbSymbolTableRecord
100
AcDbBlockTableRecord
  2
SP44020
  0
BLOCK_RECORD
  5
380
100
AcDbSymbolTableRecord
100
AcDbBlockTableRecord
  2
65_SP44020
  0
BLOCK_RECORD
  5
445
100
AcDbSymbolTableRecord
100
AcDbBlockTableRecord
  2
65_SP44020DK
  0
BLOCK_RECORD
  5
20
100
AcDbSymbolTableRecord
100
AcDbBlockTableRecord
  2
SIDA
  0
BLOCK_RECORD
  5
670
100
AcDbSymbolTableRecord
100
AcDbBlockTableRecord
  2
SP40520
  0
BLOCK_RECORD
  5
13E
100
AcDbSymbolTableRecord
100
AcDbBlockTableRecord
  2
SP42020
  0
BLOCK_RECORD
  5
262
100
AcDbSymbolTableRecord
100
AcDbBlockTableRecord
  2
SP41020
  0
BLOCK_RECORD
  5
6A6
100
AcDbSymbolTableRecord
100
AcDbBlockTableRecord
  2
*X22
  0
BLOCK_RECORD
  5
30F
100
AcDbSymbolTableRecord
100
AcDbBlockTableRecord
  2
*X23
  0
BLOCK_RECORD
  5
31F
100
AcDbSymbolTableRecord
100
AcDbBlockTableRecord
  2
*X24
  0
BLOCK_RECORD
  5
2C8
100
AcDbSymbolTableRecord
100
AcDbBlockTableRecord
  2
*X25
  0
BLOCK_RECORD
  5
2C6
100
AcDbSymbolTableRecord
100
AcDbBlockTableRecord
  2
GLAS11-6X5
  0
BLOCK_RECORD
  5
266
100
AcDbSymbolTableRecord
100
AcDbBlockTableRecord
  2
SP41000
  0
BLOCK_RECORD
  5
24B
100
AcDbSymbolTableRecord
100
AcDbBlockTableRecord
  2
*X28
  0
BLOCK_RECORD
  5
256
100
AcDbSymbolTableRecord
100
AcDbBlockTableRecord
  2
*X29
  0
BLOCK_RECORD
  5
223
100
AcDbSymbolTableRecord
100
AcDbBlockTableRecord
  2
*X30
  0
BLOCK_RECORD
  5
23D
100
AcDbSymbolTableRecord
100
AcDbBlockTableRecord
  2
*X31
  0
BLOCK_RECORD
  5
216
100
AcDbSymbolTableRecord
100
AcDbBlockTableRecord
  2
GLAS30-4X3DK
  0
BLOCK_RECORD
  5
681
100
AcDbSymbolTableRecord
100
AcDbBlockTableRecord
  2
*X33
  0
BLOCK_RECORD
  5
67D
100
AcDbSymbolTableRecord
100
AcDbBlockTableRecord
  2
FYLLNV
  0
BLOCK_RECORD
  5
6A2
100
AcDbSymbolTableRecord
100
AcDbBlockTableRecord
  2
FYLLNH
  0
BLOCK_RECORD
  5
6E4
100
AcDbSymbolTableRecord
100
AcDbBlockTableRecord
  2
65_SP43020DK
  0
BLOCK_RECORD
  5
465
100
AcDbSymbolTableRecord
100
AcDbBlockTableRecord
  2
65_SP42020TRI
  0
BLOCK_RECORD
  5
133
100
AcDbSymbolTableRecord
100
AcDbBlockTableRecord
  2
65_SP42020DKTRI
  0
BLOCK_RECORD
  5
704
100
AcDbSymbolTableRecord
100
AcDbBlockTableRecord
  2
65_SP43020TRI
  0
BLOCK_RECORD
  5
4E6
100
AcDbSymbolTableRecord
100
AcDbBlockTableRecord
  2
65_SP43020DKTRI
  0
BLOCK_RECORD
  5
29D
100
AcDbSymbolTableRecord
100
AcDbBlockTableRecord
  2
65_SP43520TRI
  0
BLOCK_RECORD
  5
271
100
AcDbSymbolTableRecord
100
AcDbBlockTableRecord
  2
65_SP43520DKTRI
  0
BLOCK_RECORD
  5
35D
100
AcDbSymbolTableRecord
100
AcDbBlockTableRecord
  2
65_SP44020TRI
  0
BLOCK_RECORD
  5
331
100
AcDbSymbolTableRecord
100
AcDbBlockTableRecord
  2
65_SP44020DKTRI
  0
BLOCK_RECORD
  5
678
100
AcDbSymbolTableRecord
100
AcDbBlockTableRecord
  2
65_SP40520FYLLN
  0
BLOCK_RECORD
  5
72F
100
AcDbSymbolTableRecord
100
AcDbBlockTableRecord
  2
A$C50F1256A
  0
BLOCK_RECORD
  5
99F
100
AcDbSymbolTableRecord
100
AcDbBlockTableRecord
  2
SP40067
1001
CONTENTBLOCKICON
1071
        0
1004
2800000020000000200000000100040000000000000200000000000000000000000000000000000000000000000080000080000000808000800000008000800080800000C0C0C000808080000000FF0000FF000000FFFF00FF000000FF00FF00FFFF0000FFFFFF00FFFFFFFFFFF00000000000FFFFFFFFFFFFFFFFFFF00000
1004
000BBBB0FFFFFFFFFFFFFFFFFFF000FFFFF00BB0FFFFFFFFFFFFFFFFFFF000FFFFFF0BB0FFFFFFFFFFFFFFFFFFFF00FFFFFF0BB0FFFFFFFFFFFFFFFFFFFF00FFFFFF0BB0FFFFFFFFFFFFFFFFFFF000FFFFFF0BB0FFFFFFFFFFFFFFFFFFFFF00FFF00B0B0FFFFFFFFFFFFFFFFFFFFFB00000FCCB0FFFFFFFFFFFFFFFFFFFFFF
1004
FF00BFCCB0FFFFFFFFFFFFFFFFFFFFFFFFFFFFCCB0FFFFFFFFFFFFFFFFFFFFFFFFFFFFCCB0FFFFFFFFFFFFFFFFFFFFFFFFFFFFCCB0FFFFFFFFFFFFFFFFFFFFFFFFFFFFCCB0FFFFFFFFFFFFFFFFFFFFFFFFFFFFCCB0FFFFFFFFFFFFFFFFFFFFFFFFFFFFCCB0FFFFFFFFFFFFFFFFFFFFFFFFFFFFCCB0FFFFFFFFFFFFFFFFFFFF
1004
FFFFFFFFCCB0FFFFFFFFFFFFFFFFFFFFFFFFFFFFCCB0FFFFFFFFFFFFFFFFFFFFFFFFFFFFCCBBFFFFFFFFFFFFFFFFFFFFFFFFFFFFCCB0FFFFFFFFFFFFFFFFFFFFFFFFFFFFCCB0FFFFFFFFFFFFFFFFFFFFFFFB00BFCCB0FFFFFFFFFFFFFFFFFFFFFB00000BCCB0FFFFFFFFFFFFFFFFFFFFF0FFFFFB0CB0FFFFFFFFFFFFFFFFFF
1004
F000FFFFFF0BB0FFFFFFFFFFFFFFFFFFFF00FFFFFFFBB0FFFFFFFFFFFFFFFFFFFF00FFFFFF0BB0FFFFFFFFFFFFFFFFFFF000FFFFFF0BB0FFFFFFFFFFFFFFFFFFF000FFFF000BB0FFFFFFFFFFFFFFFFFFF0000000BBBBB0FFFFFFFFFFFFFFFFFFFFFF0000000000FFFFFFFFFF
  0
ENDTAB
  0
ENDSEC
  0
SECTION
  2
BLOCKS
  0
BLOCK
  5
3
100
AcDbEntity
  8
0
100
AcDbBlockBegin
  2
*MODEL_SPACE
 70
     0
 10
0.0
 20
0.0
 30
0.0
  3
*MODEL_SPACE
  1

  0
ENDBLK
  5
6
100
AcDbEntity
  8
0
100
AcDbBlockEnd
  0
BLOCK
  5
8
100
AcDbEntity
 67
     1
  8
0
100
AcDbBlockBegin
  2
*PAPER_SPACE
 70
     0
 10
0.0
 20
0.0
 30
0.0
  3
*PAPER_SPACE
  1

  0
ENDBLK
  5
9
100
AcDbEntity
 67
     1
  8
0
100
AcDbBlockEnd
  0
BLOCK
  5
4E
100
AcDbEntity
  8
0
100
AcDbBlockBegin
  2
SP40020
 70
     0
 10
0.0
 20
0.0
 30
0.0
  3
SP40020
  1

  0
LINE
  5
3D
100
AcDbEntity
  8
CENTRUM
100
AcDbLine
 10
-13.0
 20
34.06657
 30
0.0
 11
-13.0
 21
18.0
 31
0.0
  0
LINE
  5
3F
100
AcDbEntity
  8
GLAS_MED_FOGNING
100
AcDbLine
 10
-16.0
 20
23.5
 30
0.0
 11
-16.0
 21
22.0
 31
0.0
  0
LINE
  5
40
100
AcDbEntity
  8
GLAS_MED_FOGNING
100
AcDbLine
 10
-15.5
 20
23.5
 30
0.0
 11
-15.5
 21
21.0
 31
0.0
  0
LINE
  5
41
100
AcDbEntity
  8
GLAS_MED_FOGNING
100
AcDbLine
 10
-10.5
 20
23.5
 30
0.0
 11
-10.5
 21
21.0
 31
0.0
  0
LINE
  5
42
100
AcDbEntity
  8
GLAS_MED_FOGNING
100
AcDbLine
 10
-10.0
 20
23.5
 30
0.0
 11
-10.0
 21
22.0
 31
0.0
  0
LINE
  5
43
100
AcDbEntity
  8
GLAS_MED_FOGNING
100
AcDbLine
 10
-10.5
 20
21.0
 30
0.0
 11
-15.5
 21
21.0
 31
0.0
  0
LINE
  5
44
100
AcDbEntity
  8
GLAS_MED_FOGNING
100
AcDbLine
 10
-10.0
 20
22.0
 30
0.0
 11
-16.0
 21
22.0
 31
0.0
  0
LINE
  5
45
100
AcDbEntity
  8
GLAS_MED_FOGNING
100
AcDbLine
 10
-16.0
 20
22.0
 30
0.0
 11
-15.5
 21
21.0
 31
0.0
  0
LINE
  5
46
100
AcDbEntity
  8
GLAS_MED_FOGNING
100
AcDbLine
 10
-10.0
 20
22.0
 30
0.0
 11
-10.5
 21
21.0
 31
0.0
  0
LINE
  5
47
100
AcDbEntity
  8
GLAS_MED_FOGNING
100
AcDbLine
 10
-9.267949
 20
26.0
 30
0.0
 11
-16.73205
 21
26.0
 31
0.0
  0
LINE
  5
48
100
AcDbEntity
  8
GLAS_MED_FOGNING
100
AcDbLine
 10
-8.196152
 20
30.0
 30
0.0
 11
-17.803848
 21
30.0
 31
0.0
  0
ARC
  5
49
100
AcDbEntity
  8
GLAS_MED_FOGNING
100
AcDbCircle
 10
-13.0
 20
18.928391
 30
0.0
 40
12.068864
100
AcDbArc
 50
66.544514
 51
113.455486
  0
LINE
  5
4A
100
AcDbEntity
  8
GLAS_MED_FOGNING
100
AcDbLine
 10
-17.803848
 20
30.0
 30
0.0
 11
-16.73205
 21
26.0
 31
0.0
  0
LINE
  5
4B
100
AcDbEntity
  8
GLAS_MED_FOGNING
100
AcDbLine
 10
-16.73205
 20
26.0
 30
0.0
 11
-16.73205
 21
25.0
 31
0.0
  0
LINE
  5
4C
100
AcDbEntity
  8
GLAS_MED_FOGNING
100
AcDbLine
 10
-8.196152
 20
30.0
 30
0.0
 11
-9.267949
 21
26.0
 31
0.0
  0
LINE
  5
4D
100
AcDbEntity
  8
GLAS_MED_FOGNING
100
AcDbLine
 10
-9.267949
 20
26.0
 30
0.0
 11
-9.267949
 21
25.0
 31
0.0
  0
ENDBLK
  5
4F
100
AcDbEntity
  8
0
100
AcDbBlockEnd
  0
BLOCK
  5
4F0
100
AcDbEntity
  8
0
100
AcDbBlockBegin
  2
SP43020
 70
     0
 10
0.0
 20
0.0
 30
0.0
  3
SP43020
  1

  0
LWPOLYLINE
  5
4ED
100
AcDbEntity
  8
STALPROFIL
100
AcDbPolyline
 90
       14
 70
     0
 43
1.25
 10
-7.592449
 20
29.838238
 10
-8.372969
 20
26.925296
 42
0.398381
 10
-7.0
 20
25.625
 10
-2.0
 20
25.625
 42
0.414214
 10
-0.625
 20
27.0
 10
-0.625
 20
43.0
 42
0.414214
 10
-2.0
 20
44.375
 10
-28.0
 20
44.375
 42
0.414214
 10
-29.375
 20
43.0
 10
-29.375
 20
27.0
 42
0.414214
 10
-28.0
 20
25.625
 10
-19.0
 20
25.625
 42
0.398381
 10
-17.627031
 20
26.925296
 10
-18.407551
 20
29.838238
  0
LWPOLYLINE
  5
4EE
100
AcDbEntity
  8
SPKONTUR
100
AcDbPolyline
 90
       14
 70
     0
 43
0.0
 10
-8.196152
 20
30.0
 10
-9.0
 20
27.0
 42
0.414214
 10
-7.0
 20
25.0
 10
-2.0
 20
25.0
 42
0.414214
 10
0.0
 20
27.0
 10
0.0
 20
43.0
 42
0.414214
 10
-2.0
 20
45.0
 10
-28.0
 20
45.0
 42
0.414214
 10
-30.0
 20
43.0
 10
-30.0
 20
27.0
 42
0.414214
 10
-28.0
 20
25.0
 10
-19.0
 20
25.0
 42
0.414214
 10
-17.0
 20
27.0
 10
-17.803848
 20
30.0
  0
INSERT
  5
4EF
100
AcDbEntity
  8
GLAS_MED_FOGNING
100
AcDbBlockReference
  2
SP40020
 10
0.0
 20
0.0
 30
0.0
  0
ENDBLK
  5
4F1
100
AcDbEntity
  8
0
100
AcDbBlockEnd
  0
BLOCK
  5
1FE
100
AcDbEntity
  8
0
100
AcDbBlockBegin
  2
*X2
 70
     1
 10
0.0
 20
0.0
 30
0.0
  3
*X2
  1

  0
LINE
  5
14A
100
AcDbEntity
  8
0
 62
     0
100
AcDbLine
 10
133.6
 20
110.418239
 30
0.0
 11
133.75
 21
110.418239
 31
0.0
  0
LINE
  5
14B
100
AcDbEntity
  8
0
 62
     0
100
AcDbLine
 10
135.0
 20
110.418239
 30
0.0
 11
135.625
 21
110.418239
 31
0.0
  0
LINE
  5
14C
100
AcDbEntity
  8
0
 62
     0
100
AcDbLine
 10
136.875
 20
110.418239
 30
0.0
 11
137.5
 21
110.418239
 31
0.0
  0
LINE
  5
14D
100
AcDbEntity
  8
0
 62
     0
100
AcDbLine
 10
138.75
 20
110.418239
 30
0.0
 11
139.0
 21
110.418239
 31
0.0
  0
LINE
  5
14E
100
AcDbEntity
  8
0
 62
     0
100
AcDbLine
 10
170.625
 20
110.418239
 30
0.0
 11
171.25
 21
110.418239
 31
0.0
  0
LINE
  5
14F
100
AcDbEntity
  8
0
 62
     0
100
AcDbLine
 10
172.5
 20
110.418239
 30
0.0
 11
173.125
 21
110.418239
 31
0.0
  0
LINE
  5
150
100
AcDbEntity
  8
0
 62
     0
100
AcDbLine
 10
174.375
 20
110.418239
 30
0.0
 11
175.0
 21
110.418239
 31
0.0
  0
LINE
  5
151
100
AcDbEntity
  8
0
 62
     0
100
AcDbLine
 10
133.6
 20
111.500771
 30
0.0
 11
133.75
 21
111.500771
 31
0.0
  0
LINE
  5
152
100
AcDbEntity
  8
0
 62
     0
100
AcDbLine
 10
135.0
 20
111.500771
 30
0.0
 11
135.625
 21
111.500771
 31
0.0
  0
LINE
  5
153
100
AcDbEntity
  8
0
 62
     0
100
AcDbLine
 10
136.875
 20
111.500771
 30
0.0
 11
137.5
 21
111.500771
 31
0.0
  0
LINE
  5
154
100
AcDbEntity
  8
0
 62
     0
100
AcDbLine
 10
138.75
 20
111.500771
 30
0.0
 11
139.0
 21
111.500771
 31
0.0
  0
LINE
  5
155
100
AcDbEntity
  8
0
 62
     0
100
AcDbLine
 10
170.625
 20
111.500771
 30
0.0
 11
171.25
 21
111.500771
 31
0.0
  0
LINE
  5
156
100
AcDbEntity
  8
0
 62
     0
100
AcDbLine
 10
172.5
 20
111.500771
 30
0.0
 11
173.125
 21
111.500771
 31
0.0
  0
LINE
  5
157
100
AcDbEntity
  8
0
 62
     0
100
AcDbLine
 10
174.375
 20
111.500771
 30
0.0
 11
175.0
 21
111.500771
 31
0.0
  0
LINE
  5
158
100
AcDbEntity
  8
0
 62
     0
100
AcDbLine
 10
133.6
 20
112.583303
 30
0.0
 11
133.75
 21
112.583303
 31
0.0
  0
LINE
  5
159
100
AcDbEntity
  8
0
 62
     0
100
AcDbLine
 10
135.0
 20
112.583303
 30
0.0
 11
135.625
 21
112.583303
 31
0.0
  0
LINE
  5
15A
100
AcDbEntity
  8
0
 62
     0
100
AcDbLine
 10
136.875
 20
112.583303
 30
0.0
 11
137.5
 21
112.583303
 31
0.0
  0
LINE
  5
15B
100
AcDbEntity
  8
0
 62
     0
100
AcDbLine
 10
138.75
 20
112.583303
 30
0.0
 11
139.0
 21
112.583303
 31
0.0
  0
LINE
  5
15C
100
AcDbEntity
  8
0
 62
     0
100
AcDbLine
 10
170.625
 20
112.583303
 30
0.0
 11
171.25
 21
112.583303
 31
0.0
  0
LINE
  5
15D
100
AcDbEntity
  8
0
 62
     0
100
AcDbLine
 10
172.5
 20
112.583303
 30
0.0
 11
173.125
 21
112.583303
 31
0.0
  0
LINE
  5
15E
100
AcDbEntity
  8
0
 62
     0
100
AcDbLine
 10
174.375
 20
112.583303
 30
0.0
 11
175.0
 21
112.583303
 31
0.0
  0
LINE
  5
15F
100
AcDbEntity
  8
0
 62
     0
100
AcDbLine
 10
133.6
 20
113.665834
 30
0.0
 11
133.75
 21
113.665834
 31
0.0
  0
LINE
  5
160
100
AcDbEntity
  8
0
 62
     0
100
AcDbLine
 10
135.0
 20
113.665834
 30
0.0
 11
135.625
 21
113.665834
 31
0.0
  0
LINE
  5
161
100
AcDbEntity
  8
0
 62
     0
100
AcDbLine
 10
136.875
 20
113.665834
 30
0.0
 11
137.5
 21
113.665834
 31
0.0
  0
LINE
  5
162
100
AcDbEntity
  8
0
 62
     0
100
AcDbLine
 10
138.75
 20
113.665834
 30
0.0
 11
139.0
 21
113.665834
 31
0.0
  0
LINE
  5
163
100
AcDbEntity
  8
0
 62
     0
100
AcDbLine
 10
170.625
 20
113.665834
 30
0.0
 11
171.25
 21
113.665834
 31
0.0
  0
LINE
  5
164
100
AcDbEntity
  8
0
 62
     0
100
AcDbLine
 10
172.5
 20
113.665834
 30
0.0
 11
173.125
 21
113.665834
 31
0.0
  0
LINE
  5
165
100
AcDbEntity
  8
0
 62
     0
100
AcDbLine
 10
174.375
 20
113.665834
 30
0.0
 11
175.0
 21
113.665834
 31
0.0
  0
LINE
  5
166
100
AcDbEntity
  8
0
 62
     0
100
AcDbLine
 10
133.6
 20
114.748366
 30
0.0
 11
133.75
 21
114.748366
 31
0.0
  0
LINE
  5
167
100
AcDbEntity
  8
0
 62
     0
100
AcDbLine
 10
135.0
 20
114.748366
 30
0.0
 11
135.625
 21
114.748366
 31
0.0
  0
LINE
  5
168
100
AcDbEntity
  8
0
 62
     0
100
AcDbLine
 10
136.875
 20
114.748366
 30
0.0
 11
137.5
 21
114.748366
 31
0.0
  0
LINE
  5
169
100
AcDbEntity
  8
0
 62
     0
100
AcDbLine
 10
138.75
 20
114.748366
 30
0.0
 11
139.0
 21
114.748366
 31
0.0
  0
LINE
  5
16A
100
AcDbEntity
  8
0
 62
     0
100
AcDbLine
 10
170.625
 20
114.748366
 30
0.0
 11
171.25
 21
114.748366
 31
0.0
  0
LINE
  5
16B
100
AcDbEntity
  8
0
 62
     0
100
AcDbLine
 10
172.5
 20
114.748366
 30
0.0
 11
173.125
 21
114.748366
 31
0.0
  0
LINE
  5
16C
100
AcDbEntity
  8
0
 62
     0
100
AcDbLine
 10
174.375
 20
114.748366
 30
0.0
 11
175.0
 21
114.748366
 31
0.0
  0
LINE
  5
16D
100
AcDbEntity
  8
0
 62
     0
100
AcDbLine
 10
133.6
 20
115.830898
 30
0.0
 11
133.75
 21
115.830898
 31
0.0
  0
LINE
  5
16E
100
AcDbEntity
  8
0
 62
     0
100
AcDbLine
 10
135.0
 20
115.830898
 30
0.0
 11
135.625
 21
115.830898
 31
0.0
  0
LINE
  5
16F
100
AcDbEntity
  8
0
 62
     0
100
AcDbLine
 10
136.875
 20
115.830898
 30
0.0
 11
137.5
 21
115.830898
 31
0.0
  0
LINE
  5
170
100
AcDbEntity
  8
0
 62
     0
100
AcDbLine
 10
138.75
 20
115.830898
 30
0.0
 11
139.0
 21
115.830898
 31
0.0
  0
LINE
  5
171
100
AcDbEntity
  8
0
 62
     0
100
AcDbLine
 10
170.625
 20
115.830898
 30
0.0
 11
171.25
 21
115.830898
 31
0.0
  0
LINE
  5
172
100
AcDbEntity
  8
0
 62
     0
100
AcDbLine
 10
172.5
 20
115.830898
 30
0.0
 11
173.125
 21
115.830898
 31
0.0
  0
LINE
  5
173
100
AcDbEntity
  8
0
 62
     0
100
AcDbLine
 10
174.375
 20
115.830898
 30
0.0
 11
175.0
 21
115.830898
 31
0.0
  0
LINE
  5
174
100
AcDbEntity
  8
0
 62
     0
100
AcDbLine
 10
133.6
 20
109.335707
 30
0.0
 11
133.75
 21
109.335707
 31
0.0
  0
LINE
  5
175
100
AcDbEntity
  8
0
 62
     0
100
AcDbLine
 10
135.0
 20
109.335707
 30
0.0
 11
135.625
 21
109.335707
 31
0.0
  0
LINE
  5
176
100
AcDbEntity
  8
0
 62
     0
100
AcDbLine
 10
136.875
 20
109.335707
 30
0.0
 11
137.5
 21
109.335707
 31
0.0
  0
LINE
  5
177
100
AcDbEntity
  8
0
 62
     0
100
AcDbLine
 10
138.75
 20
109.335707
 30
0.0
 11
139.0
 21
109.335707
 31
0.0
  0
LINE
  5
178
100
AcDbEntity
  8
0
 62
     0
100
AcDbLine
 10
170.625
 20
109.335707
 30
0.0
 11
171.25
 21
109.335707
 31
0.0
  0
LINE
  5
179
100
AcDbEntity
  8
0
 62
     0
100
AcDbLine
 10
172.5
 20
109.335707
 30
0.0
 11
173.125
 21
109.335707
 31
0.0
  0
LINE
  5
17A
100
AcDbEntity
  8
0
 62
     0
100
AcDbLine
 10
174.375
 20
109.335707
 30
0.0
 11
175.0
 21
109.335707
 31
0.0
  0
LINE
  5
17B
100
AcDbEntity
  8
0
 62
     0
100
AcDbLine
 10
133.6
 20
108.253176
 30
0.0
 11
133.75
 21
108.253176
 31
0.0
  0
LINE
  5
17C
100
AcDbEntity
  8
0
 62
     0
100
AcDbLine
 10
135.0
 20
108.253176
 30
0.0
 11
135.625
 21
108.253176
 31
0.0
  0
LINE
  5
17D
100
AcDbEntity
  8
0
 62
     0
100
AcDbLine
 10
136.875
 20
108.253176
 30
0.0
 11
137.5
 21
108.253176
 31
0.0
  0
LINE
  5
17E
100
AcDbEntity
  8
0
 62
     0
100
AcDbLine
 10
138.75
 20
108.253176
 30
0.0
 11
139.0
 21
108.253176
 31
0.0
  0
LINE
  5
17F
100
AcDbEntity
  8
0
 62
     0
100
AcDbLine
 10
170.625
 20
108.253176
 30
0.0
 11
171.25
 21
108.253176
 31
0.0
  0
LINE
  5
180
100
AcDbEntity
  8
0
 62
     0
100
AcDbLine
 10
172.5
 20
108.253176
 30
0.0
 11
173.125
 21
108.253176
 31
0.0
  0
LINE
  5
181
100
AcDbEntity
  8
0
 62
     0
100
AcDbLine
 10
174.375
 20
108.253176
 30
0.0
 11
175.0
 21
108.253176
 31
0.0
  0
LINE
  5
182
100
AcDbEntity
  8
0
 62
     0
100
AcDbLine
 10
133.6
 20
107.170644
 30
0.0
 11
133.75
 21
107.170644
 31
0.0
  0
LINE
  5
183
100
AcDbEntity
  8
0
 62
     0
100
AcDbLine
 10
135.0
 20
107.170644
 30
0.0
 11
135.625
 21
107.170644
 31
0.0
  0
LINE
  5
184
100
AcDbEntity
  8
0
 62
     0
100
AcDbLine
 10
136.875
 20
107.170644
 30
0.0
 11
137.5
 21
107.170644
 31
0.0
  0
LINE
  5
185
100
AcDbEntity
  8
0
 62
     0
100
AcDbLine
 10
138.75
 20
107.170644
 30
0.0
 11
139.0
 21
107.170644
 31
0.0
  0
LINE
  5
186
100
AcDbEntity
  8
0
 62
     0
100
AcDbLine
 10
170.625
 20
107.170644
 30
0.0
 11
171.25
 21
107.170644
 31
0.0
  0
LINE
  5
187
100
AcDbEntity
  8
0
 62
     0
100
AcDbLine
 10
172.5
 20
107.170644
 30
0.0
 11
173.125
 21
107.170644
 31
0.0
  0
LINE
  5
188
100
AcDbEntity
  8
0
 62
     0
100
AcDbLine
 10
174.375
 20
107.170644
 30
0.0
 11
175.0
 21
107.170644
 31
0.0
  0
LINE
  5
189
100
AcDbEntity
  8
0
 62
     0
100
AcDbLine
 10
133.6
 20
106.088112
 30
0.0
 11
133.75
 21
106.088112
 31
0.0
  0
LINE
  5
18A
100
AcDbEntity
  8
0
 62
     0
100
AcDbLine
 10
135.0
 20
106.088112
 30
0.0
 11
135.625
 21
106.088112
 31
0.0
  0
LINE
  5
18B
100
AcDbEntity
  8
0
 62
     0
100
AcDbLine
 10
136.875
 20
106.088112
 30
0.0
 11
137.5
 21
106.088112
 31
0.0
  0
LINE
  5
18C
100
AcDbEntity
  8
0
 62
     0
100
AcDbLine
 10
138.75
 20
106.088112
 30
0.0
 11
139.0
 21
106.088112
 31
0.0
  0
LINE
  5
18D
100
AcDbEntity
  8
0
 62
     0
100
AcDbLine
 10
170.625
 20
106.088112
 30
0.0
 11
171.25
 21
106.088112
 31
0.0
  0
LINE
  5
18E
100
AcDbEntity
  8
0
 62
     0
100
AcDbLine
 10
172.5
 20
106.088112
 30
0.0
 11
173.125
 21
106.088112
 31
0.0
  0
LINE
  5
18F
100
AcDbEntity
  8
0
 62
     0
100
AcDbLine
 10
174.375
 20
106.088112
 30
0.0
 11
175.0
 21
106.088112
 31
0.0
  0
LINE
  5
190
100
AcDbEntity
  8
0
 62
     0
100
AcDbLine
 10
138.75
 20
114.748366
 30
0.0
 11
138.4375
 21
115.289632
 31
0.0
  0
LINE
  5
191
100
AcDbEntity
  8
0
 62
     0
100
AcDbLine
 10
138.75
 20
112.583303
 30
0.0
 11
138.4375
 21
113.124568
 31
0.0
  0
LINE
  5
192
100
AcDbEntity
  8
0
 62
     0
100
AcDbLine
 10
137.8125
 20
114.2071
 30
0.0
 11
137.5
 21
114.748366
 31
0.0
  0
LINE
  5
193
100
AcDbEntity
  8
0
 62
     0
100
AcDbLine
 10
136.875
 20
115.830898
 30
0.0
 11
136.777946
 21
115.999
 31
0.0
  0
LINE
  5
194
100
AcDbEntity
  8
0
 62
     0
100
AcDbLine
 10
138.75
 20
110.418239
 30
0.0
 11
138.4375
 21
110.959505
 31
0.0
  0
LINE
  5
195
100
AcDbEntity
  8
0
 62
     0
100
AcDbLine
 10
137.8125
 20
112.042037
 30
0.0
 11
137.5
 21
112.583303
 31
0.0
  0
LINE
  5
196
100
AcDbEntity
  8
0
 62
     0
100
AcDbLine
 10
136.875
 20
113.665834
 30
0.0
 11
136.5625
 21
114.2071
 31
0.0
  0
LINE
  5
197
100
AcDbEntity
  8
0
 62
     0
100
AcDbLine
 10
135.9375
 20
115.289632
 30
0.0
 11
135.625
 21
115.830898
 31
0.0
  0
LINE
  5
198
100
AcDbEntity
  8
0
 62
     0
100
AcDbLine
 10
138.75
 20
108.253175
 30
0.0
 11
138.4375
 21
108.794441
 31
0.0
  0
LINE
  5
199
100
AcDbEntity
  8
0
 62
     0
100
AcDbLine
 10
137.8125
 20
109.876973
 30
0.0
 11
137.5
 21
110.418239
 31
0.0
  0
LINE
  5
19A
100
AcDbEntity
  8
0
 62
     0
100
AcDbLine
 10
136.875
 20
111.500771
 30
0.0
 11
136.5625
 21
112.042037
 31
0.0
  0
LINE
  5
19B
100
AcDbEntity
  8
0
 62
     0
100
AcDbLine
 10
135.9375
 20
113.124568
 30
0.0
 11
135.625
 21
113.665834
 31
0.0
  0
LINE
  5
19C
100
AcDbEntity
  8
0
 62
     0
100
AcDbLine
 10
135.0
 20
114.748366
 30
0.0
 11
134.6875
 21
115.289632
 31
0.0
  0
LINE
  5
19D
100
AcDbEntity
  8
0
 62
     0
100
AcDbLine
 10
138.75
 20
106.088112
 30
0.0
 11
138.4375
 21
106.629378
 31
0.0
  0
LINE
  5
19E
100
AcDbEntity
  8
0
 62
     0
100
AcDbLine
 10
137.8125
 20
107.71191
 30
0.0
 11
137.5
 21
108.253175
 31
0.0
  0
LINE
  5
19F
100
AcDbEntity
  8
0
 62
     0
100
AcDbLine
 10
136.875
 20
109.335707
 30
0.0
 11
136.5625
 21
109.876973
 31
0.0
  0
LINE
  5
1A0
100
AcDbEntity
  8
0
 62
     0
100
AcDbLine
 10
135.9375
 20
110.959505
 30
0.0
 11
135.625
 21
111.500771
 31
0.0
  0
LINE
  5
1A1
100
AcDbEntity
  8
0
 62
     0
100
AcDbLine
 10
135.0
 20
112.583303
 30
0.0
 11
134.6875
 21
113.124568
 31
0.0
  0
LINE
  5
1A2
100
AcDbEntity
  8
0
 62
     0
100
AcDbLine
 10
134.0625
 20
114.2071
 30
0.0
 11
133.75
 21
114.748366
 31
0.0
  0
LINE
  5
1A3
100
AcDbEntity
  8
0
 62
     0
100
AcDbLine
 10
137.551449
 20
105.999
 30
0.0
 11
137.5
 21
106.088112
 31
0.0
  0
LINE
  5
1A4
100
AcDbEntity
  8
0
 62
     0
100
AcDbLine
 10
136.875
 20
107.170644
 30
0.0
 11
136.5625
 21
107.71191
 31
0.0
  0
LINE
  5
1A5
100
AcDbEntity
  8
0
 62
     0
100
AcDbLine
 10
135.9375
 20
108.794441
 30
0.0
 11
135.625
 21
109.335707
 31
0.0
  0
LINE
  5
1A6
100
AcDbEntity
  8
0
 62
     0
100
AcDbLine
 10
135.0
 20
110.418239
 30
0.0
 11
134.6875
 21
110.959505
 31
0.0
  0
LINE
  5
1A7
100
AcDbEntity
  8
0
 62
     0
100
AcDbLine
 10
134.0625
 20
112.042037
 30
0.0
 11
133.75
 21
112.583303
 31
0.0
  0
LINE
  5
1A8
100
AcDbEntity
  8
0
 62
     0
100
AcDbLine
 10
135.9375
 20
106.629378
 30
0.0
 11
135.625
 21
107.170644
 31
0.0
  0
LINE
  5
1A9
100
AcDbEntity
  8
0
 62
     0
100
AcDbLine
 10
135.0
 20
108.253175
 30
0.0
 11
134.6875
 21
108.794441
 31
0.0
  0
LINE
  5
1AA
100
AcDbEntity
  8
0
 62
     0
100
AcDbLine
 10
134.0625
 20
109.876973
 30
0.0
 11
133.75
 21
110.418239
 31
0.0
  0
LINE
  5
1AB
100
AcDbEntity
  8
0
 62
     0
100
AcDbLine
 10
135.0
 20
106.088112
 30
0.0
 11
134.6875
 21
106.629378
 31
0.0
  0
LINE
  5
1AC
100
AcDbEntity
  8
0
 62
     0
100
AcDbLine
 10
134.0625
 20
107.71191
 30
0.0
 11
133.75
 21
108.253175
 31
0.0
  0
LINE
  5
1AD
100
AcDbEntity
  8
0
 62
     0
100
AcDbLine
 10
133.801449
 20
105.999
 30
0.0
 11
133.75
 21
106.088112
 31
0.0
  0
LINE
  5
1AE
100
AcDbEntity
  8
0
 62
     0
100
AcDbLine
 10
171.301449
 20
105.999
 30
0.0
 11
171.25
 21
106.088112
 31
0.0
  0
LINE
  5
1AF
100
AcDbEntity
  8
0
 62
     0
100
AcDbLine
 10
170.625
 20
107.170644
 30
0.0
 11
170.3125
 21
107.71191
 31
0.0
  0
LINE
  5
1B0
100
AcDbEntity
  8
0
 62
     0
100
AcDbLine
 10
172.5
 20
106.088112
 30
0.0
 11
172.1875
 21
106.629378
 31
0.0
  0
LINE
  5
1B1
100
AcDbEntity
  8
0
 62
     0
100
AcDbLine
 10
171.5625
 20
107.71191
 30
0.0
 11
171.25
 21
108.253175
 31
0.0
  0
LINE
  5
1B2
100
AcDbEntity
  8
0
 62
     0
100
AcDbLine
 10
170.625
 20
109.335707
 30
0.0
 11
170.3125
 21
109.876973
 31
0.0
  0
LINE
  5
1B3
100
AcDbEntity
  8
0
 62
     0
100
AcDbLine
 10
173.4375
 20
106.629378
 30
0.0
 11
173.125
 21
107.170644
 31
0.0
  0
LINE
  5
1B4
100
AcDbEntity
  8
0
 62
     0
100
AcDbLine
 10
172.5
 20
108.253175
 30
0.0
 11
172.1875
 21
108.794441
 31
0.0
  0
LINE
  5
1B5
100
AcDbEntity
  8
0
 62
     0
100
AcDbLine
 10
171.5625
 20
109.876973
 30
0.0
 11
171.25
 21
110.418239
 31
0.0
  0
LINE
  5
1B6
100
AcDbEntity
  8
0
 62
     0
100
AcDbLine
 10
170.625
 20
111.500771
 30
0.0
 11
170.3125
 21
112.042037
 31
0.0
  0
LINE
  5
1B7
100
AcDbEntity
  8
0
 62
     0
100
AcDbLine
 10
174.375
 20
107.170644
 30
0.0
 11
174.0625
 21
107.71191
 31
0.0
  0
LINE
  5
1B8
100
AcDbEntity
  8
0
 62
     0
100
AcDbLine
 10
173.4375
 20
108.794441
 30
0.0
 11
173.125
 21
109.335707
 31
0.0
  0
LINE
  5
1B9
100
AcDbEntity
  8
0
 62
     0
100
AcDbLine
 10
172.5
 20
110.418239
 30
0.0
 11
172.1875
 21
110.959505
 31
0.0
  0
LINE
  5
1BA
100
AcDbEntity
  8
0
 62
     0
100
AcDbLine
 10
171.5625
 20
112.042037
 30
0.0
 11
171.25
 21
112.583303
 31
0.0
  0
LINE
  5
1BB
100
AcDbEntity
  8
0
 62
     0
100
AcDbLine
 10
170.625
 20
113.665834
 30
0.0
 11
170.3125
 21
114.2071
 31
0.0
  0
LINE
  5
1BC
100
AcDbEntity
  8
0
 62
     0
100
AcDbLine
 10
174.375
 20
109.335707
 30
0.0
 11
174.0625
 21
109.876973
 31
0.0
  0
LINE
  5
1BD
100
AcDbEntity
  8
0
 62
     0
100
AcDbLine
 10
173.4375
 20
110.959505
 30
0.0
 11
173.125
 21
111.500771
 31
0.0
  0
LINE
  5
1BE
100
AcDbEntity
  8
0
 62
     0
100
AcDbLine
 10
172.5
 20
112.583303
 30
0.0
 11
172.1875
 21
113.124568
 31
0.0
  0
LINE
  5
1BF
100
AcDbEntity
  8
0
 62
     0
100
AcDbLine
 10
171.5625
 20
114.2071
 30
0.0
 11
171.25
 21
114.748366
 31
0.0
  0
LINE
  5
1C0
100
AcDbEntity
  8
0
 62
     0
100
AcDbLine
 10
170.625
 20
115.830898
 30
0.0
 11
170.527946
 21
115.999
 31
0.0
  0
LINE
  5
1C1
100
AcDbEntity
  8
0
 62
     0
100
AcDbLine
 10
174.375
 20
111.500771
 30
0.0
 11
174.0625
 21
112.042037
 31
0.0
  0
LINE
  5
1C2
100
AcDbEntity
  8
0
 62
     0
100
AcDbLine
 10
173.4375
 20
113.124568
 30
0.0
 11
173.125
 21
113.665834
 31
0.0
  0
LINE
  5
1C3
100
AcDbEntity
  8
0
 62
     0
100
AcDbLine
 10
172.5
 20
114.748366
 30
0.0
 11
172.1875
 21
115.289632
 31
0.0
  0
LINE
  5
1C4
100
AcDbEntity
  8
0
 62
     0
100
AcDbLine
 10
174.375
 20
113.665834
 30
0.0
 11
174.0625
 21
114.2071
 31
0.0
  0
LINE
  5
1C5
100
AcDbEntity
  8
0
 62
     0
100
AcDbLine
 10
173.4375
 20
115.289632
 30
0.0
 11
173.125
 21
115.830898
 31
0.0
  0
LINE
  5
1C6
100
AcDbEntity
  8
0
 62
     0
100
AcDbLine
 10
174.375
 20
115.830898
 30
0.0
 11
174.277946
 21
115.999
 31
0.0
  0
LINE
  5
1C7
100
AcDbEntity
  8
0
 62
     0
100
AcDbLine
 10
138.4375
 20
106.629378
 30
0.0
 11
138.75
 21
107.170644
 31
0.0
  0
LINE
  5
1C8
100
AcDbEntity
  8
0
 62
     0
100
AcDbLine
 10
136.823551
 20
105.999
 30
0.0
 11
136.875
 21
106.088112
 31
0.0
  0
LINE
  5
1C9
100
AcDbEntity
  8
0
 62
     0
100
AcDbLine
 10
137.5
 20
107.170644
 30
0.0
 11
137.8125
 21
107.71191
 31
0.0
  0
LINE
  5
1CA
100
AcDbEntity
  8
0
 62
     0
100
AcDbLine
 10
138.4375
 20
108.794441
 30
0.0
 11
138.75
 21
109.335707
 31
0.0
  0
LINE
  5
1CB
100
AcDbEntity
  8
0
 62
     0
100
AcDbLine
 10
135.625
 20
106.088112
 30
0.0
 11
135.9375
 21
106.629378
 31
0.0
  0
LINE
  5
1CC
100
AcDbEntity
  8
0
 62
     0
100
AcDbLine
 10
136.5625
 20
107.71191
 30
0.0
 11
136.875
 21
108.253175
 31
0.0
  0
LINE
  5
1CD
100
AcDbEntity
  8
0
 62
     0
100
AcDbLine
 10
137.5
 20
109.335707
 30
0.0
 11
137.8125
 21
109.876973
 31
0.0
  0
LINE
  5
1CE
100
AcDbEntity
  8
0
 62
     0
100
AcDbLine
 10
138.4375
 20
110.959505
 30
0.0
 11
138.75
 21
111.500771
 31
0.0
  0
LINE
  5
1CF
100
AcDbEntity
  8
0
 62
     0
100
AcDbLine
 10
134.6875
 20
106.629378
 30
0.0
 11
135.0
 21
107.170644
 31
0.0
  0
LINE
  5
1D0
100
AcDbEntity
  8
0
 62
     0
100
AcDbLine
 10
135.625
 20
108.253175
 30
0.0
 11
135.9375
 21
108.794441
 31
0.0
  0
LINE
  5
1D1
100
AcDbEntity
  8
0
 62
     0
100
AcDbLine
 10
136.5625
 20
109.876973
 30
0.0
 11
136.875
 21
110.418239
 31
0.0
  0
LINE
  5
1D2
100
AcDbEntity
  8
0
 62
     0
100
AcDbLine
 10
137.5
 20
111.500771
 30
0.0
 11
137.8125
 21
112.042037
 31
0.0
  0
LINE
  5
1D3
100
AcDbEntity
  8
0
 62
     0
100
AcDbLine
 10
138.4375
 20
113.124568
 30
0.0
 11
138.75
 21
113.665834
 31
0.0
  0
LINE
  5
1D4
100
AcDbEntity
  8
0
 62
     0
100
AcDbLine
 10
133.75
 20
107.170644
 30
0.0
 11
134.0625
 21
107.71191
 31
0.0
  0
LINE
  5
1D5
100
AcDbEntity
  8
0
 62
     0
100
AcDbLine
 10
134.6875
 20
108.794441
 30
0.0
 11
135.0
 21
109.335707
 31
0.0
  0
LINE
  5
1D6
100
AcDbEntity
  8
0
 62
     0
100
AcDbLine
 10
135.625
 20
110.418239
 30
0.0
 11
135.9375
 21
110.959505
 31
0.0
  0
LINE
  5
1D7
100
AcDbEntity
  8
0
 62
     0
100
AcDbLine
 10
136.5625
 20
112.042037
 30
0.0
 11
136.875
 21
112.583302
 31
0.0
  0
LINE
  5
1D8
100
AcDbEntity
  8
0
 62
     0
100
AcDbLine
 10
137.5
 20
113.665834
 30
0.0
 11
137.8125
 21
114.2071
 31
0.0
  0
LINE
  5
1D9
100
AcDbEntity
  8
0
 62
     0
100
AcDbLine
 10
138.4375
 20
115.289632
 30
0.0
 11
138.75
 21
115.830898
 31
0.0
  0
LINE
  5
1DA
100
AcDbEntity
  8
0
 62
     0
100
AcDbLine
 10
133.75
 20
109.335707
 30
0.0
 11
134.0625
 21
109.876973
 31
0.0
  0
LINE
  5
1DB
100
AcDbEntity
  8
0
 62
     0
100
AcDbLine
 10
134.6875
 20
110.959505
 30
0.0
 11
135.0
 21
111.500771
 31
0.0
  0
LINE
  5
1DC
100
AcDbEntity
  8
0
 62
     0
100
AcDbLine
 10
135.625
 20
112.583302
 30
0.0
 11
135.9375
 21
113.124568
 31
0.0
  0
LINE
  5
1DD
100
AcDbEntity
  8
0
 62
     0
100
AcDbLine
 10
136.5625
 20
114.2071
 30
0.0
 11
136.875
 21
114.748366
 31
0.0
  0
LINE
  5
1DE
100
AcDbEntity
  8
0
 62
     0
100
AcDbLine
 10
137.5
 20
115.830898
 30
0.0
 11
137.597054
 21
115.999
 31
0.0
  0
LINE
  5
1DF
100
AcDbEntity
  8
0
 62
     0
100
AcDbLine
 10
133.75
 20
111.500771
 30
0.0
 11
134.0625
 21
112.042037
 31
0.0
  0
LINE
  5
1E0
100
AcDbEntity
  8
0
 62
     0
100
AcDbLine
 10
134.6875
 20
113.124568
 30
0.0
 11
135.0
 21
113.665834
 31
0.0
  0
LINE
  5
1E1
100
AcDbEntity
  8
0
 62
     0
100
AcDbLine
 10
135.625
 20
114.748366
 30
0.0
 11
135.9375
 21
115.289632
 31
0.0
  0
LINE
  5
1E2
100
AcDbEntity
  8
0
 62
     0
100
AcDbLine
 10
133.75
 20
113.665834
 30
0.0
 11
134.0625
 21
114.2071
 31
0.0
  0
LINE
  5
1E3
100
AcDbEntity
  8
0
 62
     0
100
AcDbLine
 10
134.6875
 20
115.289632
 30
0.0
 11
135.0
 21
115.830898
 31
0.0
  0
LINE
  5
1E4
100
AcDbEntity
  8
0
 62
     0
100
AcDbLine
 10
133.75
 20
115.830898
 30
0.0
 11
133.847054
 21
115.999
 31
0.0
  0
LINE
  5
1E5
100
AcDbEntity
  8
0
 62
     0
100
AcDbLine
 10
170.3125
 20
114.2071
 30
0.0
 11
170.625
 21
114.748366
 31
0.0
  0
LINE
  5
1E6
100
AcDbEntity
  8
0
 62
     0
100
AcDbLine
 10
171.25
 20
115.830898
 30
0.0
 11
171.347054
 21
115.999
 31
0.0
  0
LINE
  5
1E7
100
AcDbEntity
  8
0
 62
     0
100
AcDbLine
 10
170.3125
 20
112.042037
 30
0.0
 11
170.625
 21
112.583302
 31
0.0
  0
LINE
  5
1E8
100
AcDbEntity
  8
0
 62
     0
100
AcDbLine
 10
171.25
 20
113.665834
 30
0.0
 11
171.5625
 21
114.2071
 31
0.0
  0
LINE
  5
1E9
100
AcDbEntity
  8
0
 62
     0
100
AcDbLine
 10
172.1875
 20
115.289632
 30
0.0
 11
172.5
 21
115.830898
 31
0.0
  0
LINE
  5
1EA
100
AcDbEntity
  8
0
 62
     0
100
AcDbLine
 10
170.3125
 20
109.876973
 30
0.0
 11
170.625
 21
110.418239
 31
0.0
  0
LINE
  5
1EB
100
AcDbEntity
  8
0
 62
     0
100
AcDbLine
 10
171.25
 20
111.500771
 30
0.0
 11
171.5625
 21
112.042037
 31
0.0
  0
LINE
  5
1EC
100
AcDbEntity
  8
0
 62
     0
100
AcDbLine
 10
172.1875
 20
113.124568
 30
0.0
 11
172.5
 21
113.665834
 31
0.0
  0
LINE
  5
1ED
100
AcDbEntity
  8
0
 62
     0
100
AcDbLine
 10
173.125
 20
114.748366
 30
0.0
 11
173.4375
 21
115.289632
 31
0.0
  0
LINE
  5
1EE
100
AcDbEntity
  8
0
 62
     0
100
AcDbLine
 10
170.3125
 20
107.71191
 30
0.0
 11
170.625
 21
108.253175
 31
0.0
  0
LINE
  5
1EF
100
AcDbEntity
  8
0
 62
     0
100
AcDbLine
 10
171.25
 20
109.335707
 30
0.0
 11
171.5625
 21
109.876973
 31
0.0
  0
LINE
  5
1F0
100
AcDbEntity
  8
0
 62
     0
100
AcDbLine
 10
172.1875
 20
110.959505
 30
0.0
 11
172.5
 21
111.500771
 31
0.0
  0
LINE
  5
1F1
100
AcDbEntity
  8
0
 62
     0
100
AcDbLine
 10
173.125
 20
112.583302
 30
0.0
 11
173.4375
 21
113.124568
 31
0.0
  0
LINE
  5
1F2
100
AcDbEntity
  8
0
 62
     0
100
AcDbLine
 10
174.0625
 20
114.2071
 30
0.0
 11
174.375
 21
114.748366
 31
0.0
  0
LINE
  5
1F3
100
AcDbEntity
  8
0
 62
     0
100
AcDbLine
 10
170.573551
 20
105.999
 30
0.0
 11
170.625
 21
106.088112
 31
0.0
  0
LINE
  5
1F4
100
AcDbEntity
  8
0
 62
     0
100
AcDbLine
 10
171.25
 20
107.170644
 30
0.0
 11
171.5625
 21
107.71191
 31
0.0
  0
LINE
  5
1F5
100
AcDbEntity
  8
0
 62
     0
100
AcDbLine
 10
172.1875
 20
108.794441
 30
0.0
 11
172.5
 21
109.335707
 31
0.0
  0
LINE
  5
1F6
100
AcDbEntity
  8
0
 62
     0
100
AcDbLine
 10
173.125
 20
110.418239
 30
0.0
 11
173.4375
 21
110.959505
 31
0.0
  0
LINE
  5
1F7
100
AcDbEntity
  8
0
 62
     0
100
AcDbLine
 10
174.0625
 20
112.042037
 30
0.0
 11
174.375
 21
112.583302
 31
0.0
  0
LINE
  5
1F8
100
AcDbEntity
  8
0
 62
     0
100
AcDbLine
 10
172.1875
 20
106.629378
 30
0.0
 11
172.5
 21
107.170644
 31
0.0
  0
LINE
  5
1F9
100
AcDbEntity
  8
0
 62
     0
100
AcDbLine
 10
173.125
 20
108.253175
 30
0.0
 11
173.4375
 21
108.794441
 31
0.0
  0
LINE
  5
1FA
100
AcDbEntity
  8
0
 62
     0
100
AcDbLine
 10
174.0625
 20
109.876973
 30
0.0
 11
174.375
 21
110.418239
 31
0.0
  0
LINE
  5
1FB
100
AcDbEntity
  8
0
 62
     0
100
AcDbLine
 10
173.125
 20
106.088112
 30
0.0
 11
173.4375
 21
106.629378
 31
0.0
  0
LINE
  5
1FC
100
AcDbEntity
  8
0
 62
     0
100
AcDbLine
 10
174.0625
 20
107.71191
 30
0.0
 11
174.375
 21
108.253175
 31
0.0
  0
LINE
  5
1FD
100
AcDbEntity
  8
0
 62
     0
100
AcDbLine
 10
174.323551
 20
105.999
 30
0.0
 11
174.375
 21
106.088112
 31
0.0
  0
ENDBLK
  5
1FF
100
AcDbEntity
  8
0
100
AcDbBlockEnd
  0
BLOCK
  5
43D
100
AcDbEntity
  8
0
100
AcDbBlockBegin
  2
*X3
 70
     1
 10
0.0
 20
0.0
 30
0.0
  3
*X3
  1

  0
LINE
  5
3EE
100
AcDbEntity
  8
0
 62
     0
100
AcDbLine
 10
110.625
 20
565.081576
 30
0.0
 11
111.25
 21
565.081576
 31
0.0
  0
LINE
  5
3EF
100
AcDbEntity
  8
0
 62
     0
100
AcDbLine
 10
112.5
 20
565.081576
 30
0.0
 11
113.125
 21
565.081576
 31
0.0
  0
LINE
  5
3F0
100
AcDbEntity
  8
0
 62
     0
100
AcDbLine
 10
114.375
 20
565.081576
 30
0.0
 11
115.0
 21
565.081576
 31
0.0
  0
LINE
  5
3F1
100
AcDbEntity
  8
0
 62
     0
100
AcDbLine
 10
110.625
 20
566.164108
 30
0.0
 11
111.25
 21
566.164108
 31
0.0
  0
LINE
  5
3F2
100
AcDbEntity
  8
0
 62
     0
100
AcDbLine
 10
112.5
 20
566.164108
 30
0.0
 11
113.125
 21
566.164108
 31
0.0
  0
LINE
  5
3F3
100
AcDbEntity
  8
0
 62
     0
100
AcDbLine
 10
114.375
 20
566.164108
 30
0.0
 11
115.0
 21
566.164108
 31
0.0
  0
LINE
  5
3F4
100
AcDbEntity
  8
0
 62
     0
100
AcDbLine
 10
110.625
 20
567.24664
 30
0.0
 11
111.25
 21
567.24664
 31
0.0
  0
LINE
  5
3F5
100
AcDbEntity
  8
0
 62
     0
100
AcDbLine
 10
112.5
 20
567.24664
 30
0.0
 11
113.125
 21
567.24664
 31
0.0
  0
LINE
  5
3F6
100
AcDbEntity
  8
0
 62
     0
100
AcDbLine
 10
114.375
 20
567.24664
 30
0.0
 11
115.0
 21
567.24664
 31
0.0
  0
LINE
  5
3F7
100
AcDbEntity
  8
0
 62
     0
100
AcDbLine
 10
110.625
 20
568.329171
 30
0.0
 11
111.25
 21
568.329171
 31
0.0
  0
LINE
  5
3F8
100
AcDbEntity
  8
0
 62
     0
100
AcDbLine
 10
112.5
 20
568.329171
 30
0.0
 11
113.125
 21
568.329171
 31
0.0
  0
LINE
  5
3F9
100
AcDbEntity
  8
0
 62
     0
100
AcDbLine
 10
114.375
 20
568.329171
 30
0.0
 11
115.0
 21
568.329171
 31
0.0
  0
LINE
  5
3FA
100
AcDbEntity
  8
0
 62
     0
100
AcDbLine
 10
110.625
 20
569.411703
 30
0.0
 11
111.25
 21
569.411703
 31
0.0
  0
LINE
  5
3FB
100
AcDbEntity
  8
0
 62
     0
100
AcDbLine
 10
112.5
 20
569.411703
 30
0.0
 11
113.125
 21
569.411703
 31
0.0
  0
LINE
  5
3FC
100
AcDbEntity
  8
0
 62
     0
100
AcDbLine
 10
114.375
 20
569.411703
 30
0.0
 11
115.0
 21
569.411703
 31
0.0
  0
LINE
  5
3FD
100
AcDbEntity
  8
0
 62
     0
100
AcDbLine
 10
110.625
 20
570.494235
 30
0.0
 11
111.25
 21
570.494235
 31
0.0
  0
LINE
  5
3FE
100
AcDbEntity
  8
0
 62
     0
100
AcDbLine
 10
112.5
 20
570.494235
 30
0.0
 11
113.125
 21
570.494235
 31
0.0
  0
LINE
  5
3FF
100
AcDbEntity
  8
0
 62
     0
100
AcDbLine
 10
114.375
 20
570.494235
 30
0.0
 11
115.0
 21
570.494235
 31
0.0
  0
LINE
  5
400
100
AcDbEntity
  8
0
 62
     0
100
AcDbLine
 10
110.625
 20
563.999044
 30
0.0
 11
111.25
 21
563.999044
 31
0.0
  0
LINE
  5
401
100
AcDbEntity
  8
0
 62
     0
100
AcDbLine
 10
112.5
 20
563.999044
 30
0.0
 11
113.125
 21
563.999044
 31
0.0
  0
LINE
  5
402
100
AcDbEntity
  8
0
 62
     0
100
AcDbLine
 10
114.375
 20
563.999044
 30
0.0
 11
115.0
 21
563.999044
 31
0.0
  0
LINE
  5
403
100
AcDbEntity
  8
0
 62
     0
100
AcDbLine
 10
110.625
 20
562.916513
 30
0.0
 11
111.25
 21
562.916513
 31
0.0
  0
LINE
  5
404
100
AcDbEntity
  8
0
 62
     0
100
AcDbLine
 10
112.5
 20
562.916513
 30
0.0
 11
113.125
 21
562.916513
 31
0.0
  0
LINE
  5
405
100
AcDbEntity
  8
0
 62
     0
100
AcDbLine
 10
114.375
 20
562.916513
 30
0.0
 11
115.0
 21
562.916513
 31
0.0
  0
LINE
  5
406
100
AcDbEntity
  8
0
 62
     0
100
AcDbLine
 10
110.625
 20
561.833981
 30
0.0
 11
111.25
 21
561.833981
 31
0.0
  0
LINE
  5
407
100
AcDbEntity
  8
0
 62
     0
100
AcDbLine
 10
112.5
 20
561.833981
 30
0.0
 11
113.125
 21
561.833981
 31
0.0
  0
LINE
  5
408
100
AcDbEntity
  8
0
 62
     0
100
AcDbLine
 10
114.375
 20
561.833981
 30
0.0
 11
115.0
 21
561.833981
 31
0.0
  0
LINE
  5
409
100
AcDbEntity
  8
0
 62
     0
100
AcDbLine
 10
114.375
 20
561.833981
 30
0.0
 11
114.0625
 21
562.375247
 31
0.0
  0
LINE
  5
40A
100
AcDbEntity
  8
0
 62
     0
100
AcDbLine
 10
113.4375
 20
563.457778
 30
0.0
 11
113.125
 21
563.999044
 31
0.0
  0
LINE
  5
40B
100
AcDbEntity
  8
0
 62
     0
100
AcDbLine
 10
112.5
 20
565.081576
 30
0.0
 11
112.1875
 21
565.622842
 31
0.0
  0
LINE
  5
40C
100
AcDbEntity
  8
0
 62
     0
100
AcDbLine
 10
111.5625
 20
566.705374
 30
0.0
 11
111.25
 21
567.24664
 31
0.0
  0
LINE
  5
40D
100
AcDbEntity
  8
0
 62
     0
100
AcDbLine
 10
110.625
 20
568.329171
 30
0.0
 11
110.3125
 21
568.870437
 31
0.0
  0
LINE
  5
40E
100
AcDbEntity
  8
0
 62
     0
100
AcDbLine
 10
113.4375
 20
561.292715
 30
0.0
 11
113.125
 21
561.833981
 31
0.0
  0
LINE
  5
40F
100
AcDbEntity
  8
0
 62
     0
100
AcDbLine
 10
112.5
 20
562.916513
 30
0.0
 11
112.1875
 21
563.457778
 31
0.0
  0
LINE
  5
410
100
AcDbEntity
  8
0
 62
     0
100
AcDbLine
 10
111.5625
 20
564.54031
 30
0.0
 11
111.25
 21
565.081576
 31
0.0
  0
LINE
  5
411
100
AcDbEntity
  8
0
 62
     0
100
AcDbLine
 10
110.625
 20
566.164108
 30
0.0
 11
110.3125
 21
566.705374
 31
0.0
  0
LINE
  5
412
100
AcDbEntity
  8
0
 62
     0
100
AcDbLine
 10
112.357076
 20
560.999
 30
0.0
 11
112.1875
 21
561.292715
 31
0.0
  0
LINE
  5
413
100
AcDbEntity
  8
0
 62
     0
100
AcDbLine
 10
111.5625
 20
562.375247
 30
0.0
 11
111.25
 21
562.916513
 31
0.0
  0
LINE
  5
414
100
AcDbEntity
  8
0
 62
     0
100
AcDbLine
 10
110.625
 20
563.999044
 30
0.0
 11
110.3125
 21
564.54031
 31
0.0
  0
LINE
  5
415
100
AcDbEntity
  8
0
 62
     0
100
AcDbLine
 10
110.625
 20
561.833981
 30
0.0
 11
110.3125
 21
562.375247
 31
0.0
  0
LINE
  5
416
100
AcDbEntity
  8
0
 62
     0
100
AcDbLine
 10
114.375
 20
563.999044
 30
0.0
 11
114.0625
 21
564.54031
 31
0.0
  0
LINE
  5
417
100
AcDbEntity
  8
0
 62
     0
100
AcDbLine
 10
113.4375
 20
565.622842
 30
0.0
 11
113.125
 21
566.164108
 31
0.0
  0
LINE
  5
418
100
AcDbEntity
  8
0
 62
     0
100
AcDbLine
 10
112.5
 20
567.24664
 30
0.0
 11
112.1875
 21
567.787905
 31
0.0
  0
LINE
  5
419
100
AcDbEntity
  8
0
 62
     0
100
AcDbLine
 10
111.5625
 20
568.870437
 30
0.0
 11
111.25
 21
569.411703
 31
0.0
  0
LINE
  5
41A
100
AcDbEntity
  8
0
 62
     0
100
AcDbLine
 10
110.625
 20
570.494235
 30
0.0
 11
110.333574
 21
570.999
 31
0.0
  0
LINE
  5
41B
100
AcDbEntity
  8
0
 62
     0
100
AcDbLine
 10
114.375
 20
566.164108
 30
0.0
 11
114.0625
 21
566.705374
 31
0.0
  0
LINE
  5
41C
100
AcDbEntity
  8
0
 62
     0
100
AcDbLine
 10
113.4375
 20
567.787905
 30
0.0
 11
113.125
 21
568.329171
 31
0.0
  0
LINE
  5
41D
100
AcDbEntity
  8
0
 62
     0
100
AcDbLine
 10
112.5
 20
569.411703
 30
0.0
 11
112.1875
 21
569.952969
 31
0.0
  0
LINE
  5
41E
100
AcDbEntity
  8
0
 62
     0
100
AcDbLine
 10
114.375
 20
568.329171
 30
0.0
 11
114.0625
 21
568.870437
 31
0.0
  0
LINE
  5
41F
100
AcDbEntity
  8
0
 62
     0
100
AcDbLine
 10
113.4375
 20
569.952969
 30
0.0
 11
113.125
 21
570.494235
 31
0.0
  0
LINE
  5
420
100
AcDbEntity
  8
0
 62
     0
100
AcDbLine
 10
114.375
 20
570.494235
 30
0.0
 11
114.083574
 21
570.999
 31
0.0
  0
LINE
  5
421
100
AcDbEntity
  8
0
 62
     0
100
AcDbLine
 10
111.25
 20
561.833981
 30
0.0
 11
111.5625
 21
562.375247
 31
0.0
  0
LINE
  5
422
100
AcDbEntity
  8
0
 62
     0
100
AcDbLine
 10
112.1875
 20
563.457778
 30
0.0
 11
112.5
 21
563.999044
 31
0.0
  0
LINE
  5
423
100
AcDbEntity
  8
0
 62
     0
100
AcDbLine
 10
113.125
 20
565.081576
 30
0.0
 11
113.4375
 21
565.622842
 31
0.0
  0
LINE
  5
424
100
AcDbEntity
  8
0
 62
     0
100
AcDbLine
 10
114.0625
 20
566.705374
 30
0.0
 11
114.375
 21
567.24664
 31
0.0
  0
LINE
  5
425
100
AcDbEntity
  8
0
 62
     0
100
AcDbLine
 10
115.0
 20
568.329171
 30
0.0
 11
115.0
 21
568.329171
 31
0.0
  0
LINE
  5
426
100
AcDbEntity
  8
0
 62
     0
100
AcDbLine
 10
110.3125
 20
562.375247
 30
0.0
 11
110.625
 21
562.916512
 31
0.0
  0
LINE
  5
427
100
AcDbEntity
  8
0
 62
     0
100
AcDbLine
 10
111.25
 20
563.999044
 30
0.0
 11
111.5625
 21
564.54031
 31
0.0
  0
LINE
  5
428
100
AcDbEntity
  8
0
 62
     0
100
AcDbLine
 10
112.1875
 20
565.622842
 30
0.0
 11
112.5
 21
566.164108
 31
0.0
  0
LINE
  5
429
100
AcDbEntity
  8
0
 62
     0
100
AcDbLine
 10
113.125
 20
567.24664
 30
0.0
 11
113.4375
 21
567.787905
 31
0.0
  0
LINE
  5
42A
100
AcDbEntity
  8
0
 62
     0
100
AcDbLine
 10
114.0625
 20
568.870437
 30
0.0
 11
114.375
 21
569.411703
 31
0.0
  0
LINE
  5
42B
100
AcDbEntity
  8
0
 62
     0
100
AcDbLine
 10
115.0
 20
570.494235
 30
0.0
 11
115.0
 21
570.494235
 31
0.0
  0
LINE
  5
42C
100
AcDbEntity
  8
0
 62
     0
100
AcDbLine
 10
110.3125
 20
564.54031
 30
0.0
 11
110.625
 21
565.081576
 31
0.0
  0
LINE
  5
42D
100
AcDbEntity
  8
0
 62
     0
100
AcDbLine
 10
111.25
 20
566.164108
 30
0.0
 11
111.5625
 21
566.705374
 31
0.0
  0
LINE
  5
42E
100
AcDbEntity
  8
0
 62
     0
100
AcDbLine
 10
112.1875
 20
567.787905
 30
0.0
 11
112.5
 21
568.329171
 31
0.0
  0
LINE
  5
42F
100
AcDbEntity
  8
0
 62
     0
100
AcDbLine
 10
113.125
 20
569.411703
 30
0.0
 11
113.4375
 21
569.952969
 31
0.0
  0
LINE
  5
430
100
AcDbEntity
  8
0
 62
     0
100
AcDbLine
 10
110.3125
 20
566.705374
 30
0.0
 11
110.625
 21
567.24664
 31
0.0
  0
LINE
  5
431
100
AcDbEntity
  8
0
 62
     0
100
AcDbLine
 10
111.25
 20
568.329171
 30
0.0
 11
111.5625
 21
568.870437
 31
0.0
  0
LINE
  5
432
100
AcDbEntity
  8
0
 62
     0
100
AcDbLine
 10
112.1875
 20
569.952969
 30
0.0
 11
112.5
 21
570.494235
 31
0.0
  0
LINE
  5
433
100
AcDbEntity
  8
0
 62
     0
100
AcDbLine
 10
110.3125
 20
568.870437
 30
0.0
 11
110.625
 21
569.411703
 31
0.0
  0
LINE
  5
434
100
AcDbEntity
  8
0
 62
     0
100
AcDbLine
 10
111.25
 20
570.494235
 30
0.0
 11
111.541426
 21
570.999
 31
0.0
  0
LINE
  5
435
100
AcDbEntity
  8
0
 62
     0
100
AcDbLine
 10
112.1875
 20
561.292715
 30
0.0
 11
112.5
 21
561.833981
 31
0.0
  0
LINE
  5
436
100
AcDbEntity
  8
0
 62
     0
100
AcDbLine
 10
113.125
 20
562.916512
 30
0.0
 11
113.4375
 21
563.457778
 31
0.0
  0
LINE
  5
437
100
AcDbEntity
  8
0
 62
     0
100
AcDbLine
 10
114.0625
 20
564.54031
 30
0.0
 11
114.375
 21
565.081576
 31
0.0
  0
LINE
  5
438
100
AcDbEntity
  8
0
 62
     0
100
AcDbLine
 10
115.0
 20
566.164108
 30
0.0
 11
115.0
 21
566.164108
 31
0.0
  0
LINE
  5
439
100
AcDbEntity
  8
0
 62
     0
100
AcDbLine
 10
113.267924
 20
560.999
 30
0.0
 11
113.4375
 21
561.292715
 31
0.0
  0
LINE
  5
43A
100
AcDbEntity
  8
0
 62
     0
100
AcDbLine
 10
114.0625
 20
562.375247
 30
0.0
 11
114.375
 21
562.916512
 31
0.0
  0
LINE
  5
43B
100
AcDbEntity
  8
0
 62
     0
100
AcDbLine
 10
115.0
 20
563.999044
 30
0.0
 11
115.0
 21
563.999044
 31
0.0
  0
LINE
  5
43C
100
AcDbEntity
  8
0
 62
     0
100
AcDbLine
 10
115.0
 20
561.833981
 30
0.0
 11
115.0
 21
561.833981
 31
0.0
  0
ENDBLK
  5
43E
100
AcDbEntity
  8
0
100
AcDbBlockEnd
  0
BLOCK
  5
3DE
100
AcDbEntity
  8
0
100
AcDbBlockBegin
  2
*X4
 70
     1
 10
0.0
 20
0.0
 30
0.0
  3
*X4
  1

  0
LINE
  5
38B
100
AcDbEntity
  8
0
 62
     0
100
AcDbLine
 10
9.375
 20
565.081576
 30
0.0
 11
10.0
 21
565.081576
 31
0.0
  0
LINE
  5
38C
100
AcDbEntity
  8
0
 62
     0
100
AcDbLine
 10
11.25
 20
565.081576
 30
0.0
 11
11.875
 21
565.081576
 31
0.0
  0
LINE
  5
38D
100
AcDbEntity
  8
0
 62
     0
100
AcDbLine
 10
13.125
 20
565.081576
 30
0.0
 11
13.75
 21
565.081576
 31
0.0
  0
LINE
  5
38E
100
AcDbEntity
  8
0
 62
     0
100
AcDbLine
 10
9.375
 20
566.164108
 30
0.0
 11
10.0
 21
566.164108
 31
0.0
  0
LINE
  5
38F
100
AcDbEntity
  8
0
 62
     0
100
AcDbLine
 10
11.25
 20
566.164108
 30
0.0
 11
11.875
 21
566.164108
 31
0.0
  0
LINE
  5
390
100
AcDbEntity
  8
0
 62
     0
100
AcDbLine
 10
13.125
 20
566.164108
 30
0.0
 11
13.75
 21
566.164108
 31
0.0
  0
LINE
  5
391
100
AcDbEntity
  8
0
 62
     0
100
AcDbLine
 10
9.375
 20
567.24664
 30
0.0
 11
10.0
 21
567.24664
 31
0.0
  0
LINE
  5
392
100
AcDbEntity
  8
0
 62
     0
100
AcDbLine
 10
11.25
 20
567.24664
 30
0.0
 11
11.875
 21
567.24664
 31
0.0
  0
LINE
  5
393
100
AcDbEntity
  8
0
 62
     0
100
AcDbLine
 10
13.125
 20
567.24664
 30
0.0
 11
13.75
 21
567.24664
 31
0.0
  0
LINE
  5
394
100
AcDbEntity
  8
0
 62
     0
100
AcDbLine
 10
9.375
 20
568.329171
 30
0.0
 11
10.0
 21
568.329171
 31
0.0
  0
LINE
  5
395
100
AcDbEntity
  8
0
 62
     0
100
AcDbLine
 10
11.25
 20
568.329171
 30
0.0
 11
11.875
 21
568.329171
 31
0.0
  0
LINE
  5
396
100
AcDbEntity
  8
0
 62
     0
100
AcDbLine
 10
13.125
 20
568.329171
 30
0.0
 11
13.75
 21
568.329171
 31
0.0
  0
LINE
  5
397
100
AcDbEntity
  8
0
 62
     0
100
AcDbLine
 10
9.375
 20
569.411703
 30
0.0
 11
10.0
 21
569.411703
 31
0.0
  0
LINE
  5
398
100
AcDbEntity
  8
0
 62
     0
100
AcDbLine
 10
11.25
 20
569.411703
 30
0.0
 11
11.875
 21
569.411703
 31
0.0
  0
LINE
  5
399
100
AcDbEntity
  8
0
 62
     0
100
AcDbLine
 10
13.125
 20
569.411703
 30
0.0
 11
13.75
 21
569.411703
 31
0.0
  0
LINE
  5
39A
100
AcDbEntity
  8
0
 62
     0
100
AcDbLine
 10
9.375
 20
570.494235
 30
0.0
 11
10.0
 21
570.494235
 31
0.0
  0
LINE
  5
39B
100
AcDbEntity
  8
0
 62
     0
100
AcDbLine
 10
11.25
 20
570.494235
 30
0.0
 11
11.875
 21
570.494235
 31
0.0
  0
LINE
  5
39C
100
AcDbEntity
  8
0
 62
     0
100
AcDbLine
 10
13.125
 20
570.494235
 30
0.0
 11
13.75
 21
570.494235
 31
0.0
  0
LINE
  5
39D
100
AcDbEntity
  8
0
 62
     0
100
AcDbLine
 10
9.375
 20
563.999044
 30
0.0
 11
10.0
 21
563.999044
 31
0.0
  0
LINE
  5
39E
100
AcDbEntity
  8
0
 62
     0
100
AcDbLine
 10
11.25
 20
563.999044
 30
0.0
 11
11.875
 21
563.999044
 31
0.0
  0
LINE
  5
39F
100
AcDbEntity
  8
0
 62
     0
100
AcDbLine
 10
13.125
 20
563.999044
 30
0.0
 11
13.75
 21
563.999044
 31
0.0
  0
LINE
  5
3A0
100
AcDbEntity
  8
0
 62
     0
100
AcDbLine
 10
9.375
 20
562.916513
 30
0.0
 11
10.0
 21
562.916513
 31
0.0
  0
LINE
  5
3A1
100
AcDbEntity
  8
0
 62
     0
100
AcDbLine
 10
11.25
 20
562.916513
 30
0.0
 11
11.875
 21
562.916513
 31
0.0
  0
LINE
  5
3A2
100
AcDbEntity
  8
0
 62
     0
100
AcDbLine
 10
13.125
 20
562.916513
 30
0.0
 11
13.75
 21
562.916513
 31
0.0
  0
LINE
  5
3A3
100
AcDbEntity
  8
0
 62
     0
100
AcDbLine
 10
9.375
 20
561.833981
 30
0.0
 11
10.0
 21
561.833981
 31
0.0
  0
LINE
  5
3A4
100
AcDbEntity
  8
0
 62
     0
100
AcDbLine
 10
11.25
 20
561.833981
 30
0.0
 11
11.875
 21
561.833981
 31
0.0
  0
LINE
  5
3A5
100
AcDbEntity
  8
0
 62
     0
100
AcDbLine
 10
13.125
 20
561.833981
 30
0.0
 11
13.75
 21
561.833981
 31
0.0
  0
LINE
  5
3A6
100
AcDbEntity
  8
0
 62
     0
100
AcDbLine
 10
13.125
 20
561.833981
 30
0.0
 11
12.8125
 21
562.375247
 31
0.0
  0
LINE
  5
3A7
100
AcDbEntity
  8
0
 62
     0
100
AcDbLine
 10
12.1875
 20
563.457778
 30
0.0
 11
11.875
 21
563.999044
 31
0.0
  0
LINE
  5
3A8
100
AcDbEntity
  8
0
 62
     0
100
AcDbLine
 10
11.25
 20
565.081576
 30
0.0
 11
10.9375
 21
565.622842
 31
0.0
  0
LINE
  5
3A9
100
AcDbEntity
  8
0
 62
     0
100
AcDbLine
 10
10.3125
 20
566.705374
 30
0.0
 11
10.0
 21
567.24664
 31
0.0
  0
LINE
  5
3AA
100
AcDbEntity
  8
0
 62
     0
100
AcDbLine
 10
9.375
 20
568.329171
 30
0.0
 11
9.0625
 21
568.870437
 31
0.0
  0
LINE
  5
3AB
100
AcDbEntity
  8
0
 62
     0
100
AcDbLine
 10
12.1875
 20
561.292715
 30
0.0
 11
11.875
 21
561.833981
 31
0.0
  0
LINE
  5
3AC
100
AcDbEntity
  8
0
 62
     0
100
AcDbLine
 10
11.25
 20
562.916512
 30
0.0
 11
10.9375
 21
563.457778
 31
0.0
  0
LINE
  5
3AD
100
AcDbEntity
  8
0
 62
     0
100
AcDbLine
 10
10.3125
 20
564.54031
 30
0.0
 11
10.0
 21
565.081576
 31
0.0
  0
LINE
  5
3AE
100
AcDbEntity
  8
0
 62
     0
100
AcDbLine
 10
9.375
 20
566.164108
 30
0.0
 11
9.0625
 21
566.705374
 31
0.0
  0
LINE
  5
3AF
100
AcDbEntity
  8
0
 62
     0
100
AcDbLine
 10
11.107076
 20
560.999
 30
0.0
 11
10.9375
 21
561.292715
 31
0.0
  0
LINE
  5
3B0
100
AcDbEntity
  8
0
 62
     0
100
AcDbLine
 10
10.3125
 20
562.375247
 30
0.0
 11
10.0
 21
562.916512
 31
0.0
  0
LINE
  5
3B1
100
AcDbEntity
  8
0
 62
     0
100
AcDbLine
 10
9.375
 20
563.999044
 30
0.0
 11
9.0625
 21
564.54031
 31
0.0
  0
LINE
  5
3B2
100
AcDbEntity
  8
0
 62
     0
100
AcDbLine
 10
9.375
 20
561.833981
 30
0.0
 11
9.0625
 21
562.375247
 31
0.0
  0
LINE
  5
3B3
100
AcDbEntity
  8
0
 62
     0
100
AcDbLine
 10
14.0
 20
562.4835
 30
0.0
 11
13.75
 21
562.916512
 31
0.0
  0
LINE
  5
3B4
100
AcDbEntity
  8
0
 62
     0
100
AcDbLine
 10
13.125
 20
563.999044
 30
0.0
 11
12.8125
 21
564.54031
 31
0.0
  0
LINE
  5
3B5
100
AcDbEntity
  8
0
 62
     0
100
AcDbLine
 10
12.1875
 20
565.622842
 30
0.0
 11
11.875
 21
566.164108
 31
0.0
  0
LINE
  5
3B6
100
AcDbEntity
  8
0
 62
     0
100
AcDbLine
 10
11.25
 20
567.24664
 30
0.0
 11
10.9375
 21
567.787905
 31
0.0
  0
LINE
  5
3B7
100
AcDbEntity
  8
0
 62
     0
100
AcDbLine
 10
10.3125
 20
568.870437
 30
0.0
 11
10.0
 21
569.411703
 31
0.0
  0
LINE
  5
3B8
100
AcDbEntity
  8
0
 62
     0
100
AcDbLine
 10
9.375
 20
570.494235
 30
0.0
 11
9.083574
 21
570.999
 31
0.0
  0
LINE
  5
3B9
100
AcDbEntity
  8
0
 62
     0
100
AcDbLine
 10
14.0
 20
564.648563
 30
0.0
 11
13.75
 21
565.081576
 31
0.0
  0
LINE
  5
3BA
100
AcDbEntity
  8
0
 62
     0
100
AcDbLine
 10
13.125
 20
566.164108
 30
0.0
 11
12.8125
 21
566.705374
 31
0.0
  0
LINE
  5
3BB
100
AcDbEntity
  8
0
 62
     0
100
AcDbLine
 10
12.1875
 20
567.787905
 30
0.0
 11
11.875
 21
568.329171
 31
0.0
  0
LINE
  5
3BC
100
AcDbEntity
  8
0
 62
     0
100
AcDbLine
 10
11.25
 20
569.411703
 30
0.0
 11
10.9375
 21
569.952969
 31
0.0
  0
LINE
  5
3BD
100
AcDbEntity
  8
0
 62
     0
100
AcDbLine
 10
14.0
 20
566.813627
 30
0.0
 11
13.75
 21
567.24664
 31
0.0
  0
LINE
  5
3BE
100
AcDbEntity
  8
0
 62
     0
100
AcDbLine
 10
13.125
 20
568.329171
 30
0.0
 11
12.8125
 21
568.870437
 31
0.0
  0
LINE
  5
3BF
100
AcDbEntity
  8
0
 62
     0
100
AcDbLine
 10
12.1875
 20
569.952969
 30
0.0
 11
11.875
 21
570.494235
 31
0.0
  0
LINE
  5
3C0
100
AcDbEntity
  8
0
 62
     0
100
AcDbLine
 10
14.0
 20
568.97869
 30
0.0
 11
13.75
 21
569.411703
 31
0.0
  0
LINE
  5
3C1
100
AcDbEntity
  8
0
 62
     0
100
AcDbLine
 10
13.125
 20
570.494235
 30
0.0
 11
12.833574
 21
570.999
 31
0.0
  0
LINE
  5
3C2
100
AcDbEntity
  8
0
 62
     0
100
AcDbLine
 10
10.0
 20
561.833981
 30
0.0
 11
10.3125
 21
562.375247
 31
0.0
  0
LINE
  5
3C3
100
AcDbEntity
  8
0
 62
     0
100
AcDbLine
 10
10.9375
 20
563.457778
 30
0.0
 11
11.25
 21
563.999044
 31
0.0
  0
LINE
  5
3C4
100
AcDbEntity
  8
0
 62
     0
100
AcDbLine
 10
11.875
 20
565.081576
 30
0.0
 11
12.1875
 21
565.622842
 31
0.0
  0
LINE
  5
3C5
100
AcDbEntity
  8
0
 62
     0
100
AcDbLine
 10
12.8125
 20
566.705374
 30
0.0
 11
13.125
 21
567.24664
 31
0.0
  0
LINE
  5
3C6
100
AcDbEntity
  8
0
 62
     0
100
AcDbLine
 10
13.75
 20
568.329171
 30
0.0
 11
14.0
 21
568.762184
 31
0.0
  0
LINE
  5
3C7
100
AcDbEntity
  8
0
 62
     0
100
AcDbLine
 10
9.0625
 20
562.375247
 30
0.0
 11
9.375
 21
562.916512
 31
0.0
  0
LINE
  5
3C8
100
AcDbEntity
  8
0
 62
     0
100
AcDbLine
 10
10.0
 20
563.999044
 30
0.0
 11
10.3125
 21
564.54031
 31
0.0
  0
LINE
  5
3C9
100
AcDbEntity
  8
0
 62
     0
100
AcDbLine
 10
10.9375
 20
565.622842
 30
0.0
 11
11.25
 21
566.164108
 31
0.0
  0
LINE
  5
3CA
100
AcDbEntity
  8
0
 62
     0
100
AcDbLine
 10
11.875
 20
567.24664
 30
0.0
 11
12.1875
 21
567.787905
 31
0.0
  0
LINE
  5
3CB
100
AcDbEntity
  8
0
 62
     0
100
AcDbLine
 10
12.8125
 20
568.870437
 30
0.0
 11
13.125
 21
569.411703
 31
0.0
  0
LINE
  5
3CC
100
AcDbEntity
  8
0
 62
     0
100
AcDbLine
 10
13.75
 20
570.494235
 30
0.0
 11
14.0
 21
570.927248
 31
0.0
  0
LINE
  5
3CD
100
AcDbEntity
  8
0
 62
     0
100
AcDbLine
 10
9.0625
 20
564.54031
 30
0.0
 11
9.375
 21
565.081576
 31
0.0
  0
LINE
  5
3CE
100
AcDbEntity
  8
0
 62
     0
100
AcDbLine
 10
10.0
 20
566.164108
 30
0.0
 11
10.3125
 21
566.705374
 31
0.0
  0
LINE
  5
3CF
100
AcDbEntity
  8
0
 62
     0
100
AcDbLine
 10
10.9375
 20
567.787905
 30
0.0
 11
11.25
 21
568.329171
 31
0.0
  0
LINE
  5
3D0
100
AcDbEntity
  8
0
 62
     0
100
AcDbLine
 10
11.875
 20
569.411703
 30
0.0
 11
12.1875
 21
569.952969
 31
0.0
  0
LINE
  5
3D1
100
AcDbEntity
  8
0
 62
     0
100
AcDbLine
 10
9.0625
 20
566.705374
 30
0.0
 11
9.375
 21
567.24664
 31
0.0
  0
LINE
  5
3D2
100
AcDbEntity
  8
0
 62
     0
100
AcDbLine
 10
10.0
 20
568.329171
 30
0.0
 11
10.3125
 21
568.870437
 31
0.0
  0
LINE
  5
3D3
100
AcDbEntity
  8
0
 62
     0
100
AcDbLine
 10
10.9375
 20
569.952969
 30
0.0
 11
11.25
 21
570.494235
 31
0.0
  0
LINE
  5
3D4
100
AcDbEntity
  8
0
 62
     0
100
AcDbLine
 10
9.0625
 20
568.870437
 30
0.0
 11
9.375
 21
569.411703
 31
0.0
  0
LINE
  5
3D5
100
AcDbEntity
  8
0
 62
     0
100
AcDbLine
 10
10.0
 20
570.494235
 30
0.0
 11
10.291426
 21
570.999
 31
0.0
  0
LINE
  5
3D6
100
AcDbEntity
  8
0
 62
     0
100
AcDbLine
 10
10.9375
 20
561.292715
 30
0.0
 11
11.25
 21
561.833981
 31
0.0
  0
LINE
  5
3D7
100
AcDbEntity
  8
0
 62
     0
100
AcDbLine
 10
11.875
 20
562.916512
 30
0.0
 11
12.1875
 21
563.457778
 31
0.0
  0
LINE
  5
3D8
100
AcDbEntity
  8
0
 62
     0
100
AcDbLine
 10
12.8125
 20
564.54031
 30
0.0
 11
13.125
 21
565.081576
 31
0.0
  0
LINE
  5
3D9
100
AcDbEntity
  8
0
 62
     0
100
AcDbLine
 10
13.75
 20
566.164108
 30
0.0
 11
14.0
 21
566.597121
 31
0.0
  0
LINE
  5
3DA
100
AcDbEntity
  8
0
 62
     0
100
AcDbLine
 10
12.017924
 20
560.999
 30
0.0
 11
12.1875
 21
561.292715
 31
0.0
  0
LINE
  5
3DB
100
AcDbEntity
  8
0
 62
     0
100
AcDbLine
 10
12.8125
 20
562.375247
 30
0.0
 11
13.125
 21
562.916512
 31
0.0
  0
LINE
  5
3DC
100
AcDbEntity
  8
0
 62
     0
100
AcDbLine
 10
13.75
 20
563.999044
 30
0.0
 11
14.0
 21
564.432057
 31
0.0
  0
LINE
  5
3DD
100
AcDbEntity
  8
0
 62
     0
100
AcDbLine
 10
13.75
 20
561.833981
 30
0.0
 11
14.0
 21
562.266994
 31
0.0
  0
ENDBLK
  5
3DF
100
AcDbEntity
  8
0
100
AcDbBlockEnd
  0
BLOCK
  5
125
100
AcDbEntity
  8
0
100
AcDbBlockBegin
  2
*X5
 70
     1
 10
0.0
 20
0.0
 30
0.0
  3
*X5
  1

  0
LINE
  5
D0
100
AcDbEntity
  8
0
 62
     0
100
AcDbLine
 10
1299.375
 20
1016.497318
 30
0.0
 11
1300.0
 21
1016.497318
 31
0.0
  0
LINE
  5
D1
100
AcDbEntity
  8
0
 62
     0
100
AcDbLine
 10
1301.25
 20
1016.497318
 30
0.0
 11
1301.875
 21
1016.497318
 31
0.0
  0
LINE
  5
D2
100
AcDbEntity
  8
0
 62
     0
100
AcDbLine
 10
1303.125
 20
1016.497318
 30
0.0
 11
1303.75
 21
1016.497318
 31
0.0
  0
LINE
  5
D3
100
AcDbEntity
  8
0
 62
     0
100
AcDbLine
 10
1305.0
 20
1016.497318
 30
0.0
 11
1305.625
 21
1016.497318
 31
0.0
  0
LINE
  5
D4
100
AcDbEntity
  8
0
 62
     0
100
AcDbLine
 10
1306.875
 20
1016.497318
 30
0.0
 11
1307.5
 21
1016.497318
 31
0.0
  0
LINE
  5
D5
100
AcDbEntity
  8
0
 62
     0
100
AcDbLine
 10
1308.75
 20
1016.497318
 30
0.0
 11
1309.001002
 21
1016.497318
 31
0.0
  0
LINE
  5
D6
100
AcDbEntity
  8
0
 62
     0
100
AcDbLine
 10
1299.375
 20
1017.57985
 30
0.0
 11
1300.0
 21
1017.57985
 31
0.0
  0
LINE
  5
D7
100
AcDbEntity
  8
0
 62
     0
100
AcDbLine
 10
1301.25
 20
1017.57985
 30
0.0
 11
1301.875
 21
1017.57985
 31
0.0
  0
LINE
  5
D8
100
AcDbEntity
  8
0
 62
     0
100
AcDbLine
 10
1303.125
 20
1017.57985
 30
0.0
 11
1303.75
 21
1017.57985
 31
0.0
  0
LINE
  5
D9
100
AcDbEntity
  8
0
 62
     0
100
AcDbLine
 10
1305.0
 20
1017.57985
 30
0.0
 11
1305.625
 21
1017.57985
 31
0.0
  0
LINE
  5
DA
100
AcDbEntity
  8
0
 62
     0
100
AcDbLine
 10
1306.875
 20
1017.57985
 30
0.0
 11
1307.5
 21
1017.57985
 31
0.0
  0
LINE
  5
DB
100
AcDbEntity
  8
0
 62
     0
100
AcDbLine
 10
1308.75
 20
1017.57985
 30
0.0
 11
1309.001002
 21
1017.57985
 31
0.0
  0
LINE
  5
DC
100
AcDbEntity
  8
0
 62
     0
100
AcDbLine
 10
1299.375
 20
1018.662381
 30
0.0
 11
1300.0
 21
1018.662381
 31
0.0
  0
LINE
  5
DD
100
AcDbEntity
  8
0
 62
     0
100
AcDbLine
 10
1301.25
 20
1018.662381
 30
0.0
 11
1301.875
 21
1018.662381
 31
0.0
  0
LINE
  5
DE
100
AcDbEntity
  8
0
 62
     0
100
AcDbLine
 10
1303.125
 20
1018.662381
 30
0.0
 11
1303.75
 21
1018.662381
 31
0.0
  0
LINE
  5
DF
100
AcDbEntity
  8
0
 62
     0
100
AcDbLine
 10
1305.0
 20
1018.662381
 30
0.0
 11
1305.625
 21
1018.662381
 31
0.0
  0
LINE
  5
E0
100
AcDbEntity
  8
0
 62
     0
100
AcDbLine
 10
1306.875
 20
1018.662381
 30
0.0
 11
1307.5
 21
1018.662381
 31
0.0
  0
LINE
  5
E1
100
AcDbEntity
  8
0
 62
     0
100
AcDbLine
 10
1308.75
 20
1018.662381
 30
0.0
 11
1309.001002
 21
1018.662381
 31
0.0
  0
LINE
  5
E2
100
AcDbEntity
  8
0
 62
     0
100
AcDbLine
 10
1299.375
 20
1019.744913
 30
0.0
 11
1300.0
 21
1019.744913
 31
0.0
  0
LINE
  5
E3
100
AcDbEntity
  8
0
 62
     0
100
AcDbLine
 10
1301.25
 20
1019.744913
 30
0.0
 11
1301.875
 21
1019.744913
 31
0.0
  0
LINE
  5
E4
100
AcDbEntity
  8
0
 62
     0
100
AcDbLine
 10
1303.125
 20
1019.744913
 30
0.0
 11
1303.75
 21
1019.744913
 31
0.0
  0
LINE
  5
E5
100
AcDbEntity
  8
0
 62
     0
100
AcDbLine
 10
1305.0
 20
1019.744913
 30
0.0
 11
1305.625
 21
1019.744913
 31
0.0
  0
LINE
  5
E6
100
AcDbEntity
  8
0
 62
     0
100
AcDbLine
 10
1306.875
 20
1019.744913
 30
0.0
 11
1307.5
 21
1019.744913
 31
0.0
  0
LINE
  5
E7
100
AcDbEntity
  8
0
 62
     0
100
AcDbLine
 10
1308.75
 20
1019.744913
 30
0.0
 11
1309.001002
 21
1019.744913
 31
0.0
  0
LINE
  5
E8
100
AcDbEntity
  8
0
 62
     0
100
AcDbLine
 10
1299.375
 20
1015.414786
 30
0.0
 11
1300.0
 21
1015.414786
 31
0.0
  0
LINE
  5
E9
100
AcDbEntity
  8
0
 62
     0
100
AcDbLine
 10
1301.25
 20
1015.414786
 30
0.0
 11
1301.875
 21
1015.414786
 31
0.0
  0
LINE
  5
EA
100
AcDbEntity
  8
0
 62
     0
100
AcDbLine
 10
1303.125
 20
1015.414786
 30
0.0
 11
1303.75
 21
1015.414786
 31
0.0
  0
LINE
  5
EB
100
AcDbEntity
  8
0
 62
     0
100
AcDbLine
 10
1305.0
 20
1015.414786
 30
0.0
 11
1305.625
 21
1015.414786
 31
0.0
  0
LINE
  5
EC
100
AcDbEntity
  8
0
 62
     0
100
AcDbLine
 10
1306.875
 20
1015.414786
 30
0.0
 11
1307.5
 21
1015.414786
 31
0.0
  0
LINE
  5
ED
100
AcDbEntity
  8
0
 62
     0
100
AcDbLine
 10
1308.75
 20
1015.414786
 30
0.0
 11
1309.001002
 21
1015.414786
 31
0.0
  0
LINE
  5
EE
100
AcDbEntity
  8
0
 62
     0
100
AcDbLine
 10
1305.0
 20
1015.414786
 30
0.0
 11
1304.6875
 21
1015.956052
 31
0.0
  0
LINE
  5
EF
100
AcDbEntity
  8
0
 62
     0
100
AcDbLine
 10
1304.0625
 20
1017.038584
 30
0.0
 11
1303.75
 21
1017.57985
 31
0.0
  0
LINE
  5
F0
100
AcDbEntity
  8
0
 62
     0
100
AcDbLine
 10
1303.125
 20
1018.662381
 30
0.0
 11
1302.8125
 21
1019.203647
 31
0.0
  0
LINE
  5
F1
100
AcDbEntity
  8
0
 62
     0
100
AcDbLine
 10
1303.989477
 20
1015.0
 30
0.0
 11
1303.75
 21
1015.414786
 31
0.0
  0
LINE
  5
F2
100
AcDbEntity
  8
0
 62
     0
100
AcDbLine
 10
1303.125
 20
1016.497318
 30
0.0
 11
1302.8125
 21
1017.038584
 31
0.0
  0
LINE
  5
F3
100
AcDbEntity
  8
0
 62
     0
100
AcDbLine
 10
1302.1875
 20
1018.121116
 30
0.0
 11
1301.875
 21
1018.662381
 31
0.0
  0
LINE
  5
F4
100
AcDbEntity
  8
0
 62
     0
100
AcDbLine
 10
1301.25
 20
1019.744913
 30
0.0
 11
1301.102726
 21
1020.0
 31
0.0
  0
LINE
  5
F5
100
AcDbEntity
  8
0
 62
     0
100
AcDbLine
 10
1302.1875
 20
1015.956052
 30
0.0
 11
1301.875
 21
1016.497318
 31
0.0
  0
LINE
  5
F6
100
AcDbEntity
  8
0
 62
     0
100
AcDbLine
 10
1301.25
 20
1017.57985
 30
0.0
 11
1300.9375
 21
1018.121116
 31
0.0
  0
LINE
  5
F7
100
AcDbEntity
  8
0
 62
     0
100
AcDbLine
 10
1300.3125
 20
1019.203647
 30
0.0
 11
1300.0
 21
1019.744913
 31
0.0
  0
LINE
  5
F8
100
AcDbEntity
  8
0
 62
     0
100
AcDbLine
 10
1301.25
 20
1015.414786
 30
0.0
 11
1300.9375
 21
1015.956052
 31
0.0
  0
LINE
  5
F9
100
AcDbEntity
  8
0
 62
     0
100
AcDbLine
 10
1300.3125
 20
1017.038584
 30
0.0
 11
1300.0
 21
1017.57985
 31
0.0
  0
LINE
  5
FA
100
AcDbEntity
  8
0
 62
     0
100
AcDbLine
 10
1299.375
 20
1018.662381
 30
0.0
 11
1299.0625
 21
1019.203647
 31
0.0
  0
LINE
  5
FB
100
AcDbEntity
  8
0
 62
     0
100
AcDbLine
 10
1300.239477
 20
1015.0
 30
0.0
 11
1300.0
 21
1015.414786
 31
0.0
  0
LINE
  5
FC
100
AcDbEntity
  8
0
 62
     0
100
AcDbLine
 10
1299.375
 20
1016.497318
 30
0.0
 11
1299.0625
 21
1017.038584
 31
0.0
  0
LINE
  5
FD
100
AcDbEntity
  8
0
 62
     0
100
AcDbLine
 10
1305.9375
 20
1015.956052
 30
0.0
 11
1305.625
 21
1016.497318
 31
0.0
  0
LINE
  5
FE
100
AcDbEntity
  8
0
 62
     0
100
AcDbLine
 10
1305.0
 20
1017.57985
 30
0.0
 11
1304.6875
 21
1018.121116
 31
0.0
  0
LINE
  5
FF
100
AcDbEntity
  8
0
 62
     0
100
AcDbLine
 10
1304.0625
 20
1019.203647
 30
0.0
 11
1303.75
 21
1019.744913
 31
0.0
  0
LINE
  5
100
100
AcDbEntity
  8
0
 62
     0
100
AcDbLine
 10
1307.739477
 20
1015.0
 30
0.0
 11
1307.5
 21
1015.414786
 31
0.0
  0
LINE
  5
101
100
AcDbEntity
  8
0
 62
     0
100
AcDbLine
 10
1306.875
 20
1016.497318
 30
0.0
 11
1306.5625
 21
1017.038584
 31
0.0
  0
LINE
  5
102
100
AcDbEntity
  8
0
 62
     0
100
AcDbLine
 10
1305.9375
 20
1018.121116
 30
0.0
 11
1305.625
 21
1018.662381
 31
0.0
  0
LINE
  5
103
100
AcDbEntity
  8
0
 62
     0
100
AcDbLine
 10
1305.0
 20
1019.744913
 30
0.0
 11
1304.852726
 21
1020.0
 31
0.0
  0
LINE
  5
104
100
AcDbEntity
  8
0
 62
     0
100
AcDbLine
 10
1308.75
 20
1015.414786
 30
0.0
 11
1308.4375
 21
1015.956052
 31
0.0
  0
LINE
  5
105
100
AcDbEntity
  8
0
 62
     0
100
AcDbLine
 10
1307.8125
 20
1017.038584
 30
0.0
 11
1307.5
 21
1017.57985
 31
0.0
  0
LINE
  5
106
100
AcDbEntity
  8
0
 62
     0
100
AcDbLine
 10
1306.875
 20
1018.662381
 30
0.0
 11
1306.5625
 21
1019.203647
 31
0.0
  0
LINE
  5
107
100
AcDbEntity
  8
0
 62
     0
100
AcDbLine
 10
1308.75
 20
1017.57985
 30
0.0
 11
1308.4375
 21
1018.121116
 31
0.0
  0
LINE
  5
108
100
AcDbEntity
  8
0
 62
     0
100
AcDbLine
 10
1307.8125
 20
1019.203647
 30
0.0
 11
1307.5
 21
1019.744913
 31
0.0
  0
LINE
  5
109
100
AcDbEntity
  8
0
 62
     0
100
AcDbLine
 10
1308.75
 20
1019.744913
 30
0.0
 11
1308.602726
 21
1020.0
 31
0.0
  0
LINE
  5
10A
100
AcDbEntity
  8
0
 62
     0
100
AcDbLine
 10
1301.875
 20
1015.414786
 30
0.0
 11
1302.1875
 21
1015.956052
 31
0.0
  0
LINE
  5
10B
100
AcDbEntity
  8
0
 62
     0
100
AcDbLine
 10
1302.8125
 20
1017.038583
 30
0.0
 11
1303.125
 21
1017.579849
 31
0.0
  0
LINE
  5
10C
100
AcDbEntity
  8
0
 62
     0
100
AcDbLine
 10
1303.75
 20
1018.662381
 30
0.0
 11
1304.0625
 21
1019.203647
 31
0.0
  0
LINE
  5
10D
100
AcDbEntity
  8
0
 62
     0
100
AcDbLine
 10
1300.9375
 20
1015.956052
 30
0.0
 11
1301.25
 21
1016.497318
 31
0.0
  0
LINE
  5
10E
100
AcDbEntity
  8
0
 62
     0
100
AcDbLine
 10
1301.875
 20
1017.579849
 30
0.0
 11
1302.1875
 21
1018.121115
 31
0.0
  0
LINE
  5
10F
100
AcDbEntity
  8
0
 62
     0
100
AcDbLine
 10
1302.8125
 20
1019.203647
 30
0.0
 11
1303.125
 21
1019.744913
 31
0.0
  0
LINE
  5
110
100
AcDbEntity
  8
0
 62
     0
100
AcDbLine
 10
1299.135523
 20
1015.0
 30
0.0
 11
1299.375
 21
1015.414786
 31
0.0
  0
LINE
  5
111
100
AcDbEntity
  8
0
 62
     0
100
AcDbLine
 10
1300.0
 20
1016.497318
 30
0.0
 11
1300.3125
 21
1017.038583
 31
0.0
  0
LINE
  5
112
100
AcDbEntity
  8
0
 62
     0
100
AcDbLine
 10
1300.9375
 20
1018.121115
 30
0.0
 11
1301.25
 21
1018.662381
 31
0.0
  0
LINE
  5
113
100
AcDbEntity
  8
0
 62
     0
100
AcDbLine
 10
1301.875
 20
1019.744913
 30
0.0
 11
1302.022275
 21
1020.0
 31
0.0
  0
LINE
  5
114
100
AcDbEntity
  8
0
 62
     0
100
AcDbLine
 10
1299.0625
 20
1017.038583
 30
0.0
 11
1299.375
 21
1017.579849
 31
0.0
  0
LINE
  5
115
100
AcDbEntity
  8
0
 62
     0
100
AcDbLine
 10
1300.0
 20
1018.662381
 30
0.0
 11
1300.3125
 21
1019.203647
 31
0.0
  0
LINE
  5
116
100
AcDbEntity
  8
0
 62
     0
100
AcDbLine
 10
1299.0625
 20
1019.203647
 30
0.0
 11
1299.375
 21
1019.744913
 31
0.0
  0
LINE
  5
117
100
AcDbEntity
  8
0
 62
     0
100
AcDbLine
 10
1302.885523
 20
1015.0
 30
0.0
 11
1303.125
 21
1015.414786
 31
0.0
  0
LINE
  5
118
100
AcDbEntity
  8
0
 62
     0
100
AcDbLine
 10
1303.75
 20
1016.497318
 30
0.0
 11
1304.0625
 21
1017.038583
 31
0.0
  0
LINE
  5
119
100
AcDbEntity
  8
0
 62
     0
100
AcDbLine
 10
1304.6875
 20
1018.121115
 30
0.0
 11
1305.0
 21
1018.662381
 31
0.0
  0
LINE
  5
11A
100
AcDbEntity
  8
0
 62
     0
100
AcDbLine
 10
1305.625
 20
1019.744913
 30
0.0
 11
1305.772275
 21
1020.0
 31
0.0
  0
LINE
  5
11B
100
AcDbEntity
  8
0
 62
     0
100
AcDbLine
 10
1304.6875
 20
1015.956052
 30
0.0
 11
1305.0
 21
1016.497318
 31
0.0
  0
LINE
  5
11C
100
AcDbEntity
  8
0
 62
     0
100
AcDbLine
 10
1305.625
 20
1017.579849
 30
0.0
 11
1305.9375
 21
1018.121115
 31
0.0
  0
LINE
  5
11D
100
AcDbEntity
  8
0
 62
     0
100
AcDbLine
 10
1306.5625
 20
1019.203647
 30
0.0
 11
1306.875
 21
1019.744913
 31
0.0
  0
LINE
  5
11E
100
AcDbEntity
  8
0
 62
     0
100
AcDbLine
 10
1305.625
 20
1015.414786
 30
0.0
 11
1305.9375
 21
1015.956052
 31
0.0
  0
LINE
  5
11F
100
AcDbEntity
  8
0
 62
     0
100
AcDbLine
 10
1306.5625
 20
1017.038583
 30
0.0
 11
1306.875
 21
1017.579849
 31
0.0
  0
LINE
  5
120
100
AcDbEntity
  8
0
 62
     0
100
AcDbLine
 10
1307.5
 20
1018.662381
 30
0.0
 11
1307.8125
 21
1019.203647
 31
0.0
  0
LINE
  5
121
100
AcDbEntity
  8
0
 62
     0
100
AcDbLine
 10
1306.635523
 20
1015.0
 30
0.0
 11
1306.875
 21
1015.414786
 31
0.0
  0
LINE
  5
122
100
AcDbEntity
  8
0
 62
     0
100
AcDbLine
 10
1307.5
 20
1016.497318
 30
0.0
 11
1307.8125
 21
1017.038583
 31
0.0
  0
LINE
  5
123
100
AcDbEntity
  8
0
 62
     0
100
AcDbLine
 10
1308.4375
 20
1018.121115
 30
0.0
 11
1308.75
 21
1018.662381
 31
0.0
  0
LINE
  5
124
100
AcDbEntity
  8
0
 62
     0
100
AcDbLine
 10
1308.4375
 20
1015.956052
 30
0.0
 11
1308.75
 21
1016.497318
 31
0.0
  0
ENDBLK
  5
126
100
AcDbEntity
  8
0
100
AcDbBlockEnd
  0
BLOCK
  5
BA
100
AcDbEntity
  8
0
100
AcDbBlockBegin
  2
*X6
 70
     1
 10
0.0
 20
0.0
 30
0.0
  3
*X6
  1

  0
LINE
  5
5F
100
AcDbEntity
  8
0
 62
     0
100
AcDbLine
 10
1299.375
 20
986.186429
 30
0.0
 11
1300.0
 21
986.186429
 31
0.0
  0
LINE
  5
60
100
AcDbEntity
  8
0
 62
     0
100
AcDbLine
 10
1301.25
 20
986.186429
 30
0.0
 11
1301.875
 21
986.186429
 31
0.0
  0
LINE
  5
61
100
AcDbEntity
  8
0
 62
     0
100
AcDbLine
 10
1303.125
 20
986.186429
 30
0.0
 11
1303.75
 21
986.186429
 31
0.0
  0
LINE
  5
62
100
AcDbEntity
  8
0
 62
     0
100
AcDbLine
 10
1305.0
 20
986.186429
 30
0.0
 11
1305.625
 21
986.186429
 31
0.0
  0
LINE
  5
63
100
AcDbEntity
  8
0
 62
     0
100
AcDbLine
 10
1306.875
 20
986.186429
 30
0.0
 11
1307.5
 21
986.186429
 31
0.0
  0
LINE
  5
64
100
AcDbEntity
  8
0
 62
     0
100
AcDbLine
 10
1308.75
 20
986.186429
 30
0.0
 11
1309.001002
 21
986.186429
 31
0.0
  0
LINE
  5
65
100
AcDbEntity
  8
0
 62
     0
100
AcDbLine
 10
1299.375
 20
987.268961
 30
0.0
 11
1300.0
 21
987.268961
 31
0.0
  0
LINE
  5
66
100
AcDbEntity
  8
0
 62
     0
100
AcDbLine
 10
1301.25
 20
987.268961
 30
0.0
 11
1301.875
 21
987.268961
 31
0.0
  0
LINE
  5
67
100
AcDbEntity
  8
0
 62
     0
100
AcDbLine
 10
1303.125
 20
987.268961
 30
0.0
 11
1303.75
 21
987.268961
 31
0.0
  0
LINE
  5
68
100
AcDbEntity
  8
0
 62
     0
100
AcDbLine
 10
1305.0
 20
987.268961
 30
0.0
 11
1305.625
 21
987.268961
 31
0.0
  0
LINE
  5
69
100
AcDbEntity
  8
0
 62
     0
100
AcDbLine
 10
1306.875
 20
987.268961
 30
0.0
 11
1307.5
 21
987.268961
 31
0.0
  0
LINE
  5
6A
100
AcDbEntity
  8
0
 62
     0
100
AcDbLine
 10
1308.75
 20
987.268961
 30
0.0
 11
1309.001002
 21
987.268961
 31
0.0
  0
LINE
  5
6B
100
AcDbEntity
  8
0
 62
     0
100
AcDbLine
 10
1299.375
 20
988.351492
 30
0.0
 11
1300.0
 21
988.351492
 31
0.0
  0
LINE
  5
6C
100
AcDbEntity
  8
0
 62
     0
100
AcDbLine
 10
1301.25
 20
988.351492
 30
0.0
 11
1301.875
 21
988.351492
 31
0.0
  0
LINE
  5
6D
100
AcDbEntity
  8
0
 62
     0
100
AcDbLine
 10
1303.125
 20
988.351492
 30
0.0
 11
1303.75
 21
988.351492
 31
0.0
  0
LINE
  5
6E
100
AcDbEntity
  8
0
 62
     0
100
AcDbLine
 10
1305.0
 20
988.351492
 30
0.0
 11
1305.625
 21
988.351492
 31
0.0
  0
LINE
  5
6F
100
AcDbEntity
  8
0
 62
     0
100
AcDbLine
 10
1306.875
 20
988.351492
 30
0.0
 11
1307.5
 21
988.351492
 31
0.0
  0
LINE
  5
70
100
AcDbEntity
  8
0
 62
     0
100
AcDbLine
 10
1308.75
 20
988.351492
 30
0.0
 11
1309.001002
 21
988.351492
 31
0.0
  0
LINE
  5
71
100
AcDbEntity
  8
0
 62
     0
100
AcDbLine
 10
1299.375
 20
985.103897
 30
0.0
 11
1300.0
 21
985.103897
 31
0.0
  0
LINE
  5
72
100
AcDbEntity
  8
0
 62
     0
100
AcDbLine
 10
1301.25
 20
985.103897
 30
0.0
 11
1301.875
 21
985.103897
 31
0.0
  0
LINE
  5
73
100
AcDbEntity
  8
0
 62
     0
100
AcDbLine
 10
1303.125
 20
985.103897
 30
0.0
 11
1303.75
 21
985.103897
 31
0.0
  0
LINE
  5
74
100
AcDbEntity
  8
0
 62
     0
100
AcDbLine
 10
1305.0
 20
985.103897
 30
0.0
 11
1305.625
 21
985.103897
 31
0.0
  0
LINE
  5
75
100
AcDbEntity
  8
0
 62
     0
100
AcDbLine
 10
1306.875
 20
985.103897
 30
0.0
 11
1307.5
 21
985.103897
 31
0.0
  0
LINE
  5
76
100
AcDbEntity
  8
0
 62
     0
100
AcDbLine
 10
1308.75
 20
985.103897
 30
0.0
 11
1309.001002
 21
985.103897
 31
0.0
  0
LINE
  5
77
100
AcDbEntity
  8
0
 62
     0
100
AcDbLine
 10
1299.375
 20
984.021365
 30
0.0
 11
1300.0
 21
984.021365
 31
0.0
  0
LINE
  5
78
100
AcDbEntity
  8
0
 62
     0
100
AcDbLine
 10
1301.25
 20
984.021365
 30
0.0
 11
1301.875
 21
984.021365
 31
0.0
  0
LINE
  5
79
100
AcDbEntity
  8
0
 62
     0
100
AcDbLine
 10
1303.125
 20
984.021365
 30
0.0
 11
1303.75
 21
984.021365
 31
0.0
  0
LINE
  5
7A
100
AcDbEntity
  8
0
 62
     0
100
AcDbLine
 10
1305.0
 20
984.021365
 30
0.0
 11
1305.625
 21
984.021365
 31
0.0
  0
LINE
  5
7B
100
AcDbEntity
  8
0
 62
     0
100
AcDbLine
 10
1306.875
 20
984.021365
 30
0.0
 11
1307.5
 21
984.021365
 31
0.0
  0
LINE
  5
7C
100
AcDbEntity
  8
0
 62
     0
100
AcDbLine
 10
1308.75
 20
984.021365
 30
0.0
 11
1309.001002
 21
984.021365
 31
0.0
  0
LINE
  5
7D
100
AcDbEntity
  8
0
 62
     0
100
AcDbLine
 10
1304.0625
 20
984.562631
 30
0.0
 11
1303.75
 21
985.103897
 31
0.0
  0
LINE
  5
7E
100
AcDbEntity
  8
0
 62
     0
100
AcDbLine
 10
1303.125
 20
986.186429
 30
0.0
 11
1302.8125
 21
986.727695
 31
0.0
  0
LINE
  5
7F
100
AcDbEntity
  8
0
 62
     0
100
AcDbLine
 10
1302.1875
 20
987.810226
 30
0.0
 11
1301.875
 21
988.351492
 31
0.0
  0
LINE
  5
80
100
AcDbEntity
  8
0
 62
     0
100
AcDbLine
 10
1303.125
 20
984.021365
 30
0.0
 11
1302.8125
 21
984.562631
 31
0.0
  0
LINE
  5
81
100
AcDbEntity
  8
0
 62
     0
100
AcDbLine
 10
1302.1875
 20
985.645163
 30
0.0
 11
1301.875
 21
986.186429
 31
0.0
  0
LINE
  5
82
100
AcDbEntity
  8
0
 62
     0
100
AcDbLine
 10
1301.25
 20
987.268961
 30
0.0
 11
1300.9375
 21
987.810226
 31
0.0
  0
LINE
  5
83
100
AcDbEntity
  8
0
 62
     0
100
AcDbLine
 10
1300.3125
 20
988.892758
 30
0.0
 11
1300.250584
 21
989.0
 31
0.0
  0
LINE
  5
84
100
AcDbEntity
  8
0
 62
     0
100
AcDbLine
 10
1302.118276
 20
983.6
 30
0.0
 11
1301.875
 21
984.021365
 31
0.0
  0
LINE
  5
85
100
AcDbEntity
  8
0
 62
     0
100
AcDbLine
 10
1301.25
 20
985.103897
 30
0.0
 11
1300.9375
 21
985.645163
 31
0.0
  0
LINE
  5
86
100
AcDbEntity
  8
0
 62
     0
100
AcDbLine
 10
1300.3125
 20
986.727695
 30
0.0
 11
1300.0
 21
987.268961
 31
0.0
  0
LINE
  5
87
100
AcDbEntity
  8
0
 62
     0
100
AcDbLine
 10
1299.375
 20
988.351492
 30
0.0
 11
1299.0625
 21
988.892758
 31
0.0
  0
LINE
  5
88
100
AcDbEntity
  8
0
 62
     0
100
AcDbLine
 10
1300.3125
 20
984.562631
 30
0.0
 11
1300.0
 21
985.103897
 31
0.0
  0
LINE
  5
89
100
AcDbEntity
  8
0
 62
     0
100
AcDbLine
 10
1299.375
 20
986.186429
 30
0.0
 11
1299.0625
 21
986.727695
 31
0.0
  0
LINE
  5
8A
100
AcDbEntity
  8
0
 62
     0
100
AcDbLine
 10
1299.375
 20
984.021365
 30
0.0
 11
1299.0625
 21
984.562631
 31
0.0
  0
LINE
  5
8B
100
AcDbEntity
  8
0
 62
     0
100
AcDbLine
 10
1305.868276
 20
983.6
 30
0.0
 11
1305.625
 21
984.021365
 31
0.0
  0
LINE
  5
8C
100
AcDbEntity
  8
0
 62
     0
100
AcDbLine
 10
1305.0
 20
985.103897
 30
0.0
 11
1304.6875
 21
985.645163
 31
0.0
  0
LINE
  5
8D
100
AcDbEntity
  8
0
 62
     0
100
AcDbLine
 10
1304.0625
 20
986.727695
 30
0.0
 11
1303.75
 21
987.268961
 31
0.0
  0
LINE
  5
8E
100
AcDbEntity
  8
0
 62
     0
100
AcDbLine
 10
1303.125
 20
988.351492
 30
0.0
 11
1302.8125
 21
988.892758
 31
0.0
  0
LINE
  5
8F
100
AcDbEntity
  8
0
 62
     0
100
AcDbLine
 10
1306.875
 20
984.021365
 30
0.0
 11
1306.5625
 21
984.562631
 31
0.0
  0
LINE
  5
90
100
AcDbEntity
  8
0
 62
     0
100
AcDbLine
 10
1305.9375
 20
985.645163
 30
0.0
 11
1305.625
 21
986.186429
 31
0.0
  0
LINE
  5
91
100
AcDbEntity
  8
0
 62
     0
100
AcDbLine
 10
1305.0
 20
987.268961
 30
0.0
 11
1304.6875
 21
987.810226
 31
0.0
  0
LINE
  5
92
100
AcDbEntity
  8
0
 62
     0
100
AcDbLine
 10
1304.0625
 20
988.892758
 30
0.0
 11
1304.000584
 21
989.0
 31
0.0
  0
LINE
  5
93
100
AcDbEntity
  8
0
 62
     0
100
AcDbLine
 10
1307.8125
 20
984.562631
 30
0.0
 11
1307.5
 21
985.103897
 31
0.0
  0
LINE
  5
94
100
AcDbEntity
  8
0
 62
     0
100
AcDbLine
 10
1306.875
 20
986.186429
 30
0.0
 11
1306.5625
 21
986.727695
 31
0.0
  0
LINE
  5
95
100
AcDbEntity
  8
0
 62
     0
100
AcDbLine
 10
1305.9375
 20
987.810226
 30
0.0
 11
1305.625
 21
988.351492
 31
0.0
  0
LINE
  5
96
100
AcDbEntity
  8
0
 62
     0
100
AcDbLine
 10
1308.75
 20
985.103897
 30
0.0
 11
1308.4375
 21
985.645163
 31
0.0
  0
LINE
  5
97
100
AcDbEntity
  8
0
 62
     0
100
AcDbLine
 10
1307.8125
 20
986.727695
 30
0.0
 11
1307.5
 21
987.268961
 31
0.0
  0
LINE
  5
98
100
AcDbEntity
  8
0
 62
     0
100
AcDbLine
 10
1306.875
 20
988.351492
 30
0.0
 11
1306.5625
 21
988.892758
 31
0.0
  0
LINE
  5
99
100
AcDbEntity
  8
0
 62
     0
100
AcDbLine
 10
1308.75
 20
987.268961
 30
0.0
 11
1308.4375
 21
987.810226
 31
0.0
  0
LINE
  5
9A
100
AcDbEntity
  8
0
 62
     0
100
AcDbLine
 10
1307.8125
 20
988.892758
 30
0.0
 11
1307.750584
 21
989.0
 31
0.0
  0
LINE
  5
9B
100
AcDbEntity
  8
0
 62
     0
100
AcDbLine
 10
1302.8125
 20
984.562631
 30
0.0
 11
1303.125
 21
985.103897
 31
0.0
  0
LINE
  5
9C
100
AcDbEntity
  8
0
 62
     0
100
AcDbLine
 10
1303.75
 20
986.186428
 30
0.0
 11
1304.0625
 21
986.727694
 31
0.0
  0
LINE
  5
9D
100
AcDbEntity
  8
0
 62
     0
100
AcDbLine
 10
1304.6875
 20
987.810226
 30
0.0
 11
1305.0
 21
988.351492
 31
0.0
  0
LINE
  5
9E
100
AcDbEntity
  8
0
 62
     0
100
AcDbLine
 10
1301.006725
 20
983.6
 30
0.0
 11
1301.25
 21
984.021365
 31
0.0
  0
LINE
  5
9F
100
AcDbEntity
  8
0
 62
     0
100
AcDbLine
 10
1301.875
 20
985.103897
 30
0.0
 11
1302.1875
 21
985.645163
 31
0.0
  0
LINE
  5
A0
100
AcDbEntity
  8
0
 62
     0
100
AcDbLine
 10
1302.8125
 20
986.727694
 30
0.0
 11
1303.125
 21
987.26896
 31
0.0
  0
LINE
  5
A1
100
AcDbEntity
  8
0
 62
     0
100
AcDbLine
 10
1303.75
 20
988.351492
 30
0.0
 11
1304.0625
 21
988.892758
 31
0.0
  0
LINE
  5
A2
100
AcDbEntity
  8
0
 62
     0
100
AcDbLine
 10
1300.0
 20
984.021365
 30
0.0
 11
1300.3125
 21
984.562631
 31
0.0
  0
LINE
  5
A3
100
AcDbEntity
  8
0
 62
     0
100
AcDbLine
 10
1300.9375
 20
985.645163
 30
0.0
 11
1301.25
 21
986.186428
 31
0.0
  0
LINE
  5
A4
100
AcDbEntity
  8
0
 62
     0
100
AcDbLine
 10
1301.875
 20
987.26896
 30
0.0
 11
1302.1875
 21
987.810226
 31
0.0
  0
LINE
  5
A5
100
AcDbEntity
  8
0
 62
     0
100
AcDbLine
 10
1302.8125
 20
988.892758
 30
0.0
 11
1302.874416
 21
989.0
 31
0.0
  0
LINE
  5
A6
100
AcDbEntity
  8
0
 62
     0
100
AcDbLine
 10
1299.0625
 20
984.562631
 30
0.0
 11
1299.375
 21
985.103897
 31
0.0
  0
LINE
  5
A7
100
AcDbEntity
  8
0
 62
     0
100
AcDbLine
 10
1300.0
 20
986.186428
 30
0.0
 11
1300.3125
 21
986.727694
 31
0.0
  0
LINE
  5
A8
100
AcDbEntity
  8
0
 62
     0
100
AcDbLine
 10
1300.9375
 20
987.810226
 30
0.0
 11
1301.25
 21
988.351492
 31
0.0
  0
LINE
  5
A9
100
AcDbEntity
  8
0
 62
     0
100
AcDbLine
 10
1299.0625
 20
986.727694
 30
0.0
 11
1299.375
 21
987.26896
 31
0.0
  0
LINE
  5
AA
100
AcDbEntity
  8
0
 62
     0
100
AcDbLine
 10
1300.0
 20
988.351492
 30
0.0
 11
1300.3125
 21
988.892758
 31
0.0
  0
LINE
  5
AB
100
AcDbEntity
  8
0
 62
     0
100
AcDbLine
 10
1299.0625
 20
988.892758
 30
0.0
 11
1299.124416
 21
989.0
 31
0.0
  0
LINE
  5
AC
100
AcDbEntity
  8
0
 62
     0
100
AcDbLine
 10
1303.75
 20
984.021365
 30
0.0
 11
1304.0625
 21
984.562631
 31
0.0
  0
LINE
  5
AD
100
AcDbEntity
  8
0
 62
     0
100
AcDbLine
 10
1304.6875
 20
985.645163
 30
0.0
 11
1305.0
 21
986.186428
 31
0.0
  0
LINE
  5
AE
100
AcDbEntity
  8
0
 62
     0
100
AcDbLine
 10
1305.625
 20
987.26896
 30
0.0
 11
1305.9375
 21
987.810226
 31
0.0
  0
LINE
  5
AF
100
AcDbEntity
  8
0
 62
     0
100
AcDbLine
 10
1306.5625
 20
988.892758
 30
0.0
 11
1306.624416
 21
989.0
 31
0.0
  0
LINE
  5
B0
100
AcDbEntity
  8
0
 62
     0
100
AcDbLine
 10
1304.756725
 20
983.6
 30
0.0
 11
1305.0
 21
984.021365
 31
0.0
  0
LINE
  5
B1
100
AcDbEntity
  8
0
 62
     0
100
AcDbLine
 10
1305.625
 20
985.103897
 30
0.0
 11
1305.9375
 21
985.645163
 31
0.0
  0
LINE
  5
B2
100
AcDbEntity
  8
0
 62
     0
100
AcDbLine
 10
1306.5625
 20
986.727694
 30
0.0
 11
1306.875
 21
987.26896
 31
0.0
  0
LINE
  5
B3
100
AcDbEntity
  8
0
 62
     0
100
AcDbLine
 10
1307.5
 20
988.351492
 30
0.0
 11
1307.8125
 21
988.892758
 31
0.0
  0
LINE
  5
B4
100
AcDbEntity
  8
0
 62
     0
100
AcDbLine
 10
1306.5625
 20
984.562631
 30
0.0
 11
1306.875
 21
985.103897
 31
0.0
  0
LINE
  5
B5
100
AcDbEntity
  8
0
 62
     0
100
AcDbLine
 10
1307.5
 20
986.186428
 30
0.0
 11
1307.8125
 21
986.727694
 31
0.0
  0
LINE
  5
B6
100
AcDbEntity
  8
0
 62
     0
100
AcDbLine
 10
1308.4375
 20
987.810226
 30
0.0
 11
1308.75
 21
988.351492
 31
0.0
  0
LINE
  5
B7
100
AcDbEntity
  8
0
 62
     0
100
AcDbLine
 10
1307.5
 20
984.021365
 30
0.0
 11
1307.8125
 21
984.562631
 31
0.0
  0
LINE
  5
B8
100
AcDbEntity
  8
0
 62
     0
100
AcDbLine
 10
1308.4375
 20
985.645163
 30
0.0
 11
1308.75
 21
986.186428
 31
0.0
  0
LINE
  5
B9
100
AcDbEntity
  8
0
 62
     0
100
AcDbLine
 10
1308.506725
 20
983.6
 30
0.0
 11
1308.75
 21
984.021365
 31
0.0
  0
ENDBLK
  5
BB
100
AcDbEntity
  8
0
100
AcDbBlockEnd
  0
BLOCK
  5
50
100
AcDbEntity
  8
0
100
AcDbBlockBegin
  2
SP42520
 70
     0
 10
0.0
 20
0.0
 30
0.0
  3
SP42520
  1

  0
LWPOLYLINE
  5
36
100
AcDbEntity
  8
SPKONTUR
100
AcDbPolyline
 90
       14
 70
     0
 43
0.0
 10
-2.629165
 20
30.0
 10
-3.5
 20
26.7499
 42
0.41423
 10
-1.75
 20
25.0
 42
0.414213
 10
0.0
 20
26.749998
 10
0.0
 20
43.0
 42
0.414214
 10
-2.0
 20
45.0
 10
-7.5
 20
45.0
 10
-23.0
 20
45.0
 42
0.414214
 10
-25.0
 20
43.0
 10
-25.0
 20
27.0
 42
0.414214
 10
-23.0
 20
25.0
 10
-13.5
 20
25.0
 42
0.414214
 10
-11.5
 20
27.0
 10
-12.303848
 20
30.0
  0
LWPOLYLINE
  5
38
100
AcDbEntity
  8
STALPROFIL
100
AcDbPolyline
 90
       13
 70
     0
 43
1.25
 10
-2.02546
 20
29.838243
 10
-2.872606
 20
26.676553
 42
0.395246
 10
-1.75
 20
25.625
 42
0.414213
 10
-0.625
 20
26.749998
 10
-0.625
 20
43.0
 42
0.414214
 10
-2.0
 20
44.375
 10
-23.0
 20
44.375
 42
0.414214
 10
-24.375
 20
43.0
 10
-24.375
 20
27.0
 42
0.414214
 10
-23.0
 20
25.625
 10
-13.5
 20
25.625
 42
0.398381
 10
-12.127031
 20
26.925296
 10
-12.907551
 20
29.838238
  0
INSERT
  5
3A
100
AcDbEntity
  8
FOGNINGR
100
AcDbBlockReference
  2
SP40020
 10
5.5
 20
-0.000002
 30
0.0
  0
ENDBLK
  5
51
100
AcDbEntity
  8
0
100
AcDbBlockEnd
  0
BLOCK
  5
12B
100
AcDbEntity
  8
0
100
AcDbBlockBegin
  2
GLAS26-5DK
 70
     0
 10
0.0
 20
0.0
 30
0.0
  3
GLAS26-5DK
  1

  0
LINE
  5
54
100
AcDbEntity
  8
GLAS_MED_FOGNING
100
AcDbLine
 10
-30.0
 20
62.499998
 30
0.0
 11
-30.0
 21
29.999998
 31
0.0
  0
LINE
  5
55
100
AcDbEntity
  8
GLAS_MED_FOGNING
100
AcDbLine
 10
-31.0
 20
62.499998
 30
0.0
 11
-31.0
 21
29.999998
 31
0.0
  0
LINE
  5
56
100
AcDbEntity
  8
GLAS_MED_FOGNING
100
AcDbLine
 10
-32.0
 20
62.499998
 30
0.0
 11
-32.0
 21
29.999998
 31
0.0
  0
LINE
  5
57
100
AcDbEntity
  8
GLAS_MED_FOGNING
100
AcDbLine
 10
-43.5
 20
62.499998
 30
0.0
 11
-43.5
 21
29.999998
 31
0.0
  0
LINE
  5
58
100
AcDbEntity
  8
GLAS_MED_FOGNING
100
AcDbLine
 10
-42.5
 20
62.499998
 30
0.0
 11
-42.5
 21
29.999998
 31
0.0
  0
LINE
  5
59
100
AcDbEntity
  8
GLAS_MED_FOGNING
100
AcDbLine
 10
-44.5
 20
62.499998
 30
0.0
 11
-44.5
 21
29.999998
 31
0.0
  0
LINE
  5
5A
100
AcDbEntity
  8
GLAS_MED_FOGNING
100
AcDbLine
 10
-56.0
 20
62.499998
 30
0.0
 11
-56.0
 21
29.999998
 31
0.0
  0
LINE
  5
5B
100
AcDbEntity
  8
GLAS_MED_FOGNING
100
AcDbLine
 10
-55.0
 20
62.499998
 30
0.0
 11
-55.0
 21
29.999998
 31
0.0
  0
LINE
  5
5C
100
AcDbEntity
  8
GLAS_MED_FOGNING
100
AcDbLine
 10
-54.0
 20
62.499998
 30
0.0
 11
-54.0
 21
29.999998
 31
0.0
  0
INSERT
  5
5D
100
AcDbEntity
  8
GLAS_MED_FOGNING
100
AcDbBlockReference
  2
*X6
 10
-1045.0
 20
1340.0
 30
0.0
 50
270.0
1001
ACAD
1000
HATCH
1002
{
1070
    16
1000
HEX
1040
5.0
1040
0.0
1002
}
  0
LINE
  5
BC
100
AcDbEntity
  8
GLAS_MED_FOGNING
100
AcDbLine
 10
-56.0
 20
40.998998
 30
0.0
 11
-61.4
 21
40.998998
 31
0.0
  0
LINE
  5
BD
100
AcDbEntity
  8
GLAS_MED_FOGNING
100
AcDbLine
 10
-56.0
 20
30.998998
 30
0.0
 11
-61.4
 21
30.998998
 31
0.0
  0
LINE
  5
BE
100
AcDbEntity
  8
GLAS_MED_FOGNING
100
AcDbLine
 10
-61.4
 20
40.998998
 30
0.0
 11
-61.4
 21
30.998998
 31
0.0
  0
LINE
  5
BF
100
AcDbEntity
  8
GLAS_MED_FOGNING
100
AcDbLine
 10
-42.5
 20
37.848933
 30
0.0
 11
-32.0
 21
29.999998
 31
0.0
  0
LINE
  5
C0
100
AcDbEntity
  8
GLAS_MED_FOGNING
100
AcDbLine
 10
-32.0
 20
37.848933
 30
0.0
 11
-42.5
 21
29.999998
 31
0.0
  0
LINE
  5
C1
100
AcDbEntity
  8
GLAS_MED_FOGNING
100
AcDbLine
 10
-54.0
 20
37.848933
 30
0.0
 11
-44.5
 21
29.999998
 31
0.0
  0
LINE
  5
C2
100
AcDbEntity
  8
GLAS_MED_FOGNING
100
AcDbLine
 10
-44.5
 20
37.848933
 30
0.0
 11
-54.0
 21
29.999998
 31
0.0
  0
LINE
  5
C3
100
AcDbEntity
  8
GLAS_MED_FOGNING
100
AcDbLine
 10
-56.0
 20
29.999998
 30
0.0
 11
-56.0
 21
30.999998
 31
0.0
  0
LINE
  5
C4
100
AcDbEntity
  8
GLAS_MED_FOGNING
100
AcDbLine
 10
-30.0
 20
29.999998
 30
0.0
 11
-30.0
 21
30.998998
 31
0.0
  0
LINE
  5
C5
100
AcDbEntity
  8
GLAS_MED_FOGNING
100
AcDbLine
 10
-30.0
 20
25.0
 30
0.0
 11
-56.0
 21
29.999998
 31
0.0
  0
LINE
  5
C6
100
AcDbEntity
  8
GLAS_MED_FOGNING
100
AcDbLine
 10
-56.0
 20
25.0
 30
0.0
 11
-30.0
 21
30.0
 31
0.0
  0
LINE
  5
C7
100
AcDbEntity
  8
GLAS_MED_FOGNING
100
AcDbLine
 10
-30.0
 20
29.999998
 30
0.0
 11
-56.0
 21
29.999998
 31
0.0
  0
LINE
  5
C8
100
AcDbEntity
  8
GLAS_MED_FOGNING
100
AcDbLine
 10
-56.0
 20
29.999998
 30
0.0
 11
-56.0
 21
25.0
 31
0.0
  0
LINE
  5
C9
100
AcDbEntity
  8
GLAS_MED_FOGNING
100
AcDbLine
 10
-30.0
 20
25.0
 30
0.0
 11
-30.0
 21
30.0
 31
0.0
  0
LINE
  5
CA
100
AcDbEntity
  8
GLAS_MED_FOGNING
100
AcDbLine
 10
-42.5
 20
37.848933
 30
0.0
 11
-32.0
 21
37.848933
 31
0.0
  0
LINE
  5
CB
100
AcDbEntity
  8
GLAS_MED_FOGNING
100
AcDbLine
 10
-54.0
 20
37.848933
 30
0.0
 11
-44.5
 21
37.848933
 31
0.0
  0
LINE
  5
CC
100
AcDbEntity
  8
GLAS_MED_FOGNING
100
AcDbLine
 10
-30.0
 20
40.998998
 30
0.0
 11
-30.0
 21
30.998998
 31
0.0
  0
LINE
  5
CD
100
AcDbEntity
  8
GLAS_MED_FOGNING
100
AcDbLine
 10
-25.0
 20
40.998998
 30
0.0
 11
-25.0
 21
30.998998
 31
0.0
  0
INSERT
  5
CE
100
AcDbEntity
  8
GLAS_MED_FOGNING
100
AcDbBlockReference
  2
*X5
 10
-1045.0
 20
1340.0
 30
0.0
 50
270.0
1001
ACAD
1000
HATCH
1002
{
1070
    16
1000
HEX
1040
5.0
1040
0.0
1002
}
  0
LINE
  5
127
100
AcDbEntity
  8
GLAS_MED_FOGNING
100
AcDbLine
 10
-25.0
 20
40.998998
 30
0.0
 11
-30.0
 21
40.998998
 31
0.0
  0
LINE
  5
128
100
AcDbEntity
  8
GLAS_MED_FOGNING
100
AcDbLine
 10
-25.0
 20
30.998998
 30
0.0
 11
-30.0
 21
30.998998
 31
0.0
  0
LINE
  5
129
100
AcDbEntity
  8
CENTRUM
100
AcDbLine
 10
0.0
 20
62.499998
 30
0.0
 11
-65.0
 21
62.499998
 31
0.0
  0
LINE
  5
12A
100
AcDbEntity
  8
GLAS_MED_FOGNING
100
AcDbLine
 10
-56.0
 20
25.0
 30
0.0
 11
-30.0
 21
25.0
 31
0.0
  0
ENDBLK
  5
12C
100
AcDbEntity
  8
0
100
AcDbBlockEnd
  0
BLOCK
  5
4E2
100
AcDbEntity
  8
0
100
AcDbBlockBegin
  2
65_SP42520TRI
 70
     0
 10
0.0
 20
0.0
 30
0.0
  3
65_SP42520TRI
  1

  0
LINE
  5
4C5
100
AcDbEntity
  8
GLAS_MED_FOGNING
100
AcDbLine
 10
-30.0
 20
62.499998
 30
0.0
 11
-30.0
 21
29.999998
 31
0.0
  0
LINE
  5
4C6
100
AcDbEntity
  8
GLAS_MED_FOGNING
100
AcDbLine
 10
-31.0
 20
62.499998
 30
0.0
 11
-31.0
 21
29.999998
 31
0.0
  0
LINE
  5
4C7
100
AcDbEntity
  8
GLAS_MED_FOGNING
100
AcDbLine
 10
-32.0
 20
62.499998
 30
0.0
 11
-32.0
 21
29.999998
 31
0.0
  0
LINE
  5
4C8
100
AcDbEntity
  8
GLAS_MED_FOGNING
100
AcDbLine
 10
-43.5
 20
62.499998
 30
0.0
 11
-43.5
 21
29.999998
 31
0.0
  0
LINE
  5
4C9
100
AcDbEntity
  8
GLAS_MED_FOGNING
100
AcDbLine
 10
-42.5
 20
62.499998
 30
0.0
 11
-42.5
 21
29.999998
 31
0.0
  0
LINE
  5
4CA
100
AcDbEntity
  8
GLAS_MED_FOGNING
100
AcDbLine
 10
-44.5
 20
62.499998
 30
0.0
 11
-44.5
 21
29.999998
 31
0.0
  0
LINE
  5
4CB
100
AcDbEntity
  8
GLAS_MED_FOGNING
100
AcDbLine
 10
-56.0
 20
62.499998
 30
0.0
 11
-56.0
 21
29.999998
 31
0.0
  0
LINE
  5
4CC
100
AcDbEntity
  8
GLAS_MED_FOGNING
100
AcDbLine
 10
-55.0
 20
62.499998
 30
0.0
 11
-55.0
 21
29.999998
 31
0.0
  0
LINE
  5
4CD
100
AcDbEntity
  8
GLAS_MED_FOGNING
100
AcDbLine
 10
-54.0
 20
62.499998
 30
0.0
 11
-54.0
 21
29.999998
 31
0.0
  0
INSERT
  5
4CE
100
AcDbEntity
  8
GLAS_MED_FOGNING
100
AcDbBlockReference
  2
*X6
 10
-1045.0
 20
1340.0
 30
0.0
 50
270.0
1001
ACAD
1000
HATCH
1002
{
1070
    16
1000
HEX
1040
5.0
1040
0.0
1002
}
  0
LINE
  5
4CF
100
AcDbEntity
  8
GLAS_MED_FOGNING
100
AcDbLine
 10
-56.0
 20
40.998998
 30
0.0
 11
-61.4
 21
40.998998
 31
0.0
  0
LINE
  5
4D0
100
AcDbEntity
  8
GLAS_MED_FOGNING
100
AcDbLine
 10
-61.4
 20
40.998998
 30
0.0
 11
-61.4
 21
30.998998
 31
0.0
  0
INSERT
  5
4D1
100
AcDbEntity
  8
TEXT
100
AcDbBlockReference
  2
SP42520
 10
0.0
 20
0.0
 30
0.0
  0
LINE
  5
4D2
100
AcDbEntity
  8
GLAS_MED_FOGNING
100
AcDbLine
 10
-54.0
 20
37.848933
 30
0.0
 11
-44.5
 21
29.999998
 31
0.0
  0
LINE
  5
4D3
100
AcDbEntity
  8
GLAS_MED_FOGNING
100
AcDbLine
 10
-44.5
 20
37.848933
 30
0.0
 11
-54.0
 21
29.999998
 31
0.0
  0
LINE
  5
4D4
100
AcDbEntity
  8
GLAS_MED_FOGNING
100
AcDbLine
 10
-42.5
 20
37.848933
 30
0.0
 11
-32.0
 21
29.999998
 31
0.0
  0
LINE
  5
4D5
100
AcDbEntity
  8
GLAS_MED_FOGNING
100
AcDbLine
 10
-32.0
 20
37.848933
 30
0.0
 11
-42.5
 21
29.999998
 31
0.0
  0
LINE
  5
4D6
100
AcDbEntity
  8
GLAS_MED_FOGNING
100
AcDbLine
 10
-42.5
 20
37.848933
 30
0.0
 11
-32.0
 21
37.848933
 31
0.0
  0
LINE
  5
4D7
100
AcDbEntity
  8
GLAS_MED_FOGNING
100
AcDbLine
 10
-54.0
 20
37.848933
 30
0.0
 11
-44.5
 21
37.848933
 31
0.0
  0
LINE
  5
4D8
100
AcDbEntity
  8
GLAS_MED_FOGNING
100
AcDbLine
 10
-30.0
 20
40.998998
 30
0.0
 11
-30.0
 21
30.998998
 31
0.0
  0
LINE
  5
4D9
100
AcDbEntity
  8
GLAS_MED_FOGNING
100
AcDbLine
 10
-25.0
 20
40.998998
 30
0.0
 11
-25.0
 21
30.998998
 31
0.0
  0
INSERT
  5
4DA
100
AcDbEntity
  8
GLAS_MED_FOGNING
100
AcDbBlockReference
  2
*X5
 10
-1045.0
 20
1340.0
 30
0.0
 50
270.0
1001
ACAD
1000
HATCH
1002
{
1070
    16
1000
HEX
1040
5.0
1040
0.0
1002
}
  0
LINE
  5
4DB
100
AcDbEntity
  8
GLAS_MED_FOGNING
100
AcDbLine
 10
-25.0
 20
40.998998
 30
0.0
 11
-30.0
 21
40.998998
 31
0.0
  0
LINE
  5
4DC
100
AcDbEntity
  8
CENTRUM
100
AcDbLine
 10
0.0
 20
62.499998
 30
0.0
 11
-65.0
 21
62.499998
 31
0.0
  0
LINE
  5
4DD
100
AcDbEntity
  8
GLAS_MED_FOGNING
100
AcDbLine
 10
-56.0
 20
30.998998
 30
0.0
 11
-61.4
 21
30.998998
 31
0.0
  0
LINE
  5
4DE
100
AcDbEntity
  8
GLAS_MED_FOGNING
100
AcDbLine
 10
-30.0
 20
29.999998
 30
0.0
 11
-30.0
 21
30.998998
 31
0.0
  0
LINE
  5
4DF
100
AcDbEntity
  8
GLAS_MED_FOGNING
100
AcDbLine
 10
-56.0
 20
29.999998
 30
0.0
 11
-56.0
 21
30.999998
 31
0.0
  0
LINE
  5
4E0
100
AcDbEntity
  8
GLAS_MED_FOGNING
100
AcDbLine
 10
-30.0
 20
29.999998
 30
0.0
 11
-56.0
 21
29.999998
 31
0.0
  0
LINE
  5
4E1
100
AcDbEntity
  8
GLAS_MED_FOGNING
100
AcDbLine
 10
-25.0
 20
30.998998
 30
0.0
 11
-30.0
 21
30.998998
 31
0.0
  0
ENDBLK
  5
4E3
100
AcDbEntity
  8
0
100
AcDbBlockEnd
  0
BLOCK
  5
6DF
100
AcDbEntity
  8
0
100
AcDbBlockBegin
  2
65_SP43020
 70
     0
 10
0.0
 20
0.0
 30
0.0
  3
65_SP43020
  1

  0
LINE
  5
6C8
100
AcDbEntity
  8
GLAS_MED_FOGNING
100
AcDbLine
 10
-37.0
 20
37.0
 30
0.0
 11
-54.0
 21
37.0
 31
0.0
  0
LINE
  5
6C9
100
AcDbEntity
  8
GLAS_MED_FOGNING
100
AcDbLine
 10
-35.0
 20
30.0
 30
0.0
 11
-56.0
 21
30.0
 31
0.0
  0
LINE
  5
6CA
100
AcDbEntity
  8
GLAS_MED_FOGNING
100
AcDbLine
 10
-54.0
 20
37.0
 30
0.0
 11
-37.0
 21
30.0
 31
0.0
  0
LINE
  5
6CB
100
AcDbEntity
  8
GLAS_MED_FOGNING
100
AcDbLine
 10
-37.0
 20
37.0
 30
0.0
 11
-54.0
 21
30.0
 31
0.0
  0
LINE
  5
6CC
100
AcDbEntity
  8
CENTRUM
100
AcDbLine
 10
-10.0
 20
62.5
 30
0.0
 11
-65.0
 21
62.5
 31
0.0
  0
LINE
  5
6CD
100
AcDbEntity
  8
GLAS_MED_FOGNING
100
AcDbLine
 10
-56.0
 20
62.5
 30
0.0
 11
-56.0
 21
30.0
 31
0.0
  0
LINE
  5
6CE
100
AcDbEntity
  8
GLAS_MED_FOGNING
100
AcDbLine
 10
-55.0
 20
62.5
 30
0.0
 11
-55.0
 21
30.0
 31
0.0
  0
LINE
  5
6CF
100
AcDbEntity
  8
GLAS_MED_FOGNING
100
AcDbLine
 10
-54.0
 20
62.5
 30
0.0
 11
-54.0
 21
30.0
 31
0.0
  0
LINE
  5
6D0
100
AcDbEntity
  8
GLAS_MED_FOGNING
100
AcDbLine
 10
-56.0
 20
30.0
 30
0.0
 11
-56.0
 21
31.0
 31
0.0
  0
LINE
  5
6D1
100
AcDbEntity
  8
GLAS_MED_FOGNING
100
AcDbLine
 10
-61.4
 20
40.999
 30
0.0
 11
-61.4
 21
30.999
 31
0.0
  0
LINE
  5
6D2
100
AcDbEntity
  8
GLAS_MED_FOGNING
100
AcDbLine
 10
-56.0
 20
30.999
 30
0.0
 11
-61.4
 21
30.999
 31
0.0
  0
LINE
  5
6D3
100
AcDbEntity
  8
GLAS_MED_FOGNING
100
AcDbLine
 10
-56.0
 20
40.999
 30
0.0
 11
-61.4
 21
40.999
 31
0.0
  0
INSERT
  5
6D4
100
AcDbEntity
  8
GLAS_MED_FOGNING
100
AcDbBlockReference
  2
*X4
 10
-70.0
 20
-530.0
 30
0.0
1001
ACAD
1000
HATCH
1002
{
1070
    16
1000
HEX
1040
5.0
1040
0.0
1002
}
  0
INSERT
  5
6D5
100
AcDbEntity
  8
TEXT
100
AcDbBlockReference
  2
SP43020
 10
0.0
 20
0.0
 30
0.0
  0
LINE
  5
6D6
100
AcDbEntity
  8
GLAS_MED_FOGNING
100
AcDbLine
 10
-35.0
 20
62.5
 30
0.0
 11
-35.0
 21
30.0
 31
0.0
  0
LINE
  5
6D7
100
AcDbEntity
  8
GLAS_MED_FOGNING
100
AcDbLine
 10
-36.0
 20
62.5
 30
0.0
 11
-36.0
 21
30.0
 31
0.0
  0
LINE
  5
6D8
100
AcDbEntity
  8
GLAS_MED_FOGNING
100
AcDbLine
 10
-37.0
 20
62.5
 30
0.0
 11
-37.0
 21
30.0
 31
0.0
  0
LINE
  5
6D9
100
AcDbEntity
  8
GLAS_MED_FOGNING
100
AcDbLine
 10
-30.0
 20
30.999
 30
0.0
 11
-35.0
 21
30.999
 31
0.0
  0
LINE
  5
6DA
100
AcDbEntity
  8
GLAS_MED_FOGNING
100
AcDbLine
 10
-35.0
 20
30.0
 30
0.0
 11
-35.0
 21
30.999
 31
0.0
  0
LINE
  5
6DB
100
AcDbEntity
  8
GLAS_MED_FOGNING
100
AcDbLine
 10
-30.0
 20
40.999
 30
0.0
 11
-35.0
 21
40.999
 31
0.0
  0
LINE
  5
6DC
100
AcDbEntity
  8
GLAS_MED_FOGNING
100
AcDbLine
 10
-35.0
 20
40.999
 30
0.0
 11
-35.0
 21
30.999
 31
0.0
  0
LINE
  5
6DD
100
AcDbEntity
  8
GLAS_MED_FOGNING
100
AcDbLine
 10
-30.0
 20
40.999
 30
0.0
 11
-30.0
 21
30.999
 31
0.0
  0
INSERT
  5
6DE
100
AcDbEntity
  8
GLAS_MED_FOGNING
100
AcDbBlockReference
  2
*X3
 10
-145.0
 20
-530.0
 30
0.0
1001
ACAD
1000
HATCH
1002
{
1070
    16
1000
HEX
1040
5.0
1040
0.0
1002
}
  0
ENDBLK
  5
6E0
100
AcDbEntity
  8
0
100
AcDbBlockEnd
  0
BLOCK
  5
130
100
AcDbEntity
  8
0
100
AcDbBlockBegin
  2
65_SP42520DKTRI
 70
     0
 10
0.0
 20
0.0
 30
0.0
  3
65_SP42520DKTRI
  1

  0
INSERT
  5
34
100
AcDbEntity
  8
GLAS_MED_FOGNING
100
AcDbBlockReference
  2
SP42520
 10
0.0
 20
0.0
 30
0.0
  0
INSERT
  5
52
100
AcDbEntity
  8
GLAS_MED_FOGNING
100
AcDbBlockReference
  2
GLAS26-5DK
 10
0.0
 20
0.0
 30
0.0
  0
TEXT
  5
12D
100
AcDbEntity
  8
TEXT
100
AcDbText
 10
-42.90943
 20
7.249315
 30
0.0
 40
5.0
  1
%%UDISTANSKLOSS
 41
0.8
  7
ROMANS
 72
     1
 11
-22.066573
 21
7.249315
 31
0.0
100
AcDbText
  0
LINE
  5
12F
100
AcDbEntity
  8
TEXT
100
AcDbLine
 10
-43.407373
 20
6.239706
 30
0.0
 11
-50.202989
 21
24.912553
 31
0.0
  0
ENDBLK
  5
131
100
AcDbEntity
  8
0
100
AcDbBlockEnd
  0
BLOCK
  5
27B
100
AcDbEntity
  8
0
100
AcDbBlockBegin
  2
SP43520
 70
     0
 10
0.0
 20
0.0
 30
0.0
  3
SP43520
  1

  0
LWPOLYLINE
  5
278
100
AcDbEntity
  8
STALPROFIL
100
AcDbPolyline
 90
       14
 70
     0
 43
1.25
 10
-7.592449
 20
29.838238
 10
-8.372969
 20
26.925296
 42
0.398381
 10
-7.0
 20
25.625
 10
-2.0
 20
25.625
 42
0.414214
 10
-0.625
 20
27.0
 10
-0.625
 20
43.0
 42
0.414214
 10
-2.0
 20
44.375
 10
-33.0
 20
44.375
 42
0.414214
 10
-34.375
 20
43.0
 10
-34.375
 20
27.0
 42
0.414214
 10
-33.0
 20
25.625
 10
-19.0
 20
25.625
 42
0.398381
 10
-17.627031
 20
26.925296
 10
-18.407551
 20
29.838238
  0
INSERT
  5
279
100
AcDbEntity
  8
GLAS_MED_FOGNING
100
AcDbBlockReference
  2
SP40020
 10
0.0
 20
0.0
 30
0.0
  0
LWPOLYLINE
  5
27A
100
AcDbEntity
  8
SPKONTUR
100
AcDbPolyline
 90
       14
 70
     0
 43
0.0
 10
-8.196152
 20
30.0
 10
-9.0
 20
27.0
 42
0.414214
 10
-7.0
 20
25.0
 10
-2.0
 20
25.0
 42
0.414214
 10
0.0
 20
27.0
 10
0.0
 20
43.0
 42
0.414214
 10
-2.0
 20
45.0
 10
-33.0
 20
45.0
 42
0.414214
 10
-35.0
 20
43.0
 10
-35.0
 20
27.0
 42
0.414214
 10
-33.0
 20
25.0
 10
-19.0
 20
25.0
 42
0.414214
 10
-17.0
 20
27.0
 10
-17.803848
 20
30.0
  0
ENDBLK
  5
27C
100
AcDbEntity
  8
0
100
AcDbBlockEnd
  0
BLOCK
  5
49E
100
AcDbEntity
  8
0
100
AcDbBlockBegin
  2
65_SP43520
 70
     0
 10
0.0
 20
0.0
 30
0.0
  3
65_SP43520
  1

  0
LINE
  5
487
100
AcDbEntity
  8
GLAS_MED_FOGNING
100
AcDbLine
 10
-40.0
 20
62.5
 30
0.0
 11
-40.0
 21
30.0
 31
0.0
  0
LINE
  5
488
100
AcDbEntity
  8
GLAS_MED_FOGNING
100
AcDbLine
 10
-41.0
 20
62.5
 30
0.0
 11
-41.0
 21
30.0
 31
0.0
  0
LINE
  5
489
100
AcDbEntity
  8
GLAS_MED_FOGNING
100
AcDbLine
 10
-42.0
 20
62.5
 30
0.0
 11
-42.0
 21
30.0
 31
0.0
  0
LINE
  5
48A
100
AcDbEntity
  8
GLAS_MED_FOGNING
100
AcDbLine
 10
-56.0
 20
62.5
 30
0.0
 11
-56.0
 21
30.0
 31
0.0
  0
LINE
  5
48B
100
AcDbEntity
  8
GLAS_MED_FOGNING
100
AcDbLine
 10
-55.0
 20
62.5
 30
0.0
 11
-55.0
 21
30.0
 31
0.0
  0
LINE
  5
48C
100
AcDbEntity
  8
GLAS_MED_FOGNING
100
AcDbLine
 10
-54.0
 20
62.5
 30
0.0
 11
-54.0
 21
30.0
 31
0.0
  0
LINE
  5
48D
100
AcDbEntity
  8
GLAS_MED_FOGNING
100
AcDbLine
 10
-56.0
 20
40.999
 30
0.0
 11
-61.4
 21
40.999
 31
0.0
  0
LINE
  5
48E
100
AcDbEntity
  8
GLAS_MED_FOGNING
100
AcDbLine
 10
-56.0
 20
30.999
 30
0.0
 11
-61.4
 21
30.999
 31
0.0
  0
INSERT
  5
48F
100
AcDbEntity
  8
GLAS_MED_FOGNING
100
AcDbBlockReference
  2
*X4
 10
-70.0
 20
-530.0
 30
0.0
1001
ACAD
1000
HATCH
1002
{
1070
    16
1000
HEX
1040
5.0
1040
0.0
1002
}
  0
LINE
  5
490
100
AcDbEntity
  8
GLAS_MED_FOGNING
100
AcDbLine
 10
-61.4
 20
40.999
 30
0.0
 11
-61.4
 21
30.999
 31
0.0
  0
INSERT
  5
491
100
AcDbEntity
  8
GLAS_MED_FOGNING
100
AcDbBlockReference
  2
SP43520
 10
0.0
 20
0.0
 30
0.0
  0
LINE
  5
492
100
AcDbEntity
  8
GLAS_MED_FOGNING
100
AcDbLine
 10
-40.0
 20
30.0
 30
0.0
 11
-40.0
 21
30.999
 31
0.0
  0
LINE
  5
493
100
AcDbEntity
  8
GLAS_MED_FOGNING
100
AcDbLine
 10
-56.0
 20
30.0
 30
0.0
 11
-56.0
 21
31.0
 31
0.0
  0
LINE
  5
494
100
AcDbEntity
  8
GLAS_MED_FOGNING
100
AcDbLine
 10
-42.0
 20
37.0
 30
0.0
 11
-54.0
 21
30.0
 31
0.0
  0
LINE
  5
495
100
AcDbEntity
  8
GLAS_MED_FOGNING
100
AcDbLine
 10
-54.0
 20
37.0
 30
0.0
 11
-42.0
 21
30.0
 31
0.0
  0
LINE
  5
496
100
AcDbEntity
  8
GLAS_MED_FOGNING
100
AcDbLine
 10
-40.0
 20
30.0
 30
0.0
 11
-56.0
 21
30.0
 31
0.0
  0
LINE
  5
497
100
AcDbEntity
  8
GLAS_MED_FOGNING
100
AcDbLine
 10
-35.0
 20
40.999
 30
0.0
 11
-40.0
 21
40.999
 31
0.0
  0
LINE
  5
498
100
AcDbEntity
  8
GLAS_MED_FOGNING
100
AcDbLine
 10
-35.0
 20
30.999
 30
0.0
 11
-40.0
 21
30.999
 31
0.0
  0
INSERT
  5
499
100
AcDbEntity
  8
GLAS_MED_FOGNING
100
AcDbBlockReference
  2
*X3
 10
-150.0
 20
-530.0
 30
0.0
1001
ACAD
1000
HATCH
1002
{
1070
    16
1000
HEX
1040
5.0
1040
0.0
1002
}
  0
LINE
  5
49A
100
AcDbEntity
  8
GLAS_MED_FOGNING
100
AcDbLine
 10
-42.0
 20
37.0
 30
0.0
 11
-54.0
 21
37.0
 31
0.0
  0
LINE
  5
49B
100
AcDbEntity
  8
GLAS_MED_FOGNING
100
AcDbLine
 10
-40.0
 20
40.999
 30
0.0
 11
-40.0
 21
30.999
 31
0.0
  0
LINE
  5
49C
100
AcDbEntity
  8
GLAS_MED_FOGNING
100
AcDbLine
 10
-35.0
 20
40.999
 30
0.0
 11
-35.0
 21
30.999
 31
0.0
  0
LINE
  5
49D
100
AcDbEntity
  8
CENTRUM
100
AcDbLine
 10
-10.0
 20
62.5
 30
0.0
 11
-65.0
 21
62.5
 31
0.0
  0
ENDBLK
  5
49F
100
AcDbEntity
  8
0
100
AcDbBlockEnd
  0
BLOCK
  5
4C1
100
AcDbEntity
  8
0
100
AcDbBlockBegin
  2
65_SP43520DK
 70
     0
 10
0.0
 20
0.0
 30
0.0
  3
65_SP43520DK
  1

  0
LINE
  5
4A5
100
AcDbEntity
  8
GLAS_MED_FOGNING
100
AcDbLine
 10
-40.0
 20
62.5
 30
0.0
 11
-40.0
 21
30.0
 31
0.0
  0
LINE
  5
4A6
100
AcDbEntity
  8
GLAS_MED_FOGNING
100
AcDbLine
 10
-41.0
 20
62.5
 30
0.0
 11
-41.0
 21
30.0
 31
0.0
  0
LINE
  5
4A7
100
AcDbEntity
  8
GLAS_MED_FOGNING
100
AcDbLine
 10
-42.0
 20
62.5
 30
0.0
 11
-42.0
 21
30.0
 31
0.0
  0
LINE
  5
4A8
100
AcDbEntity
  8
GLAS_MED_FOGNING
100
AcDbLine
 10
-56.0
 20
62.5
 30
0.0
 11
-56.0
 21
30.0
 31
0.0
  0
LINE
  5
4A9
100
AcDbEntity
  8
GLAS_MED_FOGNING
100
AcDbLine
 10
-55.0
 20
62.5
 30
0.0
 11
-55.0
 21
30.0
 31
0.0
  0
LINE
  5
4AA
100
AcDbEntity
  8
GLAS_MED_FOGNING
100
AcDbLine
 10
-54.0
 20
62.5
 30
0.0
 11
-54.0
 21
30.0
 31
0.0
  0
LINE
  5
4AB
100
AcDbEntity
  8
GLAS_MED_FOGNING
100
AcDbLine
 10
-56.0
 20
40.999
 30
0.0
 11
-61.4
 21
40.999
 31
0.0
  0
LINE
  5
4AC
100
AcDbEntity
  8
GLAS_MED_FOGNING
100
AcDbLine
 10
-56.0
 20
30.999
 30
0.0
 11
-61.4
 21
30.999
 31
0.0
  0
INSERT
  5
4AD
100
AcDbEntity
  8
GLAS_MED_FOGNING
100
AcDbBlockReference
  2
*X4
 10
-70.0
 20
-530.0
 30
0.0
1001
ACAD
1000
HATCH
1002
{
1070
    16
1000
HEX
1040
5.0
1040
0.0
1002
}
  0
LINE
  5
4AE
100
AcDbEntity
  8
GLAS_MED_FOGNING
100
AcDbLine
 10
-61.4
 20
40.999
 30
0.0
 11
-61.4
 21
30.999
 31
0.0
  0
INSERT
  5
4AF
100
AcDbEntity
  8
GLAS_MED_FOGNING
100
AcDbBlockReference
  2
SP43520
 10
0.0
 20
0.0
 30
0.0
  0
LINE
  5
4B0
100
AcDbEntity
  8
GLAS_MED_FOGNING
100
AcDbLine
 10
-40.0
 20
30.0
 30
0.0
 11
-40.0
 21
30.999
 31
0.0
  0
LINE
  5
4B1
100
AcDbEntity
  8
GLAS_MED_FOGNING
100
AcDbLine
 10
-56.0
 20
30.0
 30
0.0
 11
-56.0
 21
31.0
 31
0.0
  0
LINE
  5
4B2
100
AcDbEntity
  8
GLAS_MED_FOGNING
100
AcDbLine
 10
-42.0
 20
37.0
 30
0.0
 11
-54.0
 21
30.0
 31
0.0
  0
LINE
  5
4B3
100
AcDbEntity
  8
GLAS_MED_FOGNING
100
AcDbLine
 10
-54.0
 20
37.0
 30
0.0
 11
-42.0
 21
30.0
 31
0.0
  0
LINE
  5
4B4
100
AcDbEntity
  8
GLAS_MED_FOGNING
100
AcDbLine
 10
-40.0
 20
30.0
 30
0.0
 11
-56.0
 21
30.0
 31
0.0
  0
LINE
  5
4B5
100
AcDbEntity
  8
GLAS_MED_FOGNING
100
AcDbLine
 10
-56.0
 20
30.0
 30
0.0
 11
-56.0
 21
25.0
 31
0.0
  0
LINE
  5
4B6
100
AcDbEntity
  8
GLAS_MED_FOGNING
100
AcDbLine
 10
-56.0
 20
25.0
 30
0.0
 11
-40.0
 21
25.0
 31
0.0
  0
LINE
  5
4B7
100
AcDbEntity
  8
GLAS_MED_FOGNING
100
AcDbLine
 10
-40.0
 20
25.0
 30
0.0
 11
-40.0
 21
30.0
 31
0.0
  0
LINE
  5
4B8
100
AcDbEntity
  8
GLAS_MED_FOGNING
100
AcDbLine
 10
-56.0
 20
25.0
 30
0.0
 11
-40.0
 21
30.0
 31
0.0
  0
LINE
  5
4B9
100
AcDbEntity
  8
GLAS_MED_FOGNING
100
AcDbLine
 10
-40.0
 20
25.0
 30
0.0
 11
-56.0
 21
30.0
 31
0.0
  0
LINE
  5
4BA
100
AcDbEntity
  8
GLAS_MED_FOGNING
100
AcDbLine
 10
-35.0
 20
40.999
 30
0.0
 11
-40.0
 21
40.999
 31
0.0
  0
LINE
  5
4BB
100
AcDbEntity
  8
GLAS_MED_FOGNING
100
AcDbLine
 10
-35.0
 20
30.999
 30
0.0
 11
-40.0
 21
30.999
 31
0.0
  0
INSERT
  5
4BC
100
AcDbEntity
  8
GLAS_MED_FOGNING
100
AcDbBlockReference
  2
*X3
 10
-150.0
 20
-530.0
 30
0.0
1001
ACAD
1000
HATCH
1002
{
1070
    16
1000
HEX
1040
5.0
1040
0.0
1002
}
  0
LINE
  5
4BD
100
AcDbEntity
  8
GLAS_MED_FOGNING
100
AcDbLine
 10
-42.0
 20
37.0
 30
0.0
 11
-54.0
 21
37.0
 31
0.0
  0
LINE
  5
4BE
100
AcDbEntity
  8
GLAS_MED_FOGNING
100
AcDbLine
 10
-40.0
 20
40.999
 30
0.0
 11
-40.0
 21
30.999
 31
0.0
  0
LINE
  5
4BF
100
AcDbEntity
  8
GLAS_MED_FOGNING
100
AcDbLine
 10
-35.0
 20
40.999
 30
0.0
 11
-35.0
 21
30.999
 31
0.0
  0
LINE
  5
4C0
100
AcDbEntity
  8
CENTRUM
100
AcDbLine
 10
-10.0
 20
62.5
 30
0.0
 11
-65.0
 21
62.5
 31
0.0
  0
ENDBLK
  5
4C2
100
AcDbEntity
  8
0
100
AcDbBlockEnd
  0
BLOCK
  5
33B
100
AcDbEntity
  8
0
100
AcDbBlockBegin
  2
SP44020
 70
     0
 10
0.0
 20
0.0
 30
0.0
  3
SP44020
  1

  0
INSERT
  5
338
100
AcDbEntity
  8
GLAS_MED_FOGNING
100
AcDbBlockReference
  2
SP40020
 10
0.0
 20
0.0
 30
0.0
  0
LWPOLYLINE
  5
339
100
AcDbEntity
  8
STALPROFIL
100
AcDbPolyline
 90
       14
 70
     0
 43
1.25
 10
-7.592449
 20
29.838238
 10
-8.372969
 20
26.925296
 42
0.398381
 10
-7.0
 20
25.625
 10
-2.0
 20
25.625
 42
0.414214
 10
-0.625
 20
27.0
 10
-0.625
 20
43.0
 42
0.414214
 10
-2.0
 20
44.375
 10
-38.0
 20
44.375
 42
0.414214
 10
-39.375
 20
43.0
 10
-39.375
 20
27.0
 42
0.414214
 10
-38.0
 20
25.625
 10
-19.0
 20
25.625
 42
0.398381
 10
-17.627031
 20
26.925296
 10
-18.407551
 20
29.838238
  0
LWPOLYLINE
  5
33A
100
AcDbEntity
  8
SPKONTUR
100
AcDbPolyline
 90
       14
 70
     0
 43
0.0
 10
-8.196152
 20
30.0
 10
-9.0
 20
27.0
 42
0.414214
 10
-7.0
 20
25.0
 10
-2.0
 20
25.0
 42
0.414214
 10
0.0
 20
27.0
 10
0.0
 20
43.0
 42
0.414214
 10
-2.0
 20
45.0
 10
-38.0
 20
45.0
 42
0.414214
 10
-40.0
 20
43.0
 10
-40.0
 20
27.0
 42
0.414214
 10
-38.0
 20
25.0
 10
-19.0
 20
25.0
 42
0.414214
 10
-17.0
 20
27.0
 10
-17.803848
 20
30.0
  0
ENDBLK
  5
33C
100
AcDbEntity
  8
0
100
AcDbBlockEnd
  0
BLOCK
  5
440
100
AcDbEntity
  8
0
100
AcDbBlockBegin
  2
65_SP44020
 70
     0
 10
0.0
 20
0.0
 30
0.0
  3
65_SP44020
  1

  0
LINE
  5
381
100
AcDbEntity
  8
GLAS_MED_FOGNING
100
AcDbLine
 10
-47.0
 20
62.5
 30
0.0
 11
-47.0
 21
30.0
 31
0.0
  0
LINE
  5
382
100
AcDbEntity
  8
GLAS_MED_FOGNING
100
AcDbLine
 10
-46.0
 20
62.5
 30
0.0
 11
-46.0
 21
30.0
 31
0.0
  0
LINE
  5
383
100
AcDbEntity
  8
GLAS_MED_FOGNING
100
AcDbLine
 10
-45.0
 20
62.5
 30
0.0
 11
-45.0
 21
30.0
 31
0.0
  0
LINE
  5
384
100
AcDbEntity
  8
GLAS_MED_FOGNING
100
AcDbLine
 10
-56.0
 20
62.5
 30
0.0
 11
-56.0
 21
30.0
 31
0.0
  0
LINE
  5
385
100
AcDbEntity
  8
GLAS_MED_FOGNING
100
AcDbLine
 10
-55.0
 20
62.5
 30
0.0
 11
-55.0
 21
30.0
 31
0.0
  0
LINE
  5
386
100
AcDbEntity
  8
GLAS_MED_FOGNING
100
AcDbLine
 10
-54.0
 20
62.5
 30
0.0
 11
-54.0
 21
30.0
 31
0.0
  0
LINE
  5
387
100
AcDbEntity
  8
GLAS_MED_FOGNING
100
AcDbLine
 10
-56.0
 20
40.999
 30
0.0
 11
-61.4
 21
40.999
 31
0.0
  0
LINE
  5
388
100
AcDbEntity
  8
GLAS_MED_FOGNING
100
AcDbLine
 10
-56.0
 20
30.999
 30
0.0
 11
-61.4
 21
30.999
 31
0.0
  0
INSERT
  5
389
100
AcDbEntity
  8
GLAS_MED_FOGNING
100
AcDbBlockReference
  2
*X4
 10
-70.0
 20
-530.0
 30
0.0
1001
ACAD
1000
HATCH
1002
{
1070
    16
1000
HEX
1040
5.0
1040
0.0
1002
}
  0
LINE
  5
3E0
100
AcDbEntity
  8
GLAS_MED_FOGNING
100
AcDbLine
 10
-61.4
 20
40.999
 30
0.0
 11
-61.4
 21
30.999
 31
0.0
  0
INSERT
  5
3E1
100
AcDbEntity
  8
GLAS_MED_FOGNING
100
AcDbBlockReference
  2
SP44020
 10
0.0
 20
0.0
 30
0.0
  0
LINE
  5
3E2
100
AcDbEntity
  8
GLAS_MED_FOGNING
100
AcDbLine
 10
-45.0
 20
30.0
 30
0.0
 11
-45.0
 21
30.999
 31
0.0
  0
LINE
  5
3E3
100
AcDbEntity
  8
GLAS_MED_FOGNING
100
AcDbLine
 10
-56.0
 20
30.0
 30
0.0
 11
-56.0
 21
31.0
 31
0.0
  0
LINE
  5
3E4
100
AcDbEntity
  8
GLAS_MED_FOGNING
100
AcDbLine
 10
-47.0
 20
37.0
 30
0.0
 11
-54.0
 21
30.0
 31
0.0
  0
LINE
  5
3E5
100
AcDbEntity
  8
GLAS_MED_FOGNING
100
AcDbLine
 10
-54.0
 20
37.0
 30
0.0
 11
-47.0
 21
30.0
 31
0.0
  0
LINE
  5
3E6
100
AcDbEntity
  8
GLAS_MED_FOGNING
100
AcDbLine
 10
-45.0
 20
30.0
 30
0.0
 11
-56.0
 21
30.0
 31
0.0
  0
LINE
  5
3E7
100
AcDbEntity
  8
GLAS_MED_FOGNING
100
AcDbLine
 10
-45.0
 20
40.999
 30
0.0
 11
-45.0
 21
30.999
 31
0.0
  0
LINE
  5
3E8
100
AcDbEntity
  8
GLAS_MED_FOGNING
100
AcDbLine
 10
-47.0
 20
37.0
 30
0.0
 11
-54.0
 21
37.0
 31
0.0
  0
LINE
  5
3E9
100
AcDbEntity
  8
GLAS_MED_FOGNING
100
AcDbLine
 10
-40.0
 20
40.999
 30
0.0
 11
-40.0
 21
30.999
 31
0.0
  0
LINE
  5
3EA
100
AcDbEntity
  8
GLAS_MED_FOGNING
100
AcDbLine
 10
-40.0
 20
30.999
 30
0.0
 11
-45.0
 21
30.999
 31
0.0
  0
LINE
  5
3EB
100
AcDbEntity
  8
GLAS_MED_FOGNING
100
AcDbLine
 10
-40.0
 20
40.999
 30
0.0
 11
-45.0
 21
40.999
 31
0.0
  0
INSERT
  5
3EC
100
AcDbEntity
  8
GLAS_MED_FOGNING
100
AcDbBlockReference
  2
*X3
 10
-155.0
 20
-530.0
 30
0.0
1001
ACAD
1000
HATCH
1002
{
1070
    16
1000
HEX
1040
5.0
1040
0.0
1002
}
  0
LINE
  5
43F
100
AcDbEntity
  8
CENTRUM
100
AcDbLine
 10
-10.0
 20
62.5
 30
0.0
 11
-65.0
 21
62.5
 31
0.0
  0
ENDBLK
  5
441
100
AcDbEntity
  8
0
100
AcDbBlockEnd
  0
BLOCK
  5
462
100
AcDbEntity
  8
0
100
AcDbBlockBegin
  2
65_SP44020DK
 70
     0
 10
0.0
 20
0.0
 30
0.0
  3
65_SP44020DK
  1

  0
LINE
  5
446
100
AcDbEntity
  8
GLAS_MED_FOGNING
100
AcDbLine
 10
-54.0
 20
62.5
 30
0.0
 11
-54.0
 21
30.0
 31
0.0
  0
LINE
  5
447
100
AcDbEntity
  8
GLAS_MED_FOGNING
100
AcDbLine
 10
-55.0
 20
62.5
 30
0.0
 11
-55.0
 21
30.0
 31
0.0
  0
LINE
  5
448
100
AcDbEntity
  8
GLAS_MED_FOGNING
100
AcDbLine
 10
-56.0
 20
62.5
 30
0.0
 11
-56.0
 21
30.0
 31
0.0
  0
LINE
  5
449
100
AcDbEntity
  8
GLAS_MED_FOGNING
100
AcDbLine
 10
-45.0
 20
62.5
 30
0.0
 11
-45.0
 21
30.0
 31
0.0
  0
LINE
  5
44A
100
AcDbEntity
  8
GLAS_MED_FOGNING
100
AcDbLine
 10
-46.0
 20
62.5
 30
0.0
 11
-46.0
 21
30.0
 31
0.0
  0
LINE
  5
44B
100
AcDbEntity
  8
GLAS_MED_FOGNING
100
AcDbLine
 10
-47.0
 20
62.5
 30
0.0
 11
-47.0
 21
30.0
 31
0.0
  0
INSERT
  5
44C
100
AcDbEntity
  8
GLAS_MED_FOGNING
100
AcDbBlockReference
  2
*X4
 10
-70.0
 20
-530.0
 30
0.0
1001
ACAD
1000
HATCH
1002
{
1070
    16
1000
HEX
1040
5.0
1040
0.0
1002
}
  0
LINE
  5
44D
100
AcDbEntity
  8
GLAS_MED_FOGNING
100
AcDbLine
 10
-56.0
 20
30.999
 30
0.0
 11
-61.4
 21
30.999
 31
0.0
  0
LINE
  5
44E
100
AcDbEntity
  8
GLAS_MED_FOGNING
100
AcDbLine
 10
-56.0
 20
40.999
 30
0.0
 11
-61.4
 21
40.999
 31
0.0
  0
LINE
  5
44F
100
AcDbEntity
  8
GLAS_MED_FOGNING
100
AcDbLine
 10
-61.4
 20
40.999
 30
0.0
 11
-61.4
 21
30.999
 31
0.0
  0
INSERT
  5
450
100
AcDbEntity
  8
GLAS_MED_FOGNING
100
AcDbBlockReference
  2
SP44020
 10
0.0
 20
0.0
 30
0.0
  0
LINE
  5
451
100
AcDbEntity
  8
GLAS_MED_FOGNING
100
AcDbLine
 10
-54.0
 20
37.0
 30
0.0
 11
-47.0
 21
30.0
 31
0.0
  0
LINE
  5
452
100
AcDbEntity
  8
GLAS_MED_FOGNING
100
AcDbLine
 10
-47.0
 20
37.0
 30
0.0
 11
-54.0
 21
30.0
 31
0.0
  0
LINE
  5
453
100
AcDbEntity
  8
GLAS_MED_FOGNING
100
AcDbLine
 10
-56.0
 20
30.0
 30
0.0
 11
-56.0
 21
31.0
 31
0.0
  0
LINE
  5
454
100
AcDbEntity
  8
GLAS_MED_FOGNING
100
AcDbLine
 10
-45.0
 20
30.0
 30
0.0
 11
-45.0
 21
30.999
 31
0.0
  0
LINE
  5
455
100
AcDbEntity
  8
GLAS_MED_FOGNING
100
AcDbLine
 10
-45.0
 20
25.0
 30
0.0
 11
-56.0
 21
30.0
 31
0.0
  0
LINE
  5
456
100
AcDbEntity
  8
GLAS_MED_FOGNING
100
AcDbLine
 10
-56.0
 20
25.0
 30
0.0
 11
-45.0
 21
30.0
 31
0.0
  0
LINE
  5
457
100
AcDbEntity
  8
GLAS_MED_FOGNING
100
AcDbLine
 10
-45.0
 20
25.0
 30
0.0
 11
-45.0
 21
30.0
 31
0.0
  0
LINE
  5
458
100
AcDbEntity
  8
GLAS_MED_FOGNING
100
AcDbLine
 10
-56.0
 20
25.0
 30
0.0
 11
-45.0
 21
25.0
 31
0.0
  0
LINE
  5
459
100
AcDbEntity
  8
GLAS_MED_FOGNING
100
AcDbLine
 10
-56.0
 20
30.0
 30
0.0
 11
-56.0
 21
25.0
 31
0.0
  0
LINE
  5
45A
100
AcDbEntity
  8
GLAS_MED_FOGNING
100
AcDbLine
 10
-45.0
 20
30.0
 30
0.0
 11
-56.0
 21
30.0
 31
0.0
  0
INSERT
  5
45B
100
AcDbEntity
  8
GLAS_MED_FOGNING
100
AcDbBlockReference
  2
*X3
 10
-155.0
 20
-530.0
 30
0.0
1001
ACAD
1000
HATCH
1002
{
1070
    16
1000
HEX
1040
5.0
1040
0.0
1002
}
  0
LINE
  5
45C
100
AcDbEntity
  8
GLAS_MED_FOGNING
100
AcDbLine
 10
-40.0
 20
40.999
 30
0.0
 11
-45.0
 21
40.999
 31
0.0
  0
LINE
  5
45D
100
AcDbEntity
  8
GLAS_MED_FOGNING
100
AcDbLine
 10
-40.0
 20
30.999
 30
0.0
 11
-45.0
 21
30.999
 31
0.0
  0
LINE
  5
45E
100
AcDbEntity
  8
GLAS_MED_FOGNING
100
AcDbLine
 10
-40.0
 20
40.999
 30
0.0
 11
-40.0
 21
30.999
 31
0.0
  0
LINE
  5
45F
100
AcDbEntity
  8
GLAS_MED_FOGNING
100
AcDbLine
 10
-47.0
 20
37.0
 30
0.0
 11
-54.0
 21
37.0
 31
0.0
  0
LINE
  5
460
100
AcDbEntity
  8
GLAS_MED_FOGNING
100
AcDbLine
 10
-45.0
 20
40.999
 30
0.0
 11
-45.0
 21
30.999
 31
0.0
  0
LINE
  5
461
100
AcDbEntity
  8
CENTRUM
100
AcDbLine
 10
-10.0
 20
62.5
 30
0.0
 11
-65.0
 21
62.5
 31
0.0
  0
ENDBLK
  5
463
100
AcDbEntity
  8
0
100
AcDbBlockEnd
  0
BLOCK
  5
30
100
AcDbEntity
  8
0
100
AcDbBlockBegin
  2
SIDA
 70
     0
 10
0.0
 20
0.0
 30
0.0
  3
SIDA
  1

  0
LWPOLYLINE
  5
21
100
AcDbEntity
  8
RAM
 62
     5
100
AcDbPolyline
 90
        4
 70
     1
 43
0.0
 10
-20.0
 20
35.0
 10
-20.0
 20
560.0
 10
-380.0
 20
560.0
 10
-380.0
 20
35.0
  0
LINE
  5
23
100
AcDbEntity
  8
RAM
  6
DASHDOT
 62
     6
100
AcDbLine
 10
-260.0
 20
307.5
 30
0.0
 11
-260.0
 21
287.5
 31
0.0
  0
LINE
  5
25
100
AcDbEntity
  8
RAM
  6
DASHDOT
 62
     6
100
AcDbLine
 10
-270.0
 20
167.5
 30
0.0
 11
-250.0
 21
167.5
 31
0.0
  0
LINE
  5
26
100
AcDbEntity
  8
RAM
  6
DASHDOT
 62
     6
100
AcDbLine
 10
-260.0
 20
177.5
 30
0.0
 11
-260.0
 21
157.5
 31
0.0
  0
LINE
  5
27
100
AcDbEntity
  8
RAM
  6
DASHDOT
 62
     6
100
AcDbLine
 10
-270.0
 20
297.5
 30
0.0
 11
-250.0
 21
297.5
 31
0.0
  0
LINE
  5
28
100
AcDbEntity
  8
RAM
  6
DASHDOT
 62
     6
100
AcDbLine
 10
-270.0
 20
427.5
 30
0.0
 11
-250.0
 21
427.5
 31
0.0
  0
LINE
  5
29
100
AcDbEntity
  8
RAM
  6
DASHDOT
 62
     6
100
AcDbLine
 10
-260.0
 20
437.5
 30
0.0
 11
-260.0
 21
417.5
 31
0.0
  0
LINE
  5
2A
100
AcDbEntity
  8
RAM
  6
DASHDOT
 62
     6
100
AcDbLine
 10
-140.0
 20
307.5
 30
0.0
 11
-140.0
 21
287.5
 31
0.0
  0
LINE
  5
2B
100
AcDbEntity
  8
RAM
  6
DASHDOT
 62
     6
100
AcDbLine
 10
-140.0
 20
177.5
 30
0.0
 11
-140.0
 21
157.5
 31
0.0
  0
LINE
  5
2C
100
AcDbEntity
  8
RAM
  6
DASHDOT
 62
     6
100
AcDbLine
 10
-150.0
 20
167.5
 30
0.0
 11
-130.0
 21
167.5
 31
0.0
  0
LINE
  5
2D
100
AcDbEntity
  8
RAM
  6
DASHDOT
 62
     6
100
AcDbLine
 10
-150.0
 20
297.5
 30
0.0
 11
-130.0
 21
297.5
 31
0.0
  0
LINE
  5
2E
100
AcDbEntity
  8
RAM
  6
DASHDOT
 62
     6
100
AcDbLine
 10
-150.0
 20
427.5
 30
0.0
 11
-130.0
 21
427.5
 31
0.0
  0
LINE
  5
2F
100
AcDbEntity
  8
RAM
  6
DASHDOT
 62
     6
100
AcDbLine
 10
-140.0
 20
437.5
 30
0.0
 11
-140.0
 21
417.5
 31
0.0
  0
ENDBLK
  5
31
100
AcDbEntity
  8
0
100
AcDbBlockEnd
  0
BLOCK
  5
675
100
AcDbEntity
  8
0
100
AcDbBlockBegin
  2
SP40520
 70
     0
 10
0.0
 20
0.0
 30
0.0
  3
SP40520
  1

  0
LWPOLYLINE
  5
671
100
AcDbEntity
  8
SPKONTUR
100
AcDbPolyline
 90
       10
 70
     0
 43
0.0
 10
-15.0
 20
27.5
 10
-15.0
 20
26.75
 42
0.414214
 10
-13.25
 20
25.0
 10
-1.75
 20
25.0
 42
0.414214
 10
0.0
 20
26.75
 10
0.0
 20
43.75
 42
0.414214
 10
-1.25
 20
45.0
 10
-1.2501
 20
45.0
 42
0.414214
 10
-2.5
 20
43.7501
 10
-2.5
 20
39.0
  0
LWPOLYLINE
  5
672
100
AcDbEntity
  8
STALPROFIL
100
AcDbPolyline
 90
        9
 70
     0
 43
1.25
 10
-14.375
 20
27.5
 10
-14.375
 20
26.75
 42
0.414214
 10
-13.25
 20
25.625
 10
-1.75
 20
25.625
 42
0.414214
 10
-0.625
 20
26.75
 10
-0.625
 20
43.75
 42
0.414214
 10
-1.2501
 20
44.375
 42
0.414214
 10
-1.875
 20
43.7501
 10
-1.875
 20
39.0
  0
LWPOLYLINE
  5
673
100
AcDbEntity
  8
GLAS_MED_FOGNING
100
AcDbPolyline
 90
        9
 70
     0
 43
0.0
 10
-26.895347
 20
26.821776
 10
-25.0
 20
25.1
 10
-17.5
 20
25.099814
 42
0.315299
 10
-16.278378
 20
25.955158
 10
-15.496797
 20
28.102371
 42
-0.419684
 10
-15.107042
 20
28.279701
 10
-11.40871
 20
26.461158
 42
0.414233
 10
-9.670299
 20
27.059616
 10
-7.916703
 20
30.654738
  0
LINE
  5
674
100
AcDbEntity
  8
CENTRUM
100
AcDbLine
 10
-20.999975
 20
26.099901
 30
0.0
 11
-21.000124
 21
20.099901
 31
0.0
  0
ENDBLK
  5
676
100
AcDbEntity
  8
0
100
AcDbBlockEnd
  0
BLOCK
  5
142
100
AcDbEntity
  8
0
100
AcDbBlockBegin
  2
SP42020
 70
     0
 10
0.0
 20
0.0
 30
0.0
  3
SP42020
  1

  0
LWPOLYLINE
  5
13F
100
AcDbEntity
  8
SPKONTUR
100
AcDbPolyline
 90
       14
 70
     0
 43
0.0
 10
-2.629165
 20
30.000002
 10
-3.5
 20
26.749902
 42
0.41423
 10
-1.75
 20
25.000002
 42
0.414213
 10
0.0
 20
26.75
 10
0.0
 20
43.000002
 42
0.414214
 10
-2.0
 20
45.000002
 10
-7.5
 20
45.000002
 10
-18.0
 20
45.000002
 42
0.414214
 10
-20.0
 20
43.000002
 10
-20.0
 20
27.000002
 42
0.414214
 10
-18.0
 20
25.000002
 10
-13.5
 20
25.000002
 42
0.414214
 10
-11.5
 20
27.000002
 10
-12.303848
 20
30.000002
  0
LWPOLYLINE
  5
140
100
AcDbEntity
  8
STALPROFIL
100
AcDbPolyline
 90
       13
 70
     0
 43
1.25
 10
-2.02546
 20
29.838245
 10
-2.872606
 20
26.676555
 42
0.395246
 10
-1.75
 20
25.625002
 42
0.414213
 10
-0.625
 20
26.75
 10
-0.625
 20
43.000002
 42
0.414214
 10
-2.0
 20
44.375002
 10
-18.0
 20
44.375002
 42
0.414214
 10
-19.375
 20
43.000002
 10
-19.375
 20
27.000002
 42
0.414214
 10
-18.0
 20
25.625002
 10
-13.5
 20
25.625002
 42
0.398381
 10
-12.127031
 20
26.925298
 10
-12.907551
 20
29.83824
  0
INSERT
  5
141
100
AcDbEntity
  8
0
100
AcDbBlockReference
  2
SP40020
 10
5.5
 20
0.0
 30
0.0
  0
ENDBLK
  5
143
100
AcDbEntity
  8
0
100
AcDbBlockEnd
  0
BLOCK
  5
26B
100
AcDbEntity
  8
0
100
AcDbBlockBegin
  2
SP41020
 70
     0
 10
0.0
 20
0.0
 30
0.0
  3
SP41020
  1

  0
LWPOLYLINE
  5
263
100
AcDbEntity
  8
STALPROFIL
100
AcDbPolyline
 90
       10
 70
     0
 43
1.25
 10
-9.375
 20
27.5
 10
-9.375
 20
26.75
 42
0.414214
 10
-8.25
 20
25.625
 10
-1.75
 20
25.625
 42
0.414214
 10
-0.625
 20
26.75
 10
-0.625
 20
43.25
 42
0.414214
 10
-1.75
 20
44.375
 10
-8.25
 20
44.375
 42
0.414214
 10
-9.375
 20
43.25
 10
-9.375
 20
29.5
  0
LWPOLYLINE
  5
264
100
AcDbEntity
  8
SPKONTUR
100
AcDbPolyline
 90
       10
 70
     0
 43
0.0
 10
-10.0
 20
27.5
 10
-10.0
 20
26.75
 42
0.414214
 10
-8.25
 20
25.0
 10
-1.75
 20
25.0
 42
0.414214
 10
0.0
 20
26.75
 10
0.0
 20
43.25
 42
0.414214
 10
-1.75
 20
45.0
 10
-8.25
 20
45.0
 42
0.414214
 10
-10.0
 20
43.25
 10
-10.0
 20
29.5
  0
INSERT
  5
265
100
AcDbEntity
  8
GLAS_MED_FOGNING
100
AcDbBlockReference
  2
SP41000
 10
0.0
 20
0.0
 30
0.0
  0
ENDBLK
  5
26C
100
AcDbEntity
  8
0
100
AcDbBlockEnd
  0
BLOCK
  5
6B1
100
AcDbEntity
  8
0
100
AcDbBlockBegin
  2
*X22
 70
     1
 10
0.0
 20
0.0
 30
0.0
  3
*X22
  1

  0
LINE
  5
6A7
100
AcDbEntity
  8
0
 62
     0
100
AcDbLine
 10
-3.964252
 20
40.411648
 30
0.0
 11
-3.964252
 21
40.411648
 31
0.0
  0
LINE
  5
6A8
100
AcDbEntity
  8
0
 62
     0
100
AcDbLine
 10
-4.090239
 20
44.265296
 30
0.0
 11
-4.090239
 21
44.265296
 31
0.0
  0
LINE
  5
6A9
100
AcDbEntity
  8
0
 62
     0
100
AcDbLine
 10
-3.586292
 20
28.850706
 30
0.0
 11
-3.586292
 21
28.850706
 31
0.0
  0
LINE
  5
6AA
100
AcDbEntity
  8
0
 62
     0
100
AcDbLine
 10
-3.984846
 20
40.901794
 30
0.0
 11
-3.984846
 21
40.901794
 31
0.0
  0
LINE
  5
6AB
100
AcDbEntity
  8
0
 62
     0
100
AcDbLine
 10
-4.054438
 20
30.53603
 30
0.0
 11
-4.054438
 21
30.53603
 31
0.0
  0
LINE
  5
6AC
100
AcDbEntity
  8
0
 62
     0
100
AcDbLine
 10
-1.337879
 20
30.893671
 30
0.0
 11
-1.337879
 21
30.893671
 31
0.0
  0
LINE
  5
6AD
100
AcDbEntity
  8
0
 62
     0
100
AcDbLine
 10
-2.925486
 20
40.088272
 30
0.0
 11
-2.925486
 21
40.088272
 31
0.0
  0
LINE
  5
6AE
100
AcDbEntity
  8
0
 62
     0
100
AcDbLine
 10
-2.043656
 20
27.588967
 30
0.0
 11
-2.043656
 21
27.588967
 31
0.0
  0
LINE
  5
6AF
100
AcDbEntity
  8
0
 62
     0
100
AcDbLine
 10
-3.006559
 20
29.559094
 30
0.0
 11
-3.006559
 21
29.559094
 31
0.0
  0
LINE
  5
6B0
100
AcDbEntity
  8
0
 62
     0
100
AcDbLine
 10
-2.63792
 20
29.221299
 30
0.0
 11
-2.63792
 21
29.221299
 31
0.0
  0
ENDBLK
  5
6B2
100
AcDbEntity
  8
0
100
AcDbBlockEnd
  0
BLOCK
  5
318
100
AcDbEntity
  8
0
100
AcDbBlockBegin
  2
*X23
 70
     1
 10
0.0
 20
0.0
 30
0.0
  3
*X23
  1

  0
LINE
  5
310
100
AcDbEntity
  8
0
 62
     0
100
AcDbLine
 10
-43.410115
 20
41.746337
 30
0.0
 11
-43.410115
 21
41.746337
 31
0.0
  0
LINE
  5
311
100
AcDbEntity
  8
0
 62
     0
100
AcDbLine
 10
-41.887688
 20
41.090091
 30
0.0
 11
-41.887688
 21
41.090091
 31
0.0
  0
LINE
  5
312
100
AcDbEntity
  8
0
 62
     0
100
AcDbLine
 10
-41.015121
 20
46.383268
 30
0.0
 11
-41.015121
 21
46.383268
 31
0.0
  0
LINE
  5
313
100
AcDbEntity
  8
0
 62
     0
100
AcDbLine
 10
-44.259128
 20
42.545671
 30
0.0
 11
-44.259128
 21
42.545671
 31
0.0
  0
LINE
  5
314
100
AcDbEntity
  8
0
 62
     0
100
AcDbLine
 10
-41.910445
 20
45.028568
 30
0.0
 11
-41.910445
 21
45.028568
 31
0.0
  0
LINE
  5
315
100
AcDbEntity
  8
0
 62
     0
100
AcDbLine
 10
-41.067054
 20
44.491268
 30
0.0
 11
-41.067054
 21
44.491268
 31
0.0
  0
LINE
  5
316
100
AcDbEntity
  8
0
 62
     0
100
AcDbLine
 10
-41.539629
 20
43.074448
 30
0.0
 11
-41.539629
 21
43.074448
 31
0.0
  0
LINE
  5
317
100
AcDbEntity
  8
0
 62
     0
100
AcDbLine
 10
-41.17099
 20
42.736653
 30
0.0
 11
-41.17099
 21
42.736653
 31
0.0
  0
ENDBLK
  5
319
100
AcDbEntity
  8
0
100
AcDbBlockEnd
  0
BLOCK
  5
328
100
AcDbEntity
  8
0
100
AcDbBlockBegin
  2
*X24
 70
     1
 10
0.0
 20
0.0
 30
0.0
  3
*X24
  1

  0
LINE
  5
320
100
AcDbEntity
  8
0
 62
     0
100
AcDbLine
 10
-32.89215
 20
41.916415
 30
0.0
 11
-32.89215
 21
41.916415
 31
0.0
  0
LINE
  5
321
100
AcDbEntity
  8
0
 62
     0
100
AcDbLine
 10
-33.787584
 20
42.15649
 30
0.0
 11
-33.787584
 21
42.15649
 31
0.0
  0
LINE
  5
322
100
AcDbEntity
  8
0
 62
     0
100
AcDbLine
 10
-32.746566
 20
42.293542
 30
0.0
 11
-32.746566
 21
42.293542
 31
0.0
  0
LINE
  5
323
100
AcDbEntity
  8
0
 62
     0
100
AcDbLine
 10
-31.120597
 20
42.507605
 30
0.0
 11
-31.120597
 21
42.507605
 31
0.0
  0
LINE
  5
324
100
AcDbEntity
  8
0
 62
     0
100
AcDbLine
 10
-34.83877
 20
44.502586
 30
0.0
 11
-34.83877
 21
44.502586
 31
0.0
  0
LINE
  5
325
100
AcDbEntity
  8
0
 62
     0
100
AcDbLine
 10
-31.802561
 20
42.568308
 30
0.0
 11
-31.802561
 21
42.568308
 31
0.0
  0
LINE
  5
326
100
AcDbEntity
  8
0
 62
     0
100
AcDbLine
 10
-33.418762
 20
42.897611
 30
0.0
 11
-33.418762
 21
42.897611
 31
0.0
  0
LINE
  5
327
100
AcDbEntity
  8
0
 62
     0
100
AcDbLine
 10
-31.428114
 20
41.073518
 30
0.0
 11
-31.428114
 21
41.073518
 31
0.0
  0
ENDBLK
  5
329
100
AcDbEntity
  8
0
100
AcDbBlockEnd
  0
BLOCK
  5
2F6
100
AcDbEntity
  8
0
100
AcDbBlockBegin
  2
*X25
 70
     1
 10
0.0
 20
0.0
 30
0.0
  3
*X25
  1

  0
LINE
  5
2C9
100
AcDbEntity
  8
0
 62
     0
100
AcDbLine
 10
-32.388203
 20
26.501825
 30
0.0
 11
-32.388203
 21
26.501825
 31
0.0
  0
LINE
  5
2CA
100
AcDbEntity
  8
0
 62
     0
100
AcDbLine
 10
-29.976409
 20
28.35246
 30
0.0
 11
-29.976409
 21
28.35246
 31
0.0
  0
LINE
  5
2CB
100
AcDbEntity
  8
0
 62
     0
100
AcDbLine
 10
-27.279007
 20
30.422249
 30
0.0
 11
-27.279007
 21
30.422249
 31
0.0
  0
LINE
  5
2CC
100
AcDbEntity
  8
0
 62
     0
100
AcDbLine
 10
-37.789989
 20
26.307209
 30
0.0
 11
-37.789989
 21
26.307209
 31
0.0
  0
LINE
  5
2CD
100
AcDbEntity
  8
0
 62
     0
100
AcDbLine
 10
-35.092588
 20
28.376998
 30
0.0
 11
-35.092588
 21
28.376998
 31
0.0
  0
LINE
  5
2CE
100
AcDbEntity
  8
0
 62
     0
100
AcDbLine
 10
-42.906168
 20
26.331747
 30
0.0
 11
-42.906168
 21
26.331747
 31
0.0
  0
LINE
  5
2CF
100
AcDbEntity
  8
0
 62
     0
100
AcDbLine
 10
-40.32777
 20
28.310222
 30
0.0
 11
-40.32777
 21
28.310222
 31
0.0
  0
LINE
  5
2D0
100
AcDbEntity
  8
0
 62
     0
100
AcDbLine
 10
-45.729557
 20
28.115606
 30
0.0
 11
-45.729557
 21
28.115606
 31
0.0
  0
LINE
  5
2D1
100
AcDbEntity
  8
0
 62
     0
100
AcDbLine
 10
-43.032155
 20
30.185395
 30
0.0
 11
-43.032155
 21
30.185395
 31
0.0
  0
LINE
  5
2D2
100
AcDbEntity
  8
0
 62
     0
100
AcDbLine
 10
-27.153021
 20
26.568601
 30
0.0
 11
-27.153021
 21
26.568601
 31
0.0
  0
LINE
  5
2D3
100
AcDbEntity
  8
0
 62
     0
100
AcDbLine
 10
-44.406244
 20
25.223614
 30
0.0
 11
-44.406244
 21
25.223614
 31
0.0
  0
LINE
  5
2D4
100
AcDbEntity
  8
0
 62
     0
100
AcDbLine
 10
-43.365227
 20
25.360666
 30
0.0
 11
-43.365227
 21
25.360666
 31
0.0
  0
LINE
  5
2D5
100
AcDbEntity
  8
0
 62
     0
100
AcDbLine
 10
-41.739257
 20
25.574729
 30
0.0
 11
-41.739257
 21
25.574729
 31
0.0
  0
LINE
  5
2D6
100
AcDbEntity
  8
0
 62
     0
100
AcDbLine
 10
-39.022698
 20
25.932371
 30
0.0
 11
-39.022698
 21
25.932371
 31
0.0
  0
LINE
  5
2D7
100
AcDbEntity
  8
0
 62
     0
100
AcDbLine
 10
-37.981681
 20
26.069423
 30
0.0
 11
-37.981681
 21
26.069423
 31
0.0
  0
LINE
  5
2D8
100
AcDbEntity
  8
0
 62
     0
100
AcDbLine
 10
-36.355712
 20
26.283486
 30
0.0
 11
-36.355712
 21
26.283486
 31
0.0
  0
LINE
  5
2D9
100
AcDbEntity
  8
0
 62
     0
100
AcDbLine
 10
-33.639153
 20
26.641128
 30
0.0
 11
-33.639153
 21
26.641128
 31
0.0
  0
LINE
  5
2DA
100
AcDbEntity
  8
0
 62
     0
100
AcDbLine
 10
-32.598136
 20
26.778181
 30
0.0
 11
-32.598136
 21
26.778181
 31
0.0
  0
LINE
  5
2DB
100
AcDbEntity
  8
0
 62
     0
100
AcDbLine
 10
-30.972166
 20
26.992244
 30
0.0
 11
-30.972166
 21
26.992244
 31
0.0
  0
LINE
  5
2DC
100
AcDbEntity
  8
0
 62
     0
100
AcDbLine
 10
-28.255607
 20
27.349885
 30
0.0
 11
-28.255607
 21
27.349885
 31
0.0
  0
LINE
  5
2DD
100
AcDbEntity
  8
0
 62
     0
100
AcDbLine
 10
-27.21459
 20
27.486938
 30
0.0
 11
-27.21459
 21
27.486938
 31
0.0
  0
LINE
  5
2DE
100
AcDbEntity
  8
0
 62
     0
100
AcDbLine
 10
-25.58862
 20
27.701001
 30
0.0
 11
-25.58862
 21
27.701001
 31
0.0
  0
LINE
  5
2DF
100
AcDbEntity
  8
0
 62
     0
100
AcDbLine
 10
-46.250236
 20
30.159149
 30
0.0
 11
-46.250236
 21
30.159149
 31
0.0
  0
LINE
  5
2E0
100
AcDbEntity
  8
0
 62
     0
100
AcDbLine
 10
-45.209219
 20
30.296201
 30
0.0
 11
-45.209219
 21
30.296201
 31
0.0
  0
LINE
  5
2E1
100
AcDbEntity
  8
0
 62
     0
100
AcDbLine
 10
-43.583249
 20
30.510264
 30
0.0
 11
-43.583249
 21
30.510264
 31
0.0
  0
LINE
  5
2E2
100
AcDbEntity
  8
0
 62
     0
100
AcDbLine
 10
-43.292959
 20
29.992636
 30
0.0
 11
-43.292959
 21
29.992636
 31
0.0
  0
LINE
  5
2E3
100
AcDbEntity
  8
0
 62
     0
100
AcDbLine
 10
-42.449568
 20
29.455337
 30
0.0
 11
-42.449568
 21
29.455337
 31
0.0
  0
LINE
  5
2E4
100
AcDbEntity
  8
0
 62
     0
100
AcDbLine
 10
-39.413358
 20
27.521058
 30
0.0
 11
-39.413358
 21
27.521058
 31
0.0
  0
LINE
  5
2E5
100
AcDbEntity
  8
0
 62
     0
100
AcDbLine
 10
-36.221284
 20
29.466655
 30
0.0
 11
-36.221284
 21
29.466655
 31
0.0
  0
LINE
  5
2E6
100
AcDbEntity
  8
0
 62
     0
100
AcDbLine
 10
-33.185075
 20
27.532376
 30
0.0
 11
-33.185075
 21
27.532376
 31
0.0
  0
LINE
  5
2E7
100
AcDbEntity
  8
0
 62
     0
100
AcDbLine
 10
-29.221135
 20
25.007068
 30
0.0
 11
-29.221135
 21
25.007068
 31
0.0
  0
LINE
  5
2E8
100
AcDbEntity
  8
0
 62
     0
100
AcDbLine
 10
-29.993
 20
29.477973
 30
0.0
 11
-29.993
 21
29.477973
 31
0.0
  0
LINE
  5
2E9
100
AcDbEntity
  8
0
 62
     0
100
AcDbLine
 10
-26.956791
 20
27.543694
 30
0.0
 11
-26.956791
 21
27.543694
 31
0.0
  0
LINE
  5
2EA
100
AcDbEntity
  8
0
 62
     0
100
AcDbLine
 10
-45.641642
 20
27.50974
 30
0.0
 11
-45.641642
 21
27.50974
 31
0.0
  0
LINE
  5
2EB
100
AcDbEntity
  8
0
 62
     0
100
AcDbLine
 10
-34.885457
 20
29.712457
 30
0.0
 11
-34.885457
 21
29.712457
 31
0.0
  0
LINE
  5
2EC
100
AcDbEntity
  8
0
 62
     0
100
AcDbLine
 10
-33.145483
 20
28.118064
 30
0.0
 11
-33.145483
 21
28.118064
 31
0.0
  0
LINE
  5
2ED
100
AcDbEntity
  8
0
 62
     0
100
AcDbLine
 10
-31.154834
 20
26.293971
 30
0.0
 11
-31.154834
 21
26.293971
 31
0.0
  0
LINE
  5
2EE
100
AcDbEntity
  8
0
 62
     0
100
AcDbLine
 10
-30.786195
 20
25.956176
 30
0.0
 11
-30.786195
 21
25.956176
 31
0.0
  0
LINE
  5
2EF
100
AcDbEntity
  8
0
 62
     0
100
AcDbLine
 10
-27.13323
 20
29.873416
 30
0.0
 11
-27.13323
 21
29.873416
 31
0.0
  0
LINE
  5
2F0
100
AcDbEntity
  8
0
 62
     0
100
AcDbLine
 10
-25.142581
 20
28.049322
 30
0.0
 11
-25.142581
 21
28.049322
 31
0.0
  0
LINE
  5
2F1
100
AcDbEntity
  8
0
 62
     0
100
AcDbLine
 10
-43.256998
 20
30.118995
 30
0.0
 11
-43.256998
 21
30.118995
 31
0.0
  0
LINE
  5
2F2
100
AcDbEntity
  8
0
 62
     0
100
AcDbLine
 10
-41.266349
 20
28.294901
 30
0.0
 11
-41.266349
 21
28.294901
 31
0.0
  0
LINE
  5
2F3
100
AcDbEntity
  8
0
 62
     0
100
AcDbLine
 10
-40.89771
 20
27.957106
 30
0.0
 11
-40.89771
 21
27.957106
 31
0.0
  0
LINE
  5
2F4
100
AcDbEntity
  8
0
 62
     0
100
AcDbLine
 10
-39.157736
 20
26.362713
 30
0.0
 11
-39.157736
 21
26.362713
 31
0.0
  0
LINE
  5
2F5
100
AcDbEntity
  8
0
 62
     0
100
AcDbLine
 10
-46.909964
 20
26.201755
 30
0.0
 11
-46.909964
 21
26.201755
 31
0.0
  0
ENDBLK
  5
2F7
100
AcDbEntity
  8
0
100
AcDbBlockEnd
  0
BLOCK
  5
32B
100
AcDbEntity
  8
0
100
AcDbBlockBegin
  2
GLAS11-6X5
 70
     0
 10
0.0
 20
0.0
 30
0.0
  3
GLAS11-6X5
  1

  0
INSERT
  5
2C7
100
AcDbEntity
  8
GLAS_MED_FOGNING
100
AcDbBlockReference
  2
*X25
 10
50.0
 20
0.0
 30
0.0
1001
ACAD
1000
HATCH
1002
{
1070
    16
1000
AR-SAND
1040
2.0
1040
0.0
1002
}
  0
LINE
  5
2F8
100
AcDbEntity
  8
GLAS_MED_FOGNING
100
AcDbLine
 10
20.0
 20
49.0
 30
0.0
 11
20.0
 21
30.0
 31
0.0
  0
LINE
  5
2F9
100
AcDbEntity
  8
GLAS_MED_FOGNING
100
AcDbLine
 10
9.0
 20
49.0
 30
0.0
 11
9.0
 21
30.0
 31
0.0
  0
LINE
  5
2FA
100
AcDbEntity
  8
GLAS_MED_FOGNING
100
AcDbLine
 10
20.0
 20
30.0
 30
0.0
 11
9.0
 21
30.0
 31
0.0
  0
LINE
  5
2FB
100
AcDbEntity
  8
GLAS_MED_FOGNING
100
AcDbLine
 10
9.0
 20
37.0
 30
0.0
 11
3.0
 21
37.0
 31
0.0
  0
LINE
  5
2FC
100
AcDbEntity
  8
GLAS_MED_FOGNING
100
AcDbLine
 10
9.0
 20
36.0
 30
0.0
 11
3.0
 21
36.0
 31
0.0
  0
LINE
  5
2FD
100
AcDbEntity
  8
GLAS_MED_FOGNING
100
AcDbLine
 10
9.0
 20
35.0
 30
0.0
 11
3.0
 21
35.0
 31
0.0
  0
LINE
  5
2FE
100
AcDbEntity
  8
GLAS_MED_FOGNING
100
AcDbLine
 10
9.0
 20
33.0
 30
0.0
 11
3.0
 21
33.0
 31
0.0
  0
LINE
  5
2FF
100
AcDbEntity
  8
GLAS_MED_FOGNING
100
AcDbLine
 10
9.0
 20
34.0
 30
0.0
 11
3.0
 21
34.0
 31
0.0
  0
LINE
  5
300
100
AcDbEntity
  8
GLAS_MED_FOGNING
100
AcDbLine
 10
9.0
 20
32.0
 30
0.0
 11
3.0
 21
32.0
 31
0.0
  0
LINE
  5
301
100
AcDbEntity
  8
GLAS_MED_FOGNING
100
AcDbLine
 10
9.0
 20
31.0
 30
0.0
 11
3.0
 21
31.0
 31
0.0
  0
LINE
  5
302
100
AcDbEntity
  8
GLAS_MED_FOGNING
100
AcDbLine
 10
25.0
 20
32.0
 30
0.0
 11
20.0
 21
32.0
 31
0.0
  0
LINE
  5
303
100
AcDbEntity
  8
GLAS_MED_FOGNING
100
AcDbLine
 10
25.0
 20
33.0
 30
0.0
 11
20.0
 21
33.0
 31
0.0
  0
LINE
  5
304
100
AcDbEntity
  8
GLAS_MED_FOGNING
100
AcDbLine
 10
25.0
 20
34.0
 30
0.0
 11
20.0
 21
34.0
 31
0.0
  0
LINE
  5
305
100
AcDbEntity
  8
GLAS_MED_FOGNING
100
AcDbLine
 10
25.0
 20
35.0
 30
0.0
 11
20.0
 21
35.0
 31
0.0
  0
LINE
  5
306
100
AcDbEntity
  8
GLAS_MED_FOGNING
100
AcDbLine
 10
25.0
 20
36.0
 30
0.0
 11
20.0
 21
36.0
 31
0.0
  0
LINE
  5
307
100
AcDbEntity
  8
GLAS_MED_FOGNING
100
AcDbLine
 10
25.0
 20
37.0
 30
0.0
 11
20.0
 21
37.0
 31
0.0
  0
LINE
  5
308
100
AcDbEntity
  8
GLAS_MED_FOGNING
100
AcDbLine
 10
25.0
 20
31.0
 30
0.0
 11
20.0
 21
31.0
 31
0.0
  0
LINE
  5
309
100
AcDbEntity
  8
GLAS_MED_FOGNING
100
AcDbLine
 10
9.0
 20
41.0
 30
0.0
 11
3.0
 21
41.0
 31
0.0
  0
LINE
  5
30A
100
AcDbEntity
  8
GLAS_MED_FOGNING
100
AcDbLine
 10
9.0
 20
39.0
 30
0.0
 11
3.0
 21
39.0
 31
0.0
  0
LINE
  5
30B
100
AcDbEntity
  8
GLAS_MED_FOGNING
100
AcDbLine
 10
9.0
 20
40.0
 30
0.0
 11
3.0
 21
40.0
 31
0.0
  0
LINE
  5
30C
100
AcDbEntity
  8
GLAS_MED_FOGNING
100
AcDbLine
 10
9.0
 20
38.0
 30
0.0
 11
3.0
 21
38.0
 31
0.0
  0
ARC
  5
30D
100
AcDbEntity
  8
GLAS_MED_FOGNING
100
AcDbCircle
 10
3.0
 20
49.0
 30
0.0
 40
6.0
100
AcDbArc
 50
270.0
 51
0.0
  0
INSERT
  5
30E
100
AcDbEntity
  8
GLAS_MED_FOGNING
100
AcDbBlockReference
  2
*X23
 10
50.0
 20
0.0
 30
0.0
1001
ACAD
1000
HATCH
1002
{
1070
    16
1000
AR-SAND
1040
2.0
1040
0.0
1002
}
  0
LINE
  5
31A
100
AcDbEntity
  8
GLAS_MED_FOGNING
100
AcDbLine
 10
25.0
 20
38.0
 30
0.0
 11
20.0
 21
38.0
 31
0.0
  0
LINE
  5
31B
100
AcDbEntity
  8
GLAS_MED_FOGNING
100
AcDbLine
 10
25.0
 20
39.0
 30
0.0
 11
20.0
 21
39.0
 31
0.0
  0
LINE
  5
31C
100
AcDbEntity
  8
GLAS_MED_FOGNING
100
AcDbLine
 10
25.0
 20
40.0
 30
0.0
 11
20.0
 21
40.0
 31
0.0
  0
LINE
  5
31D
100
AcDbEntity
  8
GLAS_MED_FOGNING
100
AcDbLine
 10
25.0
 20
41.0
 30
0.0
 11
20.0
 21
41.0
 31
0.0
  0
INSERT
  5
31E
100
AcDbEntity
  8
GLAS_MED_FOGNING
100
AcDbBlockReference
  2
*X24
 10
55.0
 20
0.0
 30
0.0
1001
ACAD
1000
HATCH
1002
{
1070
    16
1000
AR-SAND
1040
2.0
1040
0.0
1002
}
  0
ARC
  5
32A
100
AcDbEntity
  8
GLAS_MED_FOGNING
100
AcDbCircle
 10
25.0
 20
48.0
 30
0.0
 40
5.0
100
AcDbArc
 50
180.0
 51
270.0
  0
ENDBLK
  5
32C
100
AcDbEntity
  8
0
100
AcDbBlockEnd
  0
BLOCK
  5
269
100
AcDbEntity
  8
0
100
AcDbBlockBegin
  2
SP41000
 70
     0
 10
0.0
 20
0.0
 30
0.0
  3
SP41000
  1

  0
LINE
  5
267
100
AcDbEntity
  8
CENTRUM
100
AcDbLine
 10
-15.999975
 20
26.099901
 30
0.0
 11
-16.000124
 21
20.099901
 31
0.0
  0
LWPOLYLINE
  5
268
100
AcDbEntity
  8
GLAS_MED_FOGNING
100
AcDbPolyline
 90
        9
 70
     0
 43
0.0
 10
-21.895347
 20
26.821776
 10
-20.0
 20
25.1
 10
-12.5
 20
25.099814
 42
0.315299
 10
-11.278378
 20
25.955158
 10
-10.496797
 20
28.102371
 42
-0.419684
 10
-10.107042
 20
28.279701
 10
-6.40871
 20
26.461158
 42
0.414233
 10
-4.670299
 20
27.059616
 10
-2.916703
 20
30.654738
  0
ENDBLK
  5
26A
100
AcDbEntity
  8
0
100
AcDbBlockEnd
  0
BLOCK
  5
24D
100
AcDbEntity
  8
0
100
AcDbBlockBegin
  2
*X28
 70
     1
 10
0.0
 20
0.0
 30
0.0
  3
*X28
  1

  0
LINE
  5
24C
100
AcDbEntity
  8
0
 62
     0
100
AcDbLine
 10
-59.163263
 20
41.509483
 30
0.0
 11
-59.163263
 21
41.509483
 31
0.0
  0
ENDBLK
  5
24E
100
AcDbEntity
  8
0
100
AcDbBlockEnd
  0
BLOCK
  5
25A
100
AcDbEntity
  8
0
100
AcDbBlockBegin
  2
*X29
 70
     1
 10
0.0
 20
0.0
 30
0.0
  3
*X29
  1

  0
LINE
  5
257
100
AcDbEntity
  8
0
 62
     0
100
AcDbLine
 10
-17.139002
 20
42.153269
 30
0.0
 11
-17.139002
 21
42.153269
 31
0.0
  0
LINE
  5
258
100
AcDbEntity
  8
0
 62
     0
100
AcDbLine
 10
-17.636947
 20
44.282762
 30
0.0
 11
-17.636947
 21
44.282762
 31
0.0
  0
LINE
  5
259
100
AcDbEntity
  8
0
 62
     0
100
AcDbLine
 10
-17.294994
 20
42.652032
 30
0.0
 11
-17.294994
 21
42.652032
 31
0.0
  0
ENDBLK
  5
25B
100
AcDbEntity
  8
0
100
AcDbBlockEnd
  0
BLOCK
  5
22D
100
AcDbEntity
  8
0
100
AcDbBlockBegin
  2
*X30
 70
     1
 10
0.0
 20
0.0
 30
0.0
  3
*X30
  1

  0
LINE
  5
224
100
AcDbEntity
  8
0
 62
     0
100
AcDbLine
 10
-58.659316
 20
26.094893
 30
0.0
 11
-58.659316
 21
26.094893
 31
0.0
  0
LINE
  5
225
100
AcDbEntity
  8
0
 62
     0
100
AcDbLine
 10
-61.482704
 20
27.878752
 30
0.0
 11
-61.482704
 21
27.878752
 31
0.0
  0
LINE
  5
226
100
AcDbEntity
  8
0
 62
     0
100
AcDbLine
 10
-58.785303
 20
29.948541
 30
0.0
 11
-58.785303
 21
29.948541
 31
0.0
  0
LINE
  5
227
100
AcDbEntity
  8
0
 62
     0
100
AcDbLine
 10
-61.359856
 20
28.169929
 30
0.0
 11
-61.359856
 21
28.169929
 31
0.0
  0
LINE
  5
228
100
AcDbEntity
  8
0
 62
     0
100
AcDbLine
 10
-59.733886
 20
28.383992
 30
0.0
 11
-59.733886
 21
28.383992
 31
0.0
  0
LINE
  5
229
100
AcDbEntity
  8
0
 62
     0
100
AcDbLine
 10
-61.97781
 20
29.958682
 30
0.0
 11
-61.97781
 21
29.958682
 31
0.0
  0
LINE
  5
22A
100
AcDbEntity
  8
0
 62
     0
100
AcDbLine
 10
-61.134419
 20
29.421382
 30
0.0
 11
-61.134419
 21
29.421382
 31
0.0
  0
LINE
  5
22B
100
AcDbEntity
  8
0
 62
     0
100
AcDbLine
 10
-58.098209
 20
27.487104
 30
0.0
 11
-58.098209
 21
27.487104
 31
0.0
  0
LINE
  5
22C
100
AcDbEntity
  8
0
 62
     0
100
AcDbLine
 10
-59.380766
 20
30.364574
 30
0.0
 11
-59.380766
 21
30.364574
 31
0.0
  0
ENDBLK
  5
22E
100
AcDbEntity
  8
0
100
AcDbBlockEnd
  0
BLOCK
  5
247
100
AcDbEntity
  8
0
100
AcDbBlockBegin
  2
*X31
 70
     1
 10
0.0
 20
0.0
 30
0.0
  3
*X31
  1

  0
LINE
  5
23E
100
AcDbEntity
  8
0
 62
     0
100
AcDbLine
 10
-16.635055
 20
26.738679
 30
0.0
 11
-16.635055
 21
26.738679
 31
0.0
  0
LINE
  5
23F
100
AcDbEntity
  8
0
 62
     0
100
AcDbLine
 10
-16.761042
 20
30.592326
 30
0.0
 11
-16.761042
 21
30.592326
 31
0.0
  0
LINE
  5
240
100
AcDbEntity
  8
0
 62
     0
100
AcDbLine
 10
-17.488516
 20
28.7674
 30
0.0
 11
-17.488516
 21
28.7674
 31
0.0
  0
LINE
  5
241
100
AcDbEntity
  8
0
 62
     0
100
AcDbLine
 10
-16.447499
 20
28.904452
 30
0.0
 11
-16.447499
 21
28.904452
 31
0.0
  0
LINE
  5
242
100
AcDbEntity
  8
0
 62
     0
100
AcDbLine
 10
-16.764567
 20
25.029704
 30
0.0
 11
-16.764567
 21
25.029704
 31
0.0
  0
LINE
  5
243
100
AcDbEntity
  8
0
 62
     0
100
AcDbLine
 10
-17.536433
 20
29.500609
 30
0.0
 11
-17.536433
 21
29.500609
 31
0.0
  0
LINE
  5
244
100
AcDbEntity
  8
0
 62
     0
100
AcDbLine
 10
-17.021714
 20
27.872485
 30
0.0
 11
-17.021714
 21
27.872485
 31
0.0
  0
LINE
  5
245
100
AcDbEntity
  8
0
 62
     0
100
AcDbLine
 10
-15.031066
 20
26.048392
 30
0.0
 11
-15.031066
 21
26.048392
 31
0.0
  0
LINE
  5
246
100
AcDbEntity
  8
0
 62
     0
100
AcDbLine
 10
-14.662427
 20
25.710596
 30
0.0
 11
-14.662427
 21
25.710596
 31
0.0
  0
ENDBLK
  5
248
100
AcDbEntity
  8
0
100
AcDbBlockEnd
  0
BLOCK
  5
25C
100
AcDbEntity
  8
0
100
AcDbBlockBegin
  2
GLAS30-4X3DK
 70
     0
 10
0.0
 20
0.0
 30
0.0
  3
GLAS30-4X3DK
  1

  0
LINE
  5
217
100
AcDbEntity
  8
GLAS_MED_FOGNING
100
AcDbLine
 10
7.0
 20
32.0
 30
0.0
 11
3.0
 21
32.0
 31
0.0
  0
LINE
  5
218
100
AcDbEntity
  8
GLAS_MED_FOGNING
100
AcDbLine
 10
7.0
 20
34.0
 30
0.0
 11
3.0
 21
34.0
 31
0.0
  0
LINE
  5
219
100
AcDbEntity
  8
GLAS_MED_FOGNING
100
AcDbLine
 10
7.0
 20
33.0
 30
0.0
 11
3.0
 21
33.0
 31
0.0
  0
LINE
  5
21A
100
AcDbEntity
  8
GLAS_MED_FOGNING
100
AcDbLine
 10
7.0
 20
35.0
 30
0.0
 11
3.0
 21
35.0
 31
0.0
  0
LINE
  5
21B
100
AcDbEntity
  8
GLAS_MED_FOGNING
100
AcDbLine
 10
7.0
 20
36.0
 30
0.0
 11
3.0
 21
36.0
 31
0.0
  0
LINE
  5
21C
100
AcDbEntity
  8
GLAS_MED_FOGNING
100
AcDbLine
 10
7.0
 20
38.0
 30
0.0
 11
3.0
 21
38.0
 31
0.0
  0
LINE
  5
21D
100
AcDbEntity
  8
GLAS_MED_FOGNING
100
AcDbLine
 10
7.0
 20
37.0
 30
0.0
 11
3.0
 21
37.0
 31
0.0
  0
LINE
  5
21E
100
AcDbEntity
  8
GLAS_MED_FOGNING
100
AcDbLine
 10
7.0
 20
40.0
 30
0.0
 11
3.0
 21
40.0
 31
0.0
  0
LINE
  5
21F
100
AcDbEntity
  8
GLAS_MED_FOGNING
100
AcDbLine
 10
7.0
 20
39.0
 30
0.0
 11
3.0
 21
39.0
 31
0.0
  0
LINE
  5
220
100
AcDbEntity
  8
GLAS_MED_FOGNING
100
AcDbLine
 10
7.0
 20
41.0
 30
0.0
 11
3.0
 21
41.0
 31
0.0
  0
LINE
  5
221
100
AcDbEntity
  8
GLAS_MED_FOGNING
100
AcDbLine
 10
7.0
 20
31.0
 30
0.0
 11
3.0
 21
31.0
 31
0.0
  0
INSERT
  5
222
100
AcDbEntity
  8
GLAS_MED_FOGNING
100
AcDbBlockReference
  2
*X30
 10
65.0
 20
0.0
 30
0.0
1001
ACAD
1000
HATCH
1002
{
1070
    16
1000
AR-SAND
1040
2.0
1040
0.0
1002
}
  0
ARC
  5
22F
100
AcDbEntity
  8
GLAS_MED_FOGNING
100
AcDbCircle
 10
3.0
 20
47.0
 30
0.0
 40
4.0
100
AcDbArc
 50
270.0
 51
0.0
  0
LINE
  5
230
100
AcDbEntity
  8
GLAS_MED_FOGNING
100
AcDbLine
 10
37.0
 20
49.0
 30
0.0
 11
37.0
 21
30.0
 31
0.0
  0
LINE
  5
231
100
AcDbEntity
  8
GLAS_MED_FOGNING
100
AcDbLine
 10
7.0
 20
49.0
 30
0.0
 11
7.0
 21
30.0
 31
0.0
  0
LINE
  5
232
100
AcDbEntity
  8
GLAS_MED_FOGNING
100
AcDbLine
 10
37.0
 20
30.0
 30
0.0
 11
7.0
 21
30.0
 31
0.0
  0
LINE
  5
233
100
AcDbEntity
  8
GLAS_MED_FOGNING
100
AcDbLine
 10
7.0
 20
30.0
 30
0.0
 11
37.0
 21
25.0
 31
0.0
  0
LINE
  5
234
100
AcDbEntity
  8
GLAS_MED_FOGNING
100
AcDbLine
 10
37.0
 20
30.0
 30
0.0
 11
7.0
 21
25.0
 31
0.0
  0
LINE
  5
235
100
AcDbEntity
  8
GLAS_MED_FOGNING
100
AcDbLine
 10
7.0
 20
30.0
 30
0.0
 11
7.0
 21
25.0
 31
0.0
  0
LINE
  5
236
100
AcDbEntity
  8
GLAS_MED_FOGNING
100
AcDbLine
 10
40.0
 20
32.0
 30
0.0
 11
37.0
 21
32.0
 31
0.0
  0
LINE
  5
237
100
AcDbEntity
  8
GLAS_MED_FOGNING
100
AcDbLine
 10
40.0
 20
33.0
 30
0.0
 11
37.0
 21
33.0
 31
0.0
  0
LINE
  5
238
100
AcDbEntity
  8
GLAS_MED_FOGNING
100
AcDbLine
 10
40.0
 20
34.0
 30
0.0
 11
37.0
 21
34.0
 31
0.0
  0
LINE
  5
239
100
AcDbEntity
  8
GLAS_MED_FOGNING
100
AcDbLine
 10
40.0
 20
35.0
 30
0.0
 11
37.0
 21
35.0
 31
0.0
  0
LINE
  5
23A
100
AcDbEntity
  8
GLAS_MED_FOGNING
100
AcDbLine
 10
40.0
 20
36.0
 30
0.0
 11
37.0
 21
36.0
 31
0.0
  0
LINE
  5
23B
100
AcDbEntity
  8
GLAS_MED_FOGNING
100
AcDbLine
 10
40.0
 20
31.0
 30
0.0
 11
37.0
 21
31.0
 31
0.0
  0
INSERT
  5
23C
100
AcDbEntity
  8
GLAS_MED_FOGNING
100
AcDbBlockReference
  2
*X31
 10
55.0
 20
0.0
 30
0.0
1001
ACAD
1000
HATCH
1002
{
1070
    16
1000
AR-SAND
1040
2.0
1040
0.0
1002
}
  0
LINE
  5
249
100
AcDbEntity
  8
GLAS_MED_FOGNING
100
AcDbLine
 10
37.0
 20
30.0
 30
0.0
 11
37.0
 21
25.0
 31
0.0
  0
INSERT
  5
24A
100
AcDbEntity
  8
GLAS_MED_FOGNING
100
AcDbBlockReference
  2
*X28
 10
65.0
 20
0.0
 30
0.0
1001
ACAD
1000
HATCH
1002
{
1070
    16
1000
AR-SAND
1040
2.0
1040
0.0
1002
}
  0
LINE
  5
24F
100
AcDbEntity
  8
GLAS_MED_FOGNING
100
AcDbLine
 10
40.0
 20
37.0
 30
0.0
 11
37.0
 21
37.0
 31
0.0
  0
LINE
  5
250
100
AcDbEntity
  8
GLAS_MED_FOGNING
100
AcDbLine
 10
40.0
 20
38.0
 30
0.0
 11
37.0
 21
38.0
 31
0.0
  0
LINE
  5
251
100
AcDbEntity
  8
GLAS_MED_FOGNING
100
AcDbLine
 10
40.0
 20
39.0
 30
0.0
 11
37.0
 21
39.0
 31
0.0
  0
LINE
  5
252
100
AcDbEntity
  8
GLAS_MED_FOGNING
100
AcDbLine
 10
40.0
 20
40.0
 30
0.0
 11
37.0
 21
40.0
 31
0.0
  0
LINE
  5
253
100
AcDbEntity
  8
GLAS_MED_FOGNING
100
AcDbLine
 10
40.0
 20
41.0
 30
0.0
 11
37.0
 21
41.0
 31
0.0
  0
ARC
  5
254
100
AcDbEntity
  8
GLAS_MED_FOGNING
100
AcDbCircle
 10
40.0
 20
46.0
 30
0.0
 40
3.0
100
AcDbArc
 50
180.0
 51
270.0
  0
INSERT
  5
255
100
AcDbEntity
  8
GLAS_MED_FOGNING
100
AcDbBlockReference
  2
*X29
 10
55.0
 20
0.0
 30
0.0
1001
ACAD
1000
HATCH
1002
{
1070
    16
1000
AR-SAND
1040
2.0
1040
0.0
1002
}
  0
ENDBLK
  5
25D
100
AcDbEntity
  8
0
100
AcDbBlockEnd
  0
BLOCK
  5
68F
100
AcDbEntity
  8
0
100
AcDbBlockBegin
  2
*X33
 70
     1
 10
0.0
 20
0.0
 30
0.0
  3
*X33
  1

  0
LINE
  5
682
100
AcDbEntity
  8
0
 62
     0
100
AcDbLine
 10
-46.107517
 20
39.676548
 30
0.0
 11
-46.107517
 21
39.676548
 31
0.0
  0
LINE
  5
683
100
AcDbEntity
  8
0
 62
     0
100
AcDbLine
 10
-45.729557
 20
28.115606
 30
0.0
 11
-45.729557
 21
28.115606
 31
0.0
  0
LINE
  5
684
100
AcDbEntity
  8
0
 62
     0
100
AcDbLine
 10
-46.250236
 20
30.159149
 30
0.0
 11
-46.250236
 21
30.159149
 31
0.0
  0
LINE
  5
685
100
AcDbEntity
  8
0
 62
     0
100
AcDbLine
 10
-45.209219
 20
30.296201
 30
0.0
 11
-45.209219
 21
30.296201
 31
0.0
  0
LINE
  5
686
100
AcDbEntity
  8
0
 62
     0
100
AcDbLine
 10
-44.554675
 20
40.738976
 30
0.0
 11
-44.554675
 21
40.738976
 31
0.0
  0
LINE
  5
687
100
AcDbEntity
  8
0
 62
     0
100
AcDbLine
 10
-44.406244
 20
25.223614
 30
0.0
 11
-44.406244
 21
25.223614
 31
0.0
  0
LINE
  5
688
100
AcDbEntity
  8
0
 62
     0
100
AcDbLine
 10
-43.365227
 20
25.360666
 30
0.0
 11
-43.365227
 21
25.360666
 31
0.0
  0
LINE
  5
689
100
AcDbEntity
  8
0
 62
     0
100
AcDbLine
 10
-46.523472
 20
40.009045
 30
0.0
 11
-46.523472
 21
40.009045
 31
0.0
  0
LINE
  5
68A
100
AcDbEntity
  8
0
 62
     0
100
AcDbLine
 10
-45.680081
 20
39.471746
 30
0.0
 11
-45.680081
 21
39.471746
 31
0.0
  0
LINE
  5
68B
100
AcDbEntity
  8
0
 62
     0
100
AcDbLine
 10
-44.259128
 20
42.545671
 30
0.0
 11
-44.259128
 21
42.545671
 31
0.0
  0
LINE
  5
68C
100
AcDbEntity
  8
0
 62
     0
100
AcDbLine
 10
-45.641642
 20
27.50974
 30
0.0
 11
-45.641642
 21
27.50974
 31
0.0
  0
LINE
  5
68D
100
AcDbEntity
  8
0
 62
     0
100
AcDbLine
 10
-45.443269
 20
39.386909
 30
0.0
 11
-45.443269
 21
39.386909
 31
0.0
  0
LINE
  5
68E
100
AcDbEntity
  8
0
 62
     0
100
AcDbLine
 10
-46.909964
 20
26.201755
 30
0.0
 11
-46.909964
 21
26.201755
 31
0.0
  0
ENDBLK
  5
690
100
AcDbEntity
  8
0
100
AcDbBlockEnd
  0
BLOCK
  5
69C
100
AcDbEntity
  8
0
100
AcDbBlockBegin
  2
FYLLNV
 70
     0
 10
0.0
 20
0.0
 30
0.0
  3
FYLLNV
  1

  0
LWPOLYLINE
  5
67E
100
AcDbEntity
  8
SPKONTUR
100
AcDbPolyline
 90
        2
 70
     0
 43
0.0
 10
6.0
 20
29.0
 10
6.0
 20
46.001
  0
LWPOLYLINE
  5
67F
100
AcDbEntity
  8
STALPROFIL
100
AcDbPolyline
 90
        2
 70
     0
 43
2.0
 10
7.0
 20
29.0
 10
7.0
 20
46.001
  0
INSERT
  5
680
100
AcDbEntity
  8
GLAS_MED_FOGNING
100
AcDbBlockReference
  2
*X33
 10
50.0
 20
0.0
 30
0.0
1001
ACAD
1000
HATCH
1002
{
1070
    16
1000
AR-SAND
1040
2.0
1040
0.0
1002
}
  0
ARC
  5
691
100
AcDbEntity
  8
GLAS_MED_FOGNING
100
AcDbCircle
 10
12.0
 20
29.0
 30
0.0
 40
6.0
100
AcDbArc
 50
180.0
 51
221.810315
  0
LINE
  5
692
100
AcDbEntity
  8
GLAS_MED_FOGNING
100
AcDbLine
 10
3.0
 20
35.0
 30
0.0
 11
6.0
 21
35.0
 31
0.0
  0
LINE
  5
693
100
AcDbEntity
  8
GLAS_MED_FOGNING
100
AcDbLine
 10
3.0
 20
38.0
 30
0.0
 11
6.0
 21
38.0
 31
0.0
  0
LINE
  5
694
100
AcDbEntity
  8
GLAS_MED_FOGNING
100
AcDbLine
 10
3.0
 20
37.0
 30
0.0
 11
6.0
 21
37.0
 31
0.0
  0
LINE
  5
695
100
AcDbEntity
  8
GLAS_MED_FOGNING
100
AcDbLine
 10
3.0
 20
36.0
 30
0.0
 11
6.0
 21
36.0
 31
0.0
  0
LINE
  5
696
100
AcDbEntity
  8
GLAS_MED_FOGNING
100
AcDbLine
 10
3.0
 20
39.0
 30
0.0
 11
6.0
 21
39.0
 31
0.0
  0
LINE
  5
697
100
AcDbEntity
  8
GLAS_MED_FOGNING
100
AcDbLine
 10
3.0
 20
34.0
 30
0.0
 11
6.0
 21
34.0
 31
0.0
  0
LINE
  5
698
100
AcDbEntity
  8
GLAS_MED_FOGNING
100
AcDbLine
 10
3.0
 20
31.0
 30
0.0
 11
6.0
 21
31.0
 31
0.0
  0
LINE
  5
699
100
AcDbEntity
  8
GLAS_MED_FOGNING
100
AcDbLine
 10
3.0
 20
33.0
 30
0.0
 11
6.0
 21
33.0
 31
0.0
  0
LINE
  5
69A
100
AcDbEntity
  8
GLAS_MED_FOGNING
100
AcDbLine
 10
3.0
 20
32.0
 30
0.0
 11
6.0
 21
32.0
 31
0.0
  0
ARC
  5
69B
100
AcDbEntity
  8
GLAS_MED_FOGNING
100
AcDbCircle
 10
3.0
 20
46.001
 30
0.0
 40
3.0
100
AcDbArc
 50
270.0
 51
0.0
  0
ENDBLK
  5
69D
100
AcDbEntity
  8
0
100
AcDbBlockEnd
  0
BLOCK
  5
6BE
100
AcDbEntity
  8
0
100
AcDbBlockBegin
  2
FYLLNH
 70
     0
 10
0.0
 20
0.0
 30
0.0
  3
FYLLNH
  1

  0
LWPOLYLINE
  5
6A3
100
AcDbEntity
  8
SPKONTUR
100
AcDbPolyline
 90
        2
 70
     0
 43
0.0
 10
-4.25
 20
29.0
 10
-4.25
 20
46.001
  0
LWPOLYLINE
  5
6A4
100
AcDbEntity
  8
STALPROFIL
100
AcDbPolyline
 90
        2
 70
     0
 43
2.0
 10
-5.25
 20
29.0
 10
-5.25
 20
46.001
  0
INSERT
  5
6A5
100
AcDbEntity
  8
GLAS_MED_FOGNING
100
AcDbBlockReference
  2
*X22
 10
0.0
 20
0.0
 30
0.0
1001
ACAD
1000
HATCH
1002
{
1070
    16
1000
AR-SAND
1040
2.0
1040
0.0
1002
}
  0
ARC
  5
6B3
100
AcDbEntity
  8
GLAS_MED_FOGNING
100
AcDbCircle
 10
-10.25
 20
29.0
 30
0.0
 40
6.0
100
AcDbArc
 50
332.720387
 51
0.0
  0
LINE
  5
6B4
100
AcDbEntity
  8
GLAS_MED_FOGNING
100
AcDbLine
 10
-1.25
 20
31.0
 30
0.0
 11
-4.25
 21
31.0
 31
0.0
  0
LINE
  5
6B5
100
AcDbEntity
  8
GLAS_MED_FOGNING
100
AcDbLine
 10
-1.25
 20
33.0
 30
0.0
 11
-4.25
 21
33.0
 31
0.0
  0
LINE
  5
6B6
100
AcDbEntity
  8
GLAS_MED_FOGNING
100
AcDbLine
 10
-1.25
 20
32.0
 30
0.0
 11
-4.25
 21
32.0
 31
0.0
  0
LINE
  5
6B7
100
AcDbEntity
  8
GLAS_MED_FOGNING
100
AcDbLine
 10
-1.25
 20
34.0
 30
0.0
 11
-4.25
 21
34.0
 31
0.0
  0
LINE
  5
6B8
100
AcDbEntity
  8
GLAS_MED_FOGNING
100
AcDbLine
 10
-1.25
 20
39.0
 30
0.0
 11
-4.25
 21
39.0
 31
0.0
  0
LINE
  5
6B9
100
AcDbEntity
  8
GLAS_MED_FOGNING
100
AcDbLine
 10
-1.25
 20
38.0
 30
0.0
 11
-4.25
 21
38.0
 31
0.0
  0
LINE
  5
6BA
100
AcDbEntity
  8
GLAS_MED_FOGNING
100
AcDbLine
 10
-1.25
 20
37.0
 30
0.0
 11
-4.25
 21
37.0
 31
0.0
  0
LINE
  5
6BB
100
AcDbEntity
  8
GLAS_MED_FOGNING
100
AcDbLine
 10
-1.25
 20
36.0
 30
0.0
 11
-4.25
 21
36.0
 31
0.0
  0
LINE
  5
6BC
100
AcDbEntity
  8
GLAS_MED_FOGNING
100
AcDbLine
 10
-1.25
 20
35.0
 30
0.0
 11
-4.25
 21
35.0
 31
0.0
  0
ARC
  5
6BD
100
AcDbEntity
  8
GLAS_MED_FOGNING
100
AcDbCircle
 10
-2.5
 20
45.5001
 30
0.0
 40
1.75
100
AcDbArc
 50
180.0
 51
270.0
  0
ENDBLK
  5
6BF
100
AcDbEntity
  8
0
100
AcDbBlockEnd
  0
BLOCK
  5
701
100
AcDbEntity
  8
0
100
AcDbBlockBegin
  2
65_SP43020DK
 70
     0
 10
0.0
 20
0.0
 30
0.0
  3
65_SP43020DK
  1

  0
LINE
  5
6E5
100
AcDbEntity
  8
GLAS_MED_FOGNING
100
AcDbLine
 10
-37.0
 20
62.5
 30
0.0
 11
-37.0
 21
30.0
 31
0.0
  0
LINE
  5
6E6
100
AcDbEntity
  8
GLAS_MED_FOGNING
100
AcDbLine
 10
-36.0
 20
62.5
 30
0.0
 11
-36.0
 21
30.0
 31
0.0
  0
LINE
  5
6E7
100
AcDbEntity
  8
GLAS_MED_FOGNING
100
AcDbLine
 10
-35.0
 20
62.5
 30
0.0
 11
-35.0
 21
30.0
 31
0.0
  0
LINE
  5
6E8
100
AcDbEntity
  8
GLAS_MED_FOGNING
100
AcDbLine
 10
-54.0
 20
62.5
 30
0.0
 11
-54.0
 21
30.0
 31
0.0
  0
LINE
  5
6E9
100
AcDbEntity
  8
GLAS_MED_FOGNING
100
AcDbLine
 10
-55.0
 20
62.5
 30
0.0
 11
-55.0
 21
30.0
 31
0.0
  0
LINE
  5
6EA
100
AcDbEntity
  8
GLAS_MED_FOGNING
100
AcDbLine
 10
-56.0
 20
62.5
 30
0.0
 11
-56.0
 21
30.0
 31
0.0
  0
LINE
  5
6EB
100
AcDbEntity
  8
GLAS_MED_FOGNING
100
AcDbLine
 10
-37.0
 20
37.0
 30
0.0
 11
-54.0
 21
30.0
 31
0.0
  0
LINE
  5
6EC
100
AcDbEntity
  8
GLAS_MED_FOGNING
100
AcDbLine
 10
-54.0
 20
37.0
 30
0.0
 11
-37.0
 21
30.0
 31
0.0
  0
LINE
  5
6ED
100
AcDbEntity
  8
GLAS_MED_FOGNING
100
AcDbLine
 10
-35.0
 20
25.0
 30
0.0
 11
-56.0
 21
30.0
 31
0.0
  0
LINE
  5
6EE
100
AcDbEntity
  8
GLAS_MED_FOGNING
100
AcDbLine
 10
-56.0
 20
25.0
 30
0.0
 11
-35.0
 21
30.0
 31
0.0
  0
LINE
  5
6EF
100
AcDbEntity
  8
GLAS_MED_FOGNING
100
AcDbLine
 10
-56.0
 20
25.0
 30
0.0
 11
-35.0
 21
25.0
 31
0.0
  0
LINE
  5
6F0
100
AcDbEntity
  8
GLAS_MED_FOGNING
100
AcDbLine
 10
-35.0
 20
30.0
 30
0.0
 11
-56.0
 21
30.0
 31
0.0
  0
LINE
  5
6F1
100
AcDbEntity
  8
GLAS_MED_FOGNING
100
AcDbLine
 10
-37.0
 20
37.0
 30
0.0
 11
-54.0
 21
37.0
 31
0.0
  0
INSERT
  5
6F2
100
AcDbEntity
  8
GLAS_MED_FOGNING
100
AcDbBlockReference
  2
*X4
 10
-70.0
 20
-530.0
 30
0.0
1001
ACAD
1000
HATCH
1002
{
1070
    16
1000
HEX
1040
5.0
1040
0.0
1002
}
  0
LINE
  5
6F3
100
AcDbEntity
  8
GLAS_MED_FOGNING
100
AcDbLine
 10
-56.0
 20
40.999
 30
0.0
 11
-61.4
 21
40.999
 31
0.0
  0
LINE
  5
6F4
100
AcDbEntity
  8
GLAS_MED_FOGNING
100
AcDbLine
 10
-56.0
 20
30.999
 30
0.0
 11
-61.4
 21
30.999
 31
0.0
  0
LINE
  5
6F5
100
AcDbEntity
  8
GLAS_MED_FOGNING
100
AcDbLine
 10
-61.4
 20
40.999
 30
0.0
 11
-61.4
 21
30.999
 31
0.0
  0
LINE
  5
6F6
100
AcDbEntity
  8
GLAS_MED_FOGNING
100
AcDbLine
 10
-56.0
 20
30.0
 30
0.0
 11
-56.0
 21
31.0
 31
0.0
  0
LINE
  5
6F7
100
AcDbEntity
  8
GLAS_MED_FOGNING
100
AcDbLine
 10
-56.0
 20
30.0
 30
0.0
 11
-56.0
 21
25.0
 31
0.0
  0
INSERT
  5
6F8
100
AcDbEntity
  8
TEXT
100
AcDbBlockReference
  2
SP43020
 10
0.0
 20
0.0
 30
0.0
  0
INSERT
  5
6F9
100
AcDbEntity
  8
GLAS_MED_FOGNING
100
AcDbBlockReference
  2
*X3
 10
-145.0
 20
-530.0
 30
0.0
1001
ACAD
1000
HATCH
1002
{
1070
    16
1000
HEX
1040
5.0
1040
0.0
1002
}
  0
LINE
  5
6FA
100
AcDbEntity
  8
GLAS_MED_FOGNING
100
AcDbLine
 10
-30.0
 20
40.999
 30
0.0
 11
-30.0
 21
30.999
 31
0.0
  0
LINE
  5
6FB
100
AcDbEntity
  8
GLAS_MED_FOGNING
100
AcDbLine
 10
-35.0
 20
40.999
 30
0.0
 11
-35.0
 21
30.999
 31
0.0
  0
LINE
  5
6FC
100
AcDbEntity
  8
GLAS_MED_FOGNING
100
AcDbLine
 10
-30.0
 20
40.999
 30
0.0
 11
-35.0
 21
40.999
 31
0.0
  0
LINE
  5
6FD
100
AcDbEntity
  8
GLAS_MED_FOGNING
100
AcDbLine
 10
-35.0
 20
30.0
 30
0.0
 11
-35.0
 21
30.999
 31
0.0
  0
LINE
  5
6FE
100
AcDbEntity
  8
GLAS_MED_FOGNING
100
AcDbLine
 10
-30.0
 20
30.999
 30
0.0
 11
-35.0
 21
30.999
 31
0.0
  0
LINE
  5
6FF
100
AcDbEntity
  8
GLAS_MED_FOGNING
100
AcDbLine
 10
-35.0
 20
25.0
 30
0.0
 11
-35.0
 21
30.0
 31
0.0
  0
LINE
  5
700
100
AcDbEntity
  8
CENTRUM
100
AcDbLine
 10
-10.0
 20
62.5
 30
0.0
 11
-65.0
 21
62.5
 31
0.0
  0
ENDBLK
  5
702
100
AcDbEntity
  8
0
100
AcDbBlockEnd
  0
BLOCK
  5
481
100
AcDbEntity
  8
0
100
AcDbBlockBegin
  2
65_SP42020TRI
 70
     0
 10
0.0
 20
0.0
 30
0.0
  3
65_SP42020TRI
  1

  0
LINE
  5
466
100
AcDbEntity
  8
GLAS_MED_FOGNING
100
AcDbLine
 10
-41.0
 20
62.499998
 30
0.0
 11
-41.0
 21
29.999998
 31
0.0
  0
LINE
  5
467
100
AcDbEntity
  8
GLAS_MED_FOGNING
100
AcDbLine
 10
-42.0
 20
62.499998
 30
0.0
 11
-42.0
 21
29.999998
 31
0.0
  0
LINE
  5
468
100
AcDbEntity
  8
GLAS_MED_FOGNING
100
AcDbLine
 10
-25.0
 20
62.499998
 30
0.0
 11
-25.0
 21
29.999998
 31
0.0
  0
LINE
  5
469
100
AcDbEntity
  8
GLAS_MED_FOGNING
100
AcDbLine
 10
-26.0
 20
62.499998
 30
0.0
 11
-26.0
 21
29.999998
 31
0.0
  0
LINE
  5
46A
100
AcDbEntity
  8
GLAS_MED_FOGNING
100
AcDbLine
 10
-27.0
 20
62.499998
 30
0.0
 11
-27.0
 21
29.999998
 31
0.0
  0
LINE
  5
46B
100
AcDbEntity
  8
GLAS_MED_FOGNING
100
AcDbLine
 10
-40.0
 20
62.499998
 30
0.0
 11
-40.0
 21
29.999998
 31
0.0
  0
INSERT
  5
46C
100
AcDbEntity
  8
GLAS_MED_FOGNING
100
AcDbBlockReference
  2
SP42020
 10
0.0
 20
0.0
 30
0.0
  0
LINE
  5
46D
100
AcDbEntity
  8
GLAS_MED_FOGNING
100
AcDbLine
 10
-40.0
 20
37.848933
 30
0.0
 11
-27.0
 21
37.848933
 31
0.0
  0
LINE
  5
46E
100
AcDbEntity
  8
GLAS_MED_FOGNING
100
AcDbLine
 10
-27.0
 20
37.848933
 30
0.0
 11
-40.0
 21
29.999998
 31
0.0
  0
LINE
  5
46F
100
AcDbEntity
  8
GLAS_MED_FOGNING
100
AcDbLine
 10
-40.0
 20
37.848933
 30
0.0
 11
-27.0
 21
29.999998
 31
0.0
  0
INSERT
  5
470
100
AcDbEntity
  8
GLAS_MED_FOGNING
100
AcDbBlockReference
  2
*X2
 10
-195.0
 20
-75.000002
 30
0.0
1001
ACAD
1000
HATCH
1002
{
1070
    16
1000
HEX
1040
5.0
1040
0.0
1002
}
  0
LINE
  5
471
100
AcDbEntity
  8
GLAS_MED_FOGNING
100
AcDbLine
 10
-42.0
 20
37.848933
 30
0.0
 11
-54.0
 21
29.999998
 31
0.0
  0
LINE
  5
472
100
AcDbEntity
  8
GLAS_MED_FOGNING
100
AcDbLine
 10
-54.0
 20
37.848933
 30
0.0
 11
-42.0
 21
29.999998
 31
0.0
  0
LINE
  5
473
100
AcDbEntity
  8
GLAS_MED_FOGNING
100
AcDbLine
 10
-54.0
 20
37.848933
 30
0.0
 11
-42.0
 21
37.848933
 31
0.0
  0
LINE
  5
474
100
AcDbEntity
  8
GLAS_MED_FOGNING
100
AcDbLine
 10
-20.0
 20
40.998998
 30
0.0
 11
-25.0
 21
40.998998
 31
0.0
  0
LINE
  5
475
100
AcDbEntity
  8
GLAS_MED_FOGNING
100
AcDbLine
 10
-20.0
 20
40.998998
 30
0.0
 11
-20.0
 21
30.998998
 31
0.0
  0
LINE
  5
476
100
AcDbEntity
  8
GLAS_MED_FOGNING
100
AcDbLine
 10
-25.0
 20
40.998998
 30
0.0
 11
-25.0
 21
30.998998
 31
0.0
  0
LINE
  5
477
100
AcDbEntity
  8
CENTRUM
100
AcDbLine
 10
0.0
 20
62.499998
 30
0.0
 11
-65.0
 21
62.499998
 31
0.0
  0
LINE
  5
478
100
AcDbEntity
  8
GLAS_MED_FOGNING
100
AcDbLine
 10
-56.0
 20
62.499998
 30
0.0
 11
-56.0
 21
29.999998
 31
0.0
  0
LINE
  5
479
100
AcDbEntity
  8
GLAS_MED_FOGNING
100
AcDbLine
 10
-55.0
 20
62.499998
 30
0.0
 11
-55.0
 21
29.999998
 31
0.0
  0
LINE
  5
47A
100
AcDbEntity
  8
GLAS_MED_FOGNING
100
AcDbLine
 10
-54.0
 20
62.499998
 30
0.0
 11
-54.0
 21
29.999998
 31
0.0
  0
LINE
  5
47B
100
AcDbEntity
  8
GLAS_MED_FOGNING
100
AcDbLine
 10
-25.0
 20
29.999998
 30
0.0
 11
-56.0
 21
29.999998
 31
0.0
  0
LINE
  5
47C
100
AcDbEntity
  8
GLAS_MED_FOGNING
100
AcDbLine
 10
-56.0
 20
29.999998
 30
0.0
 11
-56.0
 21
30.999998
 31
0.0
  0
LINE
  5
47D
100
AcDbEntity
  8
GLAS_MED_FOGNING
100
AcDbLine
 10
-56.0
 20
40.998998
 30
0.0
 11
-61.4
 21
40.998998
 31
0.0
  0
LINE
  5
47E
100
AcDbEntity
  8
GLAS_MED_FOGNING
100
AcDbLine
 10
-56.0
 20
30.998998
 30
0.0
 11
-61.4
 21
30.998998
 31
0.0
  0
LINE
  5
47F
100
AcDbEntity
  8
GLAS_MED_FOGNING
100
AcDbLine
 10
-25.0
 20
29.999998
 30
0.0
 11
-25.0
 21
30.998998
 31
0.0
  0
LINE
  5
480
100
AcDbEntity
  8
GLAS_MED_FOGNING
100
AcDbLine
 10
-20.0
 20
30.998998
 30
0.0
 11
-25.0
 21
30.998998
 31
0.0
  0
ENDBLK
  5
482
100
AcDbEntity
  8
0
100
AcDbBlockEnd
  0
BLOCK
  5
212
100
AcDbEntity
  8
0
100
AcDbBlockBegin
  2
65_SP42020DKTRI
 70
     0
 10
0.0
 20
0.0
 30
0.0
  3
65_SP42020DKTRI
  1

  0
LINE
  5
134
100
AcDbEntity
  8
GLAS_MED_FOGNING
100
AcDbLine
 10
-54.0
 20
62.499998
 30
0.0
 11
-54.0
 21
29.999998
 31
0.0
  0
LINE
  5
135
100
AcDbEntity
  8
GLAS_MED_FOGNING
100
AcDbLine
 10
-55.0
 20
62.499998
 30
0.0
 11
-55.0
 21
29.999998
 31
0.0
  0
LINE
  5
136
100
AcDbEntity
  8
GLAS_MED_FOGNING
100
AcDbLine
 10
-56.0
 20
62.499998
 30
0.0
 11
-56.0
 21
29.999998
 31
0.0
  0
LINE
  5
137
100
AcDbEntity
  8
GLAS_MED_FOGNING
100
AcDbLine
 10
-40.0
 20
62.499998
 30
0.0
 11
-40.0
 21
29.999998
 31
0.0
  0
LINE
  5
138
100
AcDbEntity
  8
GLAS_MED_FOGNING
100
AcDbLine
 10
-27.0
 20
62.499998
 30
0.0
 11
-27.0
 21
29.999998
 31
0.0
  0
LINE
  5
139
100
AcDbEntity
  8
GLAS_MED_FOGNING
100
AcDbLine
 10
-26.0
 20
62.499998
 30
0.0
 11
-26.0
 21
29.999998
 31
0.0
  0
LINE
  5
13A
100
AcDbEntity
  8
GLAS_MED_FOGNING
100
AcDbLine
 10
-25.0
 20
62.499998
 30
0.0
 11
-25.0
 21
29.999998
 31
0.0
  0
LINE
  5
13B
100
AcDbEntity
  8
GLAS_MED_FOGNING
100
AcDbLine
 10
-42.0
 20
62.499998
 30
0.0
 11
-42.0
 21
29.999998
 31
0.0
  0
LINE
  5
13C
100
AcDbEntity
  8
GLAS_MED_FOGNING
100
AcDbLine
 10
-41.0
 20
62.499998
 30
0.0
 11
-41.0
 21
29.999998
 31
0.0
  0
INSERT
  5
13D
100
AcDbEntity
  8
GLAS_MED_FOGNING
100
AcDbBlockReference
  2
SP42020
 10
0.0
 20
0.0
 30
0.0
  0
LINE
  5
144
100
AcDbEntity
  8
GLAS_MED_FOGNING
100
AcDbLine
 10
-25.0
 20
25.0
 30
0.0
 11
-56.0
 21
29.999998
 31
0.0
  0
LINE
  5
145
100
AcDbEntity
  8
GLAS_MED_FOGNING
100
AcDbLine
 10
-56.0
 20
25.0
 30
0.0
 11
-25.0
 21
30.0
 31
0.0
  0
LINE
  5
146
100
AcDbEntity
  8
GLAS_MED_FOGNING
100
AcDbLine
 10
-56.0
 20
25.0
 30
0.0
 11
-25.0
 21
25.0
 31
0.0
  0
LINE
  5
147
100
AcDbEntity
  8
GLAS_MED_FOGNING
100
AcDbLine
 10
-25.0
 20
29.999998
 30
0.0
 11
-56.0
 21
29.999998
 31
0.0
  0
INSERT
  5
148
100
AcDbEntity
  8
GLAS_MED_FOGNING
100
AcDbBlockReference
  2
*X2
 10
-195.0
 20
-75.000002
 30
0.0
1001
ACAD
1000
HATCH
1002
{
1070
    16
1000
HEX
1040
5.0
1040
0.0
1002
}
  0
LINE
  5
200
100
AcDbEntity
  8
GLAS_MED_FOGNING
100
AcDbLine
 10
-40.0
 20
37.848933
 30
0.0
 11
-27.0
 21
29.999998
 31
0.0
  0
LINE
  5
201
100
AcDbEntity
  8
GLAS_MED_FOGNING
100
AcDbLine
 10
-27.0
 20
37.848933
 30
0.0
 11
-40.0
 21
29.999998
 31
0.0
  0
LINE
  5
202
100
AcDbEntity
  8
GLAS_MED_FOGNING
100
AcDbLine
 10
-40.0
 20
37.848933
 30
0.0
 11
-27.0
 21
37.848933
 31
0.0
  0
LINE
  5
203
100
AcDbEntity
  8
GLAS_MED_FOGNING
100
AcDbLine
 10
-56.0
 20
29.999998
 30
0.0
 11
-56.0
 21
30.999998
 31
0.0
  0
LINE
  5
204
100
AcDbEntity
  8
GLAS_MED_FOGNING
100
AcDbLine
 10
-54.0
 20
37.848933
 30
0.0
 11
-42.0
 21
29.999998
 31
0.0
  0
LINE
  5
205
100
AcDbEntity
  8
GLAS_MED_FOGNING
100
AcDbLine
 10
-42.0
 20
37.848933
 30
0.0
 11
-54.0
 21
29.999998
 31
0.0
  0
LINE
  5
206
100
AcDbEntity
  8
GLAS_MED_FOGNING
100
AcDbLine
 10
-56.0
 20
29.999998
 30
0.0
 11
-56.0
 21
25.0
 31
0.0
  0
LINE
  5
207
100
AcDbEntity
  8
GLAS_MED_FOGNING
100
AcDbLine
 10
-56.0
 20
30.998998
 30
0.0
 11
-61.4
 21
30.998998
 31
0.0
  0
LINE
  5
208
100
AcDbEntity
  8
GLAS_MED_FOGNING
100
AcDbLine
 10
-56.0
 20
40.998998
 30
0.0
 11
-61.4
 21
40.998998
 31
0.0
  0
LINE
  5
209
100
AcDbEntity
  8
GLAS_MED_FOGNING
100
AcDbLine
 10
-61.4
 20
40.998998
 30
0.0
 11
-61.4
 21
30.998998
 31
0.0
  0
LINE
  5
20A
100
AcDbEntity
  8
GLAS_MED_FOGNING
100
AcDbLine
 10
-54.0
 20
37.848933
 30
0.0
 11
-42.0
 21
37.848933
 31
0.0
  0
LINE
  5
20B
100
AcDbEntity
  8
GLAS_MED_FOGNING
100
AcDbLine
 10
-25.0
 20
29.999998
 30
0.0
 11
-25.0
 21
30.998998
 31
0.0
  0
LINE
  5
20C
100
AcDbEntity
  8
GLAS_MED_FOGNING
100
AcDbLine
 10
-25.0
 20
25.0
 30
0.0
 11
-25.0
 21
30.0
 31
0.0
  0
LINE
  5
20D
100
AcDbEntity
  8
GLAS_MED_FOGNING
100
AcDbLine
 10
-20.0
 20
30.998998
 30
0.0
 11
-25.0
 21
30.998998
 31
0.0
  0
LINE
  5
20E
100
AcDbEntity
  8
GLAS_MED_FOGNING
100
AcDbLine
 10
-25.0
 20
40.998998
 30
0.0
 11
-25.0
 21
30.998998
 31
0.0
  0
LINE
  5
20F
100
AcDbEntity
  8
GLAS_MED_FOGNING
100
AcDbLine
 10
-20.0
 20
40.998998
 30
0.0
 11
-20.0
 21
30.998998
 31
0.0
  0
LINE
  5
210
100
AcDbEntity
  8
GLAS_MED_FOGNING
100
AcDbLine
 10
-20.0
 20
40.998998
 30
0.0
 11
-25.0
 21
40.998998
 31
0.0
  0
LINE
  5
211
100
AcDbEntity
  8
CENTRUM
100
AcDbLine
 10
0.0
 20
62.499998
 30
0.0
 11
-65.0
 21
62.499998
 31
0.0
  0
ENDBLK
  5
213
100
AcDbEntity
  8
0
100
AcDbBlockEnd
  0
BLOCK
  5
722
100
AcDbEntity
  8
0
100
AcDbBlockBegin
  2
65_SP43020TRI
 70
     0
 10
0.0
 20
0.0
 30
0.0
  3
65_SP43020TRI
  1

  0
INSERT
  5
705
100
AcDbEntity
  8
GLAS_MED_FOGNING
100
AcDbBlockReference
  2
SP43020
 10
0.0
 20
0.0
 30
0.0
  0
LINE
  5
706
100
AcDbEntity
  8
CENTRUM
100
AcDbLine
 10
0.0
 20
62.499998
 30
0.0
 11
-65.0
 21
62.499998
 31
0.0
  0
LINE
  5
707
100
AcDbEntity
  8
GLAS_MED_FOGNING
100
AcDbLine
 10
-35.0
 20
29.999998
 30
0.0
 11
-56.0
 21
29.999998
 31
0.0
  0
LINE
  5
708
100
AcDbEntity
  8
GLAS_MED_FOGNING
100
AcDbLine
 10
-55.0
 20
62.499998
 30
0.0
 11
-55.0
 21
29.999998
 31
0.0
  0
LINE
  5
709
100
AcDbEntity
  8
GLAS_MED_FOGNING
100
AcDbLine
 10
-56.0
 20
62.499998
 30
0.0
 11
-56.0
 21
29.999998
 31
0.0
  0
LINE
  5
70A
100
AcDbEntity
  8
GLAS_MED_FOGNING
100
AcDbLine
 10
-56.0
 20
29.999998
 30
0.0
 11
-56.0
 21
30.999998
 31
0.0
  0
LINE
  5
70B
100
AcDbEntity
  8
GLAS_MED_FOGNING
100
AcDbLine
 10
-61.4
 20
40.998998
 30
0.0
 11
-61.4
 21
30.998998
 31
0.0
  0
LINE
  5
70C
100
AcDbEntity
  8
GLAS_MED_FOGNING
100
AcDbLine
 10
-56.0
 20
30.998998
 30
0.0
 11
-61.4
 21
30.998998
 31
0.0
  0
LINE
  5
70D
100
AcDbEntity
  8
GLAS_MED_FOGNING
100
AcDbLine
 10
-56.0
 20
40.998998
 30
0.0
 11
-61.4
 21
40.998998
 31
0.0
  0
INSERT
  5
70E
100
AcDbEntity
  8
GLAS_MED_FOGNING
100
AcDbBlockReference
  2
*X6
 10
-1045.0
 20
1340.0
 30
0.0
 50
270.0
1001
ACAD
1000
HATCH
1002
{
1070
    16
1000
HEX
1040
5.0
1040
0.0
1002
}
  0
LINE
  5
70F
100
AcDbEntity
  8
GLAS_MED_FOGNING
100
AcDbLine
 10
-47.0
 20
62.499998
 30
0.0
 11
-47.0
 21
29.999998
 31
0.0
  0
LINE
  5
710
100
AcDbEntity
  8
GLAS_MED_FOGNING
100
AcDbLine
 10
-45.0
 20
62.499998
 30
0.0
 11
-45.0
 21
29.999998
 31
0.0
  0
LINE
  5
711
100
AcDbEntity
  8
GLAS_MED_FOGNING
100
AcDbLine
 10
-46.0
 20
62.499998
 30
0.0
 11
-46.0
 21
29.999998
 31
0.0
  0
LINE
  5
712
100
AcDbEntity
  8
GLAS_MED_FOGNING
100
AcDbLine
 10
-54.0
 20
62.499998
 30
0.0
 11
-54.0
 21
29.999998
 31
0.0
  0
LINE
  5
713
100
AcDbEntity
  8
GLAS_MED_FOGNING
100
AcDbLine
 10
-36.0
 20
62.499998
 30
0.0
 11
-36.0
 21
29.999998
 31
0.0
  0
LINE
  5
714
100
AcDbEntity
  8
GLAS_MED_FOGNING
100
AcDbLine
 10
-37.0
 20
62.499998
 30
0.0
 11
-37.0
 21
29.999998
 31
0.0
  0
LINE
  5
715
100
AcDbEntity
  8
GLAS_MED_FOGNING
100
AcDbLine
 10
-35.0
 20
62.499998
 30
0.0
 11
-35.0
 21
29.999998
 31
0.0
  0
LINE
  5
716
100
AcDbEntity
  8
GLAS_MED_FOGNING
100
AcDbLine
 10
-54.0
 20
37.848933
 30
0.0
 11
-47.0
 21
37.848933
 31
0.0
  0
LINE
  5
717
100
AcDbEntity
  8
GLAS_MED_FOGNING
100
AcDbLine
 10
-54.0
 20
37.848933
 30
0.0
 11
-47.0
 21
29.999998
 31
0.0
  0
LINE
  5
718
100
AcDbEntity
  8
GLAS_MED_FOGNING
100
AcDbLine
 10
-47.0
 20
37.848933
 30
0.0
 11
-54.0
 21
29.999998
 31
0.0
  0
LINE
  5
719
100
AcDbEntity
  8
GLAS_MED_FOGNING
100
AcDbLine
 10
-45.0
 20
37.848933
 30
0.0
 11
-37.0
 21
37.848933
 31
0.0
  0
LINE
  5
71A
100
AcDbEntity
  8
GLAS_MED_FOGNING
100
AcDbLine
 10
-37.0
 20
37.848933
 30
0.0
 11
-45.0
 21
29.999998
 31
0.0
  0
LINE
  5
71B
100
AcDbEntity
  8
GLAS_MED_FOGNING
100
AcDbLine
 10
-45.0
 20
37.848933
 30
0.0
 11
-37.0
 21
29.999998
 31
0.0
  0
LINE
  5
71C
100
AcDbEntity
  8
GLAS_MED_FOGNING
100
AcDbLine
 10
-30.0
 20
40.998998
 30
0.0
 11
-30.0
 21
30.998998
 31
0.0
  0
LINE
  5
71D
100
AcDbEntity
  8
GLAS_MED_FOGNING
100
AcDbLine
 10
-35.0
 20
29.999998
 30
0.0
 11
-35.0
 21
30.998998
 31
0.0
  0
LINE
  5
71E
100
AcDbEntity
  8
GLAS_MED_FOGNING
100
AcDbLine
 10
-35.0
 20
40.998998
 30
0.0
 11
-35.0
 21
30.998998
 31
0.0
  0
INSERT
  5
71F
100
AcDbEntity
  8
GLAS_MED_FOGNING
100
AcDbBlockReference
  2
*X5
 10
-1050.0
 20
1340.0
 30
0.0
 50
270.0
1001
ACAD
1000
HATCH
1002
{
1070
    16
1000
HEX
1040
5.0
1040
0.0
1002
}
  0
LINE
  5
720
100
AcDbEntity
  8
GLAS_MED_FOGNING
100
AcDbLine
 10
-30.0
 20
40.998998
 30
0.0
 11
-35.0
 21
40.998998
 31
0.0
  0
LINE
  5
721
100
AcDbEntity
  8
GLAS_MED_FOGNING
100
AcDbLine
 10
-30.0
 20
30.998998
 30
0.0
 11
-35.0
 21
30.998998
 31
0.0
  0
ENDBLK
  5
723
100
AcDbEntity
  8
0
100
AcDbBlockEnd
  0
BLOCK
  5
50F
100
AcDbEntity
  8
0
100
AcDbBlockBegin
  2
65_SP43020DKTRI
 70
     0
 10
0.0
 20
0.0
 30
0.0
  3
65_SP43020DKTRI
  1

  0
LINE
  5
4E7
100
AcDbEntity
  8
GLAS_MED_FOGNING
100
AcDbLine
 10
-35.0
 20
25.0
 30
0.0
 11
-56.0
 21
29.999998
 31
0.0
  0
LINE
  5
4E8
100
AcDbEntity
  8
GLAS_MED_FOGNING
100
AcDbLine
 10
-56.0
 20
25.0
 30
0.0
 11
-35.0
 21
30.0
 31
0.0
  0
LINE
  5
4E9
100
AcDbEntity
  8
GLAS_MED_FOGNING
100
AcDbLine
 10
-35.0
 20
25.0
 30
0.0
 11
-35.0
 21
30.0
 31
0.0
  0
LINE
  5
4EA
100
AcDbEntity
  8
GLAS_MED_FOGNING
100
AcDbLine
 10
-56.0
 20
29.999998
 30
0.0
 11
-56.0
 21
25.0
 31
0.0
  0
INSERT
  5
4EB
100
AcDbEntity
  8
GLAS_MED_FOGNING
100
AcDbBlockReference
  2
SP43020
 10
0.0
 20
0.0
 30
0.0
  0
LINE
  5
4F2
100
AcDbEntity
  8
GLAS_MED_FOGNING
100
AcDbLine
 10
-56.0
 20
25.0
 30
0.0
 11
-35.0
 21
25.0
 31
0.0
  0
LINE
  5
4F3
100
AcDbEntity
  8
CENTRUM
100
AcDbLine
 10
0.0
 20
62.499998
 30
0.0
 11
-65.0
 21
62.499998
 31
0.0
  0
LINE
  5
4F4
100
AcDbEntity
  8
GLAS_MED_FOGNING
100
AcDbLine
 10
-35.0
 20
29.999998
 30
0.0
 11
-56.0
 21
29.999998
 31
0.0
  0
LINE
  5
4F5
100
AcDbEntity
  8
GLAS_MED_FOGNING
100
AcDbLine
 10
-56.0
 20
62.499998
 30
0.0
 11
-56.0
 21
29.999998
 31
0.0
  0
LINE
  5
4F6
100
AcDbEntity
  8
GLAS_MED_FOGNING
100
AcDbLine
 10
-55.0
 20
62.499998
 30
0.0
 11
-55.0
 21
29.999998
 31
0.0
  0
INSERT
  5
4F7
100
AcDbEntity
  8
GLAS_MED_FOGNING
100
AcDbBlockReference
  2
*X6
 10
-1045.0
 20
1340.0
 30
0.0
 50
270.0
1001
ACAD
1000
HATCH
1002
{
1070
    16
1000
HEX
1040
5.0
1040
0.0
1002
}
  0
LINE
  5
4F8
100
AcDbEntity
  8
GLAS_MED_FOGNING
100
AcDbLine
 10
-56.0
 20
40.998998
 30
0.0
 11
-61.4
 21
40.998998
 31
0.0
  0
LINE
  5
4F9
100
AcDbEntity
  8
GLAS_MED_FOGNING
100
AcDbLine
 10
-56.0
 20
30.998998
 30
0.0
 11
-61.4
 21
30.998998
 31
0.0
  0
LINE
  5
4FA
100
AcDbEntity
  8
GLAS_MED_FOGNING
100
AcDbLine
 10
-61.4
 20
40.998998
 30
0.0
 11
-61.4
 21
30.998998
 31
0.0
  0
LINE
  5
4FB
100
AcDbEntity
  8
GLAS_MED_FOGNING
100
AcDbLine
 10
-56.0
 20
29.999998
 30
0.0
 11
-56.0
 21
30.999998
 31
0.0
  0
LINE
  5
4FC
100
AcDbEntity
  8
GLAS_MED_FOGNING
100
AcDbLine
 10
-35.0
 20
62.499998
 30
0.0
 11
-35.0
 21
29.999998
 31
0.0
  0
LINE
  5
4FD
100
AcDbEntity
  8
GLAS_MED_FOGNING
100
AcDbLine
 10
-37.0
 20
62.499998
 30
0.0
 11
-37.0
 21
29.999998
 31
0.0
  0
LINE
  5
4FE
100
AcDbEntity
  8
GLAS_MED_FOGNING
100
AcDbLine
 10
-36.0
 20
62.499998
 30
0.0
 11
-36.0
 21
29.999998
 31
0.0
  0
LINE
  5
4FF
100
AcDbEntity
  8
GLAS_MED_FOGNING
100
AcDbLine
 10
-54.0
 20
62.499998
 30
0.0
 11
-54.0
 21
29.999998
 31
0.0
  0
LINE
  5
500
100
AcDbEntity
  8
GLAS_MED_FOGNING
100
AcDbLine
 10
-46.0
 20
62.499998
 30
0.0
 11
-46.0
 21
29.999998
 31
0.0
  0
LINE
  5
501
100
AcDbEntity
  8
GLAS_MED_FOGNING
100
AcDbLine
 10
-45.0
 20
62.499998
 30
0.0
 11
-45.0
 21
29.999998
 31
0.0
  0
LINE
  5
502
100
AcDbEntity
  8
GLAS_MED_FOGNING
100
AcDbLine
 10
-47.0
 20
62.499998
 30
0.0
 11
-47.0
 21
29.999998
 31
0.0
  0
LINE
  5
503
100
AcDbEntity
  8
GLAS_MED_FOGNING
100
AcDbLine
 10
-45.0
 20
37.848933
 30
0.0
 11
-37.0
 21
29.999998
 31
0.0
  0
LINE
  5
504
100
AcDbEntity
  8
GLAS_MED_FOGNING
100
AcDbLine
 10
-37.0
 20
37.848933
 30
0.0
 11
-45.0
 21
29.999998
 31
0.0
  0
LINE
  5
505
100
AcDbEntity
  8
GLAS_MED_FOGNING
100
AcDbLine
 10
-45.0
 20
37.848933
 30
0.0
 11
-37.0
 21
37.848933
 31
0.0
  0
LINE
  5
506
100
AcDbEntity
  8
GLAS_MED_FOGNING
100
AcDbLine
 10
-47.0
 20
37.848933
 30
0.0
 11
-54.0
 21
29.999998
 31
0.0
  0
LINE
  5
507
100
AcDbEntity
  8
GLAS_MED_FOGNING
100
AcDbLine
 10
-54.0
 20
37.848933
 30
0.0
 11
-47.0
 21
29.999998
 31
0.0
  0
LINE
  5
508
100
AcDbEntity
  8
GLAS_MED_FOGNING
100
AcDbLine
 10
-54.0
 20
37.848933
 30
0.0
 11
-47.0
 21
37.848933
 31
0.0
  0
LINE
  5
509
100
AcDbEntity
  8
GLAS_MED_FOGNING
100
AcDbLine
 10
-30.0
 20
30.998998
 30
0.0
 11
-35.0
 21
30.998998
 31
0.0
  0
LINE
  5
50A
100
AcDbEntity
  8
GLAS_MED_FOGNING
100
AcDbLine
 10
-30.0
 20
40.998998
 30
0.0
 11
-35.0
 21
40.998998
 31
0.0
  0
INSERT
  5
50B
100
AcDbEntity
  8
GLAS_MED_FOGNING
100
AcDbBlockReference
  2
*X5
 10
-1050.0
 20
1340.0
 30
0.0
 50
270.0
1001
ACAD
1000
HATCH
1002
{
1070
    16
1000
HEX
1040
5.0
1040
0.0
1002
}
  0
LINE
  5
50C
100
AcDbEntity
  8
GLAS_MED_FOGNING
100
AcDbLine
 10
-35.0
 20
40.998998
 30
0.0
 11
-35.0
 21
30.998998
 31
0.0
  0
LINE
  5
50D
100
AcDbEntity
  8
GLAS_MED_FOGNING
100
AcDbLine
 10
-35.0
 20
29.999998
 30
0.0
 11
-35.0
 21
30.998998
 31
0.0
  0
LINE
  5
50E
100
AcDbEntity
  8
GLAS_MED_FOGNING
100
AcDbLine
 10
-30.0
 20
40.998998
 30
0.0
 11
-30.0
 21
30.998998
 31
0.0
  0
ENDBLK
  5
510
100
AcDbEntity
  8
0
100
AcDbBlockEnd
  0
BLOCK
  5
2BB
100
AcDbEntity
  8
0
100
AcDbBlockBegin
  2
65_SP43520TRI
 70
     0
 10
0.0
 20
0.0
 30
0.0
  3
65_SP43520TRI
  1

  0
INSERT
  5
29E
100
AcDbEntity
  8
GLAS_MED_FOGNING
100
AcDbBlockReference
  2
SP43520
 10
0.0
 20
0.0
 30
0.0
  0
LINE
  5
29F
100
AcDbEntity
  8
CENTRUM
100
AcDbLine
 10
0.0
 20
62.499998
 30
0.0
 11
-65.0
 21
62.499998
 31
0.0
  0
LINE
  5
2A0
100
AcDbEntity
  8
GLAS_MED_FOGNING
100
AcDbLine
 10
-40.0
 20
29.999998
 30
0.0
 11
-56.0
 21
29.999998
 31
0.0
  0
LINE
  5
2A1
100
AcDbEntity
  8
GLAS_MED_FOGNING
100
AcDbLine
 10
-56.0
 20
62.499998
 30
0.0
 11
-56.0
 21
29.999998
 31
0.0
  0
LINE
  5
2A2
100
AcDbEntity
  8
GLAS_MED_FOGNING
100
AcDbLine
 10
-55.0
 20
62.499998
 30
0.0
 11
-55.0
 21
29.999998
 31
0.0
  0
LINE
  5
2A3
100
AcDbEntity
  8
GLAS_MED_FOGNING
100
AcDbLine
 10
-56.0
 20
30.998998
 30
0.0
 11
-61.4
 21
30.998998
 31
0.0
  0
LINE
  5
2A4
100
AcDbEntity
  8
GLAS_MED_FOGNING
100
AcDbLine
 10
-56.0
 20
29.999998
 30
0.0
 11
-56.0
 21
30.999998
 31
0.0
  0
LINE
  5
2A5
100
AcDbEntity
  8
GLAS_MED_FOGNING
100
AcDbLine
 10
-56.0
 20
40.998998
 30
0.0
 11
-61.4
 21
40.998998
 31
0.0
  0
LINE
  5
2A6
100
AcDbEntity
  8
GLAS_MED_FOGNING
100
AcDbLine
 10
-61.4
 20
40.998998
 30
0.0
 11
-61.4
 21
30.998998
 31
0.0
  0
INSERT
  5
2A7
100
AcDbEntity
  8
GLAS_MED_FOGNING
100
AcDbBlockReference
  2
*X6
 10
-1045.0
 20
1340.0
 30
0.0
 50
270.0
1001
ACAD
1000
HATCH
1002
{
1070
    16
1000
HEX
1040
5.0
1040
0.0
1002
}
  0
LINE
  5
2A8
100
AcDbEntity
  8
GLAS_MED_FOGNING
100
AcDbLine
 10
-49.5
 20
62.499998
 30
0.0
 11
-49.5
 21
29.999998
 31
0.0
  0
LINE
  5
2A9
100
AcDbEntity
  8
GLAS_MED_FOGNING
100
AcDbLine
 10
-47.5
 20
62.499998
 30
0.0
 11
-47.5
 21
29.999998
 31
0.0
  0
LINE
  5
2AA
100
AcDbEntity
  8
GLAS_MED_FOGNING
100
AcDbLine
 10
-48.5
 20
62.499998
 30
0.0
 11
-48.5
 21
29.999998
 31
0.0
  0
LINE
  5
2AB
100
AcDbEntity
  8
GLAS_MED_FOGNING
100
AcDbLine
 10
-54.0
 20
62.499998
 30
0.0
 11
-54.0
 21
29.999998
 31
0.0
  0
LINE
  5
2AC
100
AcDbEntity
  8
GLAS_MED_FOGNING
100
AcDbLine
 10
-40.0
 20
62.499998
 30
0.0
 11
-40.0
 21
29.999998
 31
0.0
  0
LINE
  5
2AD
100
AcDbEntity
  8
GLAS_MED_FOGNING
100
AcDbLine
 10
-42.0
 20
62.499998
 30
0.0
 11
-42.0
 21
29.999998
 31
0.0
  0
LINE
  5
2AE
100
AcDbEntity
  8
GLAS_MED_FOGNING
100
AcDbLine
 10
-41.0
 20
62.499998
 30
0.0
 11
-41.0
 21
29.999998
 31
0.0
  0
LINE
  5
2AF
100
AcDbEntity
  8
GLAS_MED_FOGNING
100
AcDbLine
 10
-35.0
 20
30.998998
 30
0.0
 11
-40.0
 21
30.998998
 31
0.0
  0
LINE
  5
2B0
100
AcDbEntity
  8
GLAS_MED_FOGNING
100
AcDbLine
 10
-35.0
 20
40.998998
 30
0.0
 11
-40.0
 21
40.998998
 31
0.0
  0
INSERT
  5
2B1
100
AcDbEntity
  8
GLAS_MED_FOGNING
100
AcDbBlockReference
  2
*X5
 10
-1055.0
 20
1340.0
 30
0.0
 50
270.0
1001
ACAD
1000
HATCH
1002
{
1070
    16
1000
HEX
1040
5.0
1040
0.0
1002
}
  0
LINE
  5
2B2
100
AcDbEntity
  8
GLAS_MED_FOGNING
100
AcDbLine
 10
-40.0
 20
29.999998
 30
0.0
 11
-40.0
 21
30.998998
 31
0.0
  0
LINE
  5
2B3
100
AcDbEntity
  8
GLAS_MED_FOGNING
100
AcDbLine
 10
-47.5
 20
37.848933
 30
0.0
 11
-42.0
 21
37.848933
 31
0.0
  0
LINE
  5
2B4
100
AcDbEntity
  8
GLAS_MED_FOGNING
100
AcDbLine
 10
-42.0
 20
37.848933
 30
0.0
 11
-47.5
 21
29.999998
 31
0.0
  0
LINE
  5
2B5
100
AcDbEntity
  8
GLAS_MED_FOGNING
100
AcDbLine
 10
-47.5
 20
37.848933
 30
0.0
 11
-42.0
 21
29.999998
 31
0.0
  0
LINE
  5
2B6
100
AcDbEntity
  8
GLAS_MED_FOGNING
100
AcDbLine
 10
-40.0
 20
40.998998
 30
0.0
 11
-40.0
 21
30.998998
 31
0.0
  0
LINE
  5
2B7
100
AcDbEntity
  8
GLAS_MED_FOGNING
100
AcDbLine
 10
-54.0
 20
37.848933
 30
0.0
 11
-49.5
 21
37.848933
 31
0.0
  0
LINE
  5
2B8
100
AcDbEntity
  8
GLAS_MED_FOGNING
100
AcDbLine
 10
-49.5
 20
37.848933
 30
0.0
 11
-54.0
 21
29.999998
 31
0.0
  0
LINE
  5
2B9
100
AcDbEntity
  8
GLAS_MED_FOGNING
100
AcDbLine
 10
-54.0
 20
37.848933
 30
0.0
 11
-49.5
 21
29.999998
 31
0.0
  0
LINE
  5
2BA
100
AcDbEntity
  8
GLAS_MED_FOGNING
100
AcDbLine
 10
-35.0
 20
40.998998
 30
0.0
 11
-35.0
 21
30.998998
 31
0.0
  0
ENDBLK
  5
2BC
100
AcDbEntity
  8
0
100
AcDbBlockEnd
  0
BLOCK
  5
29A
100
AcDbEntity
  8
0
100
AcDbBlockBegin
  2
65_SP43520DKTRI
 70
     0
 10
0.0
 20
0.0
 30
0.0
  3
65_SP43520DKTRI
  1

  0
LINE
  5
272
100
AcDbEntity
  8
GLAS_MED_FOGNING
100
AcDbLine
 10
-56.0
 20
29.999998
 30
0.0
 11
-40.0
 21
25.0
 31
0.0
  0
LINE
  5
273
100
AcDbEntity
  8
GLAS_MED_FOGNING
100
AcDbLine
 10
-56.0
 20
25.0
 30
0.0
 11
-40.0
 21
30.0
 31
0.0
  0
LINE
  5
274
100
AcDbEntity
  8
GLAS_MED_FOGNING
100
AcDbLine
 10
-40.0
 20
25.0
 30
0.0
 11
-40.0
 21
30.0
 31
0.0
  0
LINE
  5
275
100
AcDbEntity
  8
GLAS_MED_FOGNING
100
AcDbLine
 10
-56.0
 20
29.999998
 30
0.0
 11
-56.0
 21
25.0
 31
0.0
  0
INSERT
  5
276
100
AcDbEntity
  8
GLAS_MED_FOGNING
100
AcDbBlockReference
  2
SP43520
 10
0.0
 20
0.0
 30
0.0
  0
LINE
  5
27D
100
AcDbEntity
  8
GLAS_MED_FOGNING
100
AcDbLine
 10
-56.0
 20
25.0
 30
0.0
 11
-40.0
 21
25.0
 31
0.0
  0
LINE
  5
27E
100
AcDbEntity
  8
CENTRUM
100
AcDbLine
 10
0.0
 20
62.499998
 30
0.0
 11
-65.0
 21
62.499998
 31
0.0
  0
LINE
  5
27F
100
AcDbEntity
  8
GLAS_MED_FOGNING
100
AcDbLine
 10
-40.0
 20
29.999998
 30
0.0
 11
-56.0
 21
29.999998
 31
0.0
  0
LINE
  5
280
100
AcDbEntity
  8
GLAS_MED_FOGNING
100
AcDbLine
 10
-55.0
 20
62.499998
 30
0.0
 11
-55.0
 21
29.999998
 31
0.0
  0
LINE
  5
281
100
AcDbEntity
  8
GLAS_MED_FOGNING
100
AcDbLine
 10
-56.0
 20
62.499998
 30
0.0
 11
-56.0
 21
29.999998
 31
0.0
  0
INSERT
  5
282
100
AcDbEntity
  8
GLAS_MED_FOGNING
100
AcDbBlockReference
  2
*X6
 10
-1045.0
 20
1340.0
 30
0.0
 50
270.0
1001
ACAD
1000
HATCH
1002
{
1070
    16
1000
HEX
1040
5.0
1040
0.0
1002
}
  0
LINE
  5
283
100
AcDbEntity
  8
GLAS_MED_FOGNING
100
AcDbLine
 10
-61.4
 20
40.998998
 30
0.0
 11
-61.4
 21
30.998998
 31
0.0
  0
LINE
  5
284
100
AcDbEntity
  8
GLAS_MED_FOGNING
100
AcDbLine
 10
-56.0
 20
40.998998
 30
0.0
 11
-61.4
 21
40.998998
 31
0.0
  0
LINE
  5
285
100
AcDbEntity
  8
GLAS_MED_FOGNING
100
AcDbLine
 10
-56.0
 20
29.999998
 30
0.0
 11
-56.0
 21
30.999998
 31
0.0
  0
LINE
  5
286
100
AcDbEntity
  8
GLAS_MED_FOGNING
100
AcDbLine
 10
-56.0
 20
30.998998
 30
0.0
 11
-61.4
 21
30.998998
 31
0.0
  0
LINE
  5
287
100
AcDbEntity
  8
GLAS_MED_FOGNING
100
AcDbLine
 10
-41.0
 20
62.499998
 30
0.0
 11
-41.0
 21
29.999998
 31
0.0
  0
LINE
  5
288
100
AcDbEntity
  8
GLAS_MED_FOGNING
100
AcDbLine
 10
-42.0
 20
62.499998
 30
0.0
 11
-42.0
 21
29.999998
 31
0.0
  0
LINE
  5
289
100
AcDbEntity
  8
GLAS_MED_FOGNING
100
AcDbLine
 10
-40.0
 20
62.499998
 30
0.0
 11
-40.0
 21
29.999998
 31
0.0
  0
LINE
  5
28A
100
AcDbEntity
  8
GLAS_MED_FOGNING
100
AcDbLine
 10
-54.0
 20
62.499998
 30
0.0
 11
-54.0
 21
29.999998
 31
0.0
  0
LINE
  5
28B
100
AcDbEntity
  8
GLAS_MED_FOGNING
100
AcDbLine
 10
-48.5
 20
62.499998
 30
0.0
 11
-48.5
 21
29.999998
 31
0.0
  0
LINE
  5
28C
100
AcDbEntity
  8
GLAS_MED_FOGNING
100
AcDbLine
 10
-47.5
 20
62.499998
 30
0.0
 11
-47.5
 21
29.999998
 31
0.0
  0
LINE
  5
28D
100
AcDbEntity
  8
GLAS_MED_FOGNING
100
AcDbLine
 10
-49.5
 20
62.499998
 30
0.0
 11
-49.5
 21
29.999998
 31
0.0
  0
INSERT
  5
28E
100
AcDbEntity
  8
GLAS_MED_FOGNING
100
AcDbBlockReference
  2
*X5
 10
-1055.0
 20
1340.0
 30
0.0
 50
270.0
1001
ACAD
1000
HATCH
1002
{
1070
    16
1000
HEX
1040
5.0
1040
0.0
1002
}
  0
LINE
  5
28F
100
AcDbEntity
  8
GLAS_MED_FOGNING
100
AcDbLine
 10
-35.0
 20
40.998998
 30
0.0
 11
-40.0
 21
40.998998
 31
0.0
  0
LINE
  5
290
100
AcDbEntity
  8
GLAS_MED_FOGNING
100
AcDbLine
 10
-35.0
 20
30.998998
 30
0.0
 11
-40.0
 21
30.998998
 31
0.0
  0
LINE
  5
291
100
AcDbEntity
  8
GLAS_MED_FOGNING
100
AcDbLine
 10
-54.0
 20
37.848933
 30
0.0
 11
-49.5
 21
29.999998
 31
0.0
  0
LINE
  5
292
100
AcDbEntity
  8
GLAS_MED_FOGNING
100
AcDbLine
 10
-49.5
 20
37.848933
 30
0.0
 11
-54.0
 21
29.999998
 31
0.0
  0
LINE
  5
293
100
AcDbEntity
  8
GLAS_MED_FOGNING
100
AcDbLine
 10
-54.0
 20
37.848933
 30
0.0
 11
-49.5
 21
37.848933
 31
0.0
  0
LINE
  5
294
100
AcDbEntity
  8
GLAS_MED_FOGNING
100
AcDbLine
 10
-40.0
 20
40.998998
 30
0.0
 11
-40.0
 21
30.998998
 31
0.0
  0
LINE
  5
295
100
AcDbEntity
  8
GLAS_MED_FOGNING
100
AcDbLine
 10
-47.5
 20
37.848933
 30
0.0
 11
-42.0
 21
29.999998
 31
0.0
  0
LINE
  5
296
100
AcDbEntity
  8
GLAS_MED_FOGNING
100
AcDbLine
 10
-42.0
 20
37.848933
 30
0.0
 11
-47.5
 21
29.999998
 31
0.0
  0
LINE
  5
297
100
AcDbEntity
  8
GLAS_MED_FOGNING
100
AcDbLine
 10
-47.5
 20
37.848933
 30
0.0
 11
-42.0
 21
37.848933
 31
0.0
  0
LINE
  5
298
100
AcDbEntity
  8
GLAS_MED_FOGNING
100
AcDbLine
 10
-40.0
 20
29.999998
 30
0.0
 11
-40.0
 21
30.998998
 31
0.0
  0
LINE
  5
299
100
AcDbEntity
  8
GLAS_MED_FOGNING
100
AcDbLine
 10
-35.0
 20
40.998998
 30
0.0
 11
-35.0
 21
30.998998
 31
0.0
  0
ENDBLK
  5
29B
100
AcDbEntity
  8
0
100
AcDbBlockEnd
  0
BLOCK
  5
37B
100
AcDbEntity
  8
0
100
AcDbBlockBegin
  2
65_SP44020TRI
 70
     0
 10
0.0
 20
0.0
 30
0.0
  3
65_SP44020TRI
  1

  0
INSERT
  5
35E
100
AcDbEntity
  8
GLAS_MED_FOGNING
100
AcDbBlockReference
  2
SP44020
 10
0.0
 20
0.0
 30
0.0
  0
LINE
  5
35F
100
AcDbEntity
  8
CENTRUM
100
AcDbLine
 10
0.0
 20
62.499998
 30
0.0
 11
-64.5
 21
62.499998
 31
0.0
  0
LINE
  5
360
100
AcDbEntity
  8
GLAS_MED_FOGNING
100
AcDbLine
 10
-45.0
 20
29.999998
 30
0.0
 11
-56.0
 21
29.999998
 31
0.0
  0
LINE
  5
361
100
AcDbEntity
  8
GLAS_MED_FOGNING
100
AcDbLine
 10
-55.0
 20
62.499998
 30
0.0
 11
-55.0
 21
29.999998
 31
0.0
  0
LINE
  5
362
100
AcDbEntity
  8
GLAS_MED_FOGNING
100
AcDbLine
 10
-56.0
 20
62.499998
 30
0.0
 11
-56.0
 21
29.999998
 31
0.0
  0
LINE
  5
363
100
AcDbEntity
  8
GLAS_MED_FOGNING
100
AcDbLine
 10
-56.0
 20
29.999998
 30
0.0
 11
-56.0
 21
30.999998
 31
0.0
  0
LINE
  5
364
100
AcDbEntity
  8
GLAS_MED_FOGNING
100
AcDbLine
 10
-56.0
 20
30.998998
 30
0.0
 11
-61.4
 21
30.998998
 31
0.0
  0
LINE
  5
365
100
AcDbEntity
  8
GLAS_MED_FOGNING
100
AcDbLine
 10
-56.0
 20
40.998998
 30
0.0
 11
-61.4
 21
40.998998
 31
0.0
  0
LINE
  5
366
100
AcDbEntity
  8
GLAS_MED_FOGNING
100
AcDbLine
 10
-61.4
 20
40.998998
 30
0.0
 11
-61.4
 21
30.998998
 31
0.0
  0
INSERT
  5
367
100
AcDbEntity
  8
GLAS_MED_FOGNING
100
AcDbBlockReference
  2
*X6
 10
-1045.0
 20
1340.0
 30
0.0
 50
270.0
1001
ACAD
1000
HATCH
1002
{
1070
    16
1000
HEX
1040
5.0
1040
0.0
1002
}
  0
LINE
  5
368
100
AcDbEntity
  8
GLAS_MED_FOGNING
100
AcDbLine
 10
-46.0
 20
62.499998
 30
0.0
 11
-46.0
 21
29.999998
 31
0.0
  0
LINE
  5
369
100
AcDbEntity
  8
GLAS_MED_FOGNING
100
AcDbLine
 10
-47.0
 20
62.499998
 30
0.0
 11
-47.0
 21
29.999998
 31
0.0
  0
LINE
  5
36A
100
AcDbEntity
  8
GLAS_MED_FOGNING
100
AcDbLine
 10
-45.0
 20
62.499998
 30
0.0
 11
-45.0
 21
29.999998
 31
0.0
  0
LINE
  5
36B
100
AcDbEntity
  8
GLAS_MED_FOGNING
100
AcDbLine
 10
-51.5
 20
62.499998
 30
0.0
 11
-51.5
 21
29.999998
 31
0.0
  0
LINE
  5
36C
100
AcDbEntity
  8
GLAS_MED_FOGNING
100
AcDbLine
 10
-49.5
 20
62.499998
 30
0.0
 11
-49.5
 21
29.999998
 31
0.0
  0
LINE
  5
36D
100
AcDbEntity
  8
GLAS_MED_FOGNING
100
AcDbLine
 10
-50.5
 20
62.499998
 30
0.0
 11
-50.5
 21
29.999998
 31
0.0
  0
LINE
  5
36E
100
AcDbEntity
  8
GLAS_MED_FOGNING
100
AcDbLine
 10
-54.0
 20
62.499998
 30
0.0
 11
-54.0
 21
29.999998
 31
0.0
  0
LINE
  5
36F
100
AcDbEntity
  8
GLAS_MED_FOGNING
100
AcDbLine
 10
-40.0
 20
40.998998
 30
0.0
 11
-40.0
 21
30.998998
 31
0.0
  0
LINE
  5
370
100
AcDbEntity
  8
GLAS_MED_FOGNING
100
AcDbLine
 10
-45.0
 20
29.999998
 30
0.0
 11
-45.0
 21
30.998998
 31
0.0
  0
LINE
  5
371
100
AcDbEntity
  8
GLAS_MED_FOGNING
100
AcDbLine
 10
-49.5
 20
37.848933
 30
0.0
 11
-47.0
 21
37.848933
 31
0.0
  0
LINE
  5
372
100
AcDbEntity
  8
GLAS_MED_FOGNING
100
AcDbLine
 10
-45.0
 20
40.998998
 30
0.0
 11
-45.0
 21
30.998998
 31
0.0
  0
LINE
  5
373
100
AcDbEntity
  8
GLAS_MED_FOGNING
100
AcDbLine
 10
-47.0
 20
37.848933
 30
0.0
 11
-49.5
 21
29.999998
 31
0.0
  0
LINE
  5
374
100
AcDbEntity
  8
GLAS_MED_FOGNING
100
AcDbLine
 10
-49.5
 20
37.848933
 30
0.0
 11
-47.0
 21
29.999998
 31
0.0
  0
INSERT
  5
375
100
AcDbEntity
  8
GLAS_MED_FOGNING
100
AcDbBlockReference
  2
*X5
 10
-1060.0
 20
1340.0
 30
0.0
 50
270.0
1001
ACAD
1000
HATCH
1002
{
1070
    16
1000
HEX
1040
5.0
1040
0.0
1002
}
  0
LINE
  5
376
100
AcDbEntity
  8
GLAS_MED_FOGNING
100
AcDbLine
 10
-40.0
 20
40.998998
 30
0.0
 11
-45.0
 21
40.998998
 31
0.0
  0
LINE
  5
377
100
AcDbEntity
  8
GLAS_MED_FOGNING
100
AcDbLine
 10
-40.0
 20
30.998998
 30
0.0
 11
-45.0
 21
30.998998
 31
0.0
  0
LINE
  5
378
100
AcDbEntity
  8
GLAS_MED_FOGNING
100
AcDbLine
 10
-54.0
 20
37.848933
 30
0.0
 11
-51.5
 21
37.848933
 31
0.0
  0
LINE
  5
379
100
AcDbEntity
  8
GLAS_MED_FOGNING
100
AcDbLine
 10
-54.0
 20
37.848933
 30
0.0
 11
-51.5
 21
29.999998
 31
0.0
  0
LINE
  5
37A
100
AcDbEntity
  8
GLAS_MED_FOGNING
100
AcDbLine
 10
-51.5
 20
37.848933
 30
0.0
 11
-54.0
 21
29.999998
 31
0.0
  0
ENDBLK
  5
37C
100
AcDbEntity
  8
0
100
AcDbBlockEnd
  0
BLOCK
  5
35A
100
AcDbEntity
  8
0
100
AcDbBlockBegin
  2
65_SP44020DKTRI
 70
     0
 10
0.0
 20
0.0
 30
0.0
  3
65_SP44020DKTRI
  1

  0
LINE
  5
332
100
AcDbEntity
  8
GLAS_MED_FOGNING
100
AcDbLine
 10
-56.0
 20
29.999998
 30
0.0
 11
-45.0
 21
25.0
 31
0.0
  0
LINE
  5
333
100
AcDbEntity
  8
GLAS_MED_FOGNING
100
AcDbLine
 10
-56.0
 20
25.0
 30
0.0
 11
-45.0
 21
30.0
 31
0.0
  0
LINE
  5
334
100
AcDbEntity
  8
GLAS_MED_FOGNING
100
AcDbLine
 10
-45.0
 20
25.0
 30
0.0
 11
-45.0
 21
30.0
 31
0.0
  0
LINE
  5
335
100
AcDbEntity
  8
GLAS_MED_FOGNING
100
AcDbLine
 10
-56.0
 20
29.999998
 30
0.0
 11
-56.0
 21
25.0
 31
0.0
  0
INSERT
  5
336
100
AcDbEntity
  8
GLAS_MED_FOGNING
100
AcDbBlockReference
  2
SP44020
 10
0.0
 20
0.0
 30
0.0
  0
LINE
  5
33D
100
AcDbEntity
  8
GLAS_MED_FOGNING
100
AcDbLine
 10
-56.0
 20
25.0
 30
0.0
 11
-45.0
 21
25.0
 31
0.0
  0
LINE
  5
33E
100
AcDbEntity
  8
CENTRUM
100
AcDbLine
 10
0.0
 20
62.499998
 30
0.0
 11
-64.5
 21
62.499998
 31
0.0
  0
LINE
  5
33F
100
AcDbEntity
  8
GLAS_MED_FOGNING
100
AcDbLine
 10
-45.0
 20
29.999998
 30
0.0
 11
-56.0
 21
29.999998
 31
0.0
  0
LINE
  5
340
100
AcDbEntity
  8
GLAS_MED_FOGNING
100
AcDbLine
 10
-56.0
 20
62.499998
 30
0.0
 11
-56.0
 21
29.999998
 31
0.0
  0
LINE
  5
341
100
AcDbEntity
  8
GLAS_MED_FOGNING
100
AcDbLine
 10
-55.0
 20
62.499998
 30
0.0
 11
-55.0
 21
29.999998
 31
0.0
  0
INSERT
  5
342
100
AcDbEntity
  8
GLAS_MED_FOGNING
100
AcDbBlockReference
  2
*X6
 10
-1045.0
 20
1340.0
 30
0.0
 50
270.0
1001
ACAD
1000
HATCH
1002
{
1070
    16
1000
HEX
1040
5.0
1040
0.0
1002
}
  0
LINE
  5
343
100
AcDbEntity
  8
GLAS_MED_FOGNING
100
AcDbLine
 10
-61.4
 20
40.998998
 30
0.0
 11
-61.4
 21
30.998998
 31
0.0
  0
LINE
  5
344
100
AcDbEntity
  8
GLAS_MED_FOGNING
100
AcDbLine
 10
-56.0
 20
40.998998
 30
0.0
 11
-61.4
 21
40.998998
 31
0.0
  0
LINE
  5
345
100
AcDbEntity
  8
GLAS_MED_FOGNING
100
AcDbLine
 10
-56.0
 20
30.998998
 30
0.0
 11
-61.4
 21
30.998998
 31
0.0
  0
LINE
  5
346
100
AcDbEntity
  8
GLAS_MED_FOGNING
100
AcDbLine
 10
-56.0
 20
29.999998
 30
0.0
 11
-56.0
 21
30.999998
 31
0.0
  0
LINE
  5
347
100
AcDbEntity
  8
GLAS_MED_FOGNING
100
AcDbLine
 10
-54.0
 20
62.499998
 30
0.0
 11
-54.0
 21
29.999998
 31
0.0
  0
LINE
  5
348
100
AcDbEntity
  8
GLAS_MED_FOGNING
100
AcDbLine
 10
-50.5
 20
62.499998
 30
0.0
 11
-50.5
 21
29.999998
 31
0.0
  0
LINE
  5
349
100
AcDbEntity
  8
GLAS_MED_FOGNING
100
AcDbLine
 10
-49.5
 20
62.499998
 30
0.0
 11
-49.5
 21
29.999998
 31
0.0
  0
LINE
  5
34A
100
AcDbEntity
  8
GLAS_MED_FOGNING
100
AcDbLine
 10
-51.5
 20
62.499998
 30
0.0
 11
-51.5
 21
29.999998
 31
0.0
  0
LINE
  5
34B
100
AcDbEntity
  8
GLAS_MED_FOGNING
100
AcDbLine
 10
-45.0
 20
62.499998
 30
0.0
 11
-45.0
 21
29.999998
 31
0.0
  0
LINE
  5
34C
100
AcDbEntity
  8
GLAS_MED_FOGNING
100
AcDbLine
 10
-47.0
 20
62.499998
 30
0.0
 11
-47.0
 21
29.999998
 31
0.0
  0
LINE
  5
34D
100
AcDbEntity
  8
GLAS_MED_FOGNING
100
AcDbLine
 10
-46.0
 20
62.499998
 30
0.0
 11
-46.0
 21
29.999998
 31
0.0
  0
LINE
  5
34E
100
AcDbEntity
  8
GLAS_MED_FOGNING
100
AcDbLine
 10
-51.5
 20
37.848933
 30
0.0
 11
-54.0
 21
29.999998
 31
0.0
  0
LINE
  5
34F
100
AcDbEntity
  8
GLAS_MED_FOGNING
100
AcDbLine
 10
-54.0
 20
37.848933
 30
0.0
 11
-51.5
 21
29.999998
 31
0.0
  0
LINE
  5
350
100
AcDbEntity
  8
GLAS_MED_FOGNING
100
AcDbLine
 10
-54.0
 20
37.848933
 30
0.0
 11
-51.5
 21
37.848933
 31
0.0
  0
LINE
  5
351
100
AcDbEntity
  8
GLAS_MED_FOGNING
100
AcDbLine
 10
-40.0
 20
30.998998
 30
0.0
 11
-45.0
 21
30.998998
 31
0.0
  0
LINE
  5
352
100
AcDbEntity
  8
GLAS_MED_FOGNING
100
AcDbLine
 10
-40.0
 20
40.998998
 30
0.0
 11
-45.0
 21
40.998998
 31
0.0
  0
INSERT
  5
353
100
AcDbEntity
  8
GLAS_MED_FOGNING
100
AcDbBlockReference
  2
*X5
 10
-1060.0
 20
1340.0
 30
0.0
 50
270.0
1001
ACAD
1000
HATCH
1002
{
1070
    16
1000
HEX
1040
5.0
1040
0.0
1002
}
  0
LINE
  5
354
100
AcDbEntity
  8
GLAS_MED_FOGNING
100
AcDbLine
 10
-49.5
 20
37.848933
 30
0.0
 11
-47.0
 21
29.999998
 31
0.0
  0
LINE
  5
355
100
AcDbEntity
  8
GLAS_MED_FOGNING
100
AcDbLine
 10
-47.0
 20
37.848933
 30
0.0
 11
-49.5
 21
29.999998
 31
0.0
  0
LINE
  5
356
100
AcDbEntity
  8
GLAS_MED_FOGNING
100
AcDbLine
 10
-45.0
 20
40.998998
 30
0.0
 11
-45.0
 21
30.998998
 31
0.0
  0
LINE
  5
357
100
AcDbEntity
  8
GLAS_MED_FOGNING
100
AcDbLine
 10
-49.5
 20
37.848933
 30
0.0
 11
-47.0
 21
37.848933
 31
0.0
  0
LINE
  5
358
100
AcDbEntity
  8
GLAS_MED_FOGNING
100
AcDbLine
 10
-45.0
 20
29.999998
 30
0.0
 11
-45.0
 21
30.998998
 31
0.0
  0
LINE
  5
359
100
AcDbEntity
  8
GLAS_MED_FOGNING
100
AcDbLine
 10
-40.0
 20
40.998998
 30
0.0
 11
-40.0
 21
30.998998
 31
0.0
  0
ENDBLK
  5
35B
100
AcDbEntity
  8
0
100
AcDbBlockEnd
  0
BLOCK
  5
6C2
100
AcDbEntity
  8
0
100
AcDbBlockBegin
  2
65_SP40520FYLLN
 70
     0
 10
0.0
 20
0.0
 30
0.0
  3
65_SP40520FYLLN
  1

  0
LWPOLYLINE
  5
679
100
AcDbEntity
  8
ISOLERING
100
AcDbPolyline
 90
       14
 70
     0
 43
0.0
 10
-9.518759
 20
30.805791
 42
0.107028
 10
-11.203417
 20
30.974219
 10
-52.046583
 20
28.025781
 42
-1.120577
 10
-52.046583
 20
35.974219
 10
-11.203417
 20
33.025781
 42
1.120577
 10
-11.203417
 20
40.974219
 10
-52.046583
 20
38.025781
 42
-1.120577
 10
-52.046583
 20
45.974219
 10
-11.203417
 20
43.025781
 42
1.120577
 10
-11.203417
 20
50.974219
 10
-52.046583
 20
48.025781
 42
-1.120577
 10
-52.046583
 20
55.974219
 10
-11.203417
 20
53.025781
 42
0.486056
 10
-6.781373
 20
57.5
  0
LWPOLYLINE
  5
67B
100
AcDbEntity
  8
CENTRUM
100
AcDbPolyline
 90
        6
 70
     0
 43
0.0
 10
0.0
 20
57.5
 10
-4.25
 20
57.5
 10
-6.25
 20
57.5
 10
-57.0
 20
57.5
 10
-59.0
 20
57.5
 10
-65.0
 20
57.5
  0
INSERT
  5
67C
100
AcDbEntity
  8
0
100
AcDbBlockReference
  2
FYLLNV
 10
-65.0
 20
0.0
 30
0.0
  0
LWPOLYLINE
  5
69E
100
AcDbEntity
  8
SPKONTUR
100
AcDbPolyline
 90
        2
 70
     0
 43
0.0
 10
-59.0
 20
46.001
 10
-59.0
 20
57.5
  0
LWPOLYLINE
  5
69F
100
AcDbEntity
  8
STALPROFIL
100
AcDbPolyline
 90
        2
 70
     0
 43
2.0
 10
-58.0
 20
46.001
 10
-58.0
 20
57.5
  0
INSERT
  5
6A0
100
AcDbEntity
  8
0
100
AcDbBlockReference
  2
SP40520
 10
0.0
 20
0.0
 30
0.0
  0
INSERT
  5
6A1
100
AcDbEntity
  8
0
100
AcDbBlockReference
  2
FYLLNH
 10
0.0
 20
0.0
 30
0.0
  0
LWPOLYLINE
  5
6C0
100
AcDbEntity
  8
SPKONTUR
100
AcDbPolyline
 90
        2
 70
     0
 43
0.0
 10
-4.25
 20
46.001
 10
-4.25
 20
57.5
  0
LWPOLYLINE
  5
6C1
100
AcDbEntity
  8
STALPROFIL
100
AcDbPolyline
 90
        2
 70
     0
 43
2.0
 10
-5.25
 20
46.001
 10
-5.25
 20
57.5
  0
ENDBLK
  5
6C3
100
AcDbEntity
  8
0
100
AcDbBlockEnd
  0
BLOCK
  5
798
100
AcDbEntity
  8
0
100
AcDbBlockBegin
  2
A$C50F1256A
 70
     0
 10
0.0
 20
0.0
 30
0.0
  3
A$C50F1256A
  1

  0
LINE
  5
730
100
AcDbEntity
  8
KON
100
AcDbLine
 10
10.47038
 20
4.278467
 30
0.0
 11
10.700718
 21
4.405448
 31
0.0
  0
ARC
  5
731
100
AcDbEntity
  8
KON
100
AcDbCircle
 10
11.097995
 20
3.140003
 30
0.0
 40
1.3
100
AcDbArc
 50
118.867159
 51
243.959915
  0
ARC
  5
732
100
AcDbEntity
  8
KON
100
AcDbCircle
 10
11.097995
 20
3.140003
 30
0.0
 40
1.7
100
AcDbArc
 50
94.20028
 51
238.331757
  0
LINE
  5
733
100
AcDbEntity
  8
KON
100
AcDbLine
 10
12.362816
 20
0.200003
 30
0.0
 11
8.197995
 21
0.200003
 31
0.0
  0
LINE
  5
734
100
AcDbEntity
  8
DIM
100
AcDbLine
 10
13.066667
 20
0.000003
 30
0.0
 11
0.329323
 21
0.000003
 31
0.0
  0
LINE
  5
735
100
AcDbEntity
  8
DIM
100
AcDbLine
 10
4.177995
 20
1.429226
 30
0.0
 11
3.577995
 21
0.829226
 31
0.0
  0
ARC
  5
736
100
AcDbEntity
  8
KON
100
AcDbCircle
 10
2.297995
 20
3.140003
 30
0.0
 40
1.7
100
AcDbArc
 50
301.668243
 51
85.79972
  0
LINE
  5
737
100
AcDbEntity
  8
DIM
100
AcDbLine
 10
8.19851
 20
0.829226
 30
0.0
 11
3.303546
 21
0.829226
 31
0.0
  0
LINE
  5
738
100
AcDbEntity
  8
DIM
100
AcDbLine
 10
3.303546
 20
1.429226
 30
0.0
 11
8.19851
 21
1.429226
 31
0.0
  0
LINE
  5
739
100
AcDbEntity
  8
KON
100
AcDbLine
 10
3.087995
 20
0.800003
 30
0.0
 11
8.197995
 21
0.800003
 31
0.0
  0
LINE
  5
73A
100
AcDbEntity
  8
KON
100
AcDbLine
 10
1.033173
 20
0.200003
 30
0.0
 11
8.197995
 21
0.200003
 31
0.0
  0
LINE
  5
73B
100
AcDbEntity
  8
KON
100
AcDbLine
 10
0.422882
 20
5.084379
 30
0.0
 11
0.761557
 21
4.847237
 31
0.0
  0
LINE
  5
73C
100
AcDbEntity
  8
KON
100
AcDbLine
 10
0.282712
 20
5.236237
 30
0.0
 11
1.210079
 21
5.689411
 31
0.0
  0
LINE
  5
73D
100
AcDbEntity
  8
KON
100
AcDbLine
 10
0.422882
 20
5.084379
 30
0.0
 11
1.2831
 21
5.547079
 31
0.0
  0
LINE
  5
73E
100
AcDbEntity
  8
KON
100
AcDbLine
 10
1.033173
 20
0.200003
 30
0.0
 11
0.357176
 21
0.003961
 31
0.0
  0
LINE
  5
73F
100
AcDbEntity
  8
KON
100
AcDbLine
 10
0.306047
 20
3.100274
 30
0.0
 11
0.684709
 21
1.232057
 31
0.0
  0
LINE
  5
740
100
AcDbEntity
  8
KON
100
AcDbLine
 10
2.405604
 20
4.480003
 30
0.0
 11
0.6023
 21
4.480003
 31
0.0
  0
ARC
  5
741
100
AcDbEntity
  8
KON
100
AcDbCircle
 10
7.322995
 20
3.140003
 30
0.0
 40
7.325
100
AcDbArc
 50
168.825007
 51
193.419674
  0
LINE
  5
742
100
AcDbEntity
  8
KON
100
AcDbLine
 10
0.306047
 20
3.179733
 30
0.0
 11
0.563097
 21
4.447949
 31
0.0
  0
LINE
  5
743
100
AcDbEntity
  8
KON
100
AcDbLine
 10
0.197995
 20
1.440003
 30
0.0
 11
0.197995
 21
0.217422
 31
0.0
  0
LINE
  5
744
100
AcDbEntity
  8
KON
100
AcDbLine
 10
0.197995
 20
0.217422
 30
0.0
 11
0.235669
 21
0.061865
 31
0.0
  0
ARC
  5
745
100
AcDbEntity
  8
KON
100
AcDbCircle
 10
0.329323
 20
0.100003
 30
0.0
 40
0.1
100
AcDbArc
 50
202.157418
 51
286.172433
  0
ARC
  5
746
100
AcDbEntity
  8
KON
100
AcDbCircle
 10
0.502062
 20
3.140003
 30
0.0
 40
0.2
100
AcDbArc
 50
168.54217
 51
191.45783
  0
LINE
  5
747
100
AcDbEntity
  8
KON
100
AcDbLine
 10
0.245524
 20
4.973919
 30
0.0
 11
0.393311
 21
4.840003
 31
0.0
  0
LINE
  5
748
100
AcDbEntity
  8
KON
100
AcDbLine
 10
0.393311
 20
4.840003
 30
0.0
 11
0.164271
 21
4.610964
 31
0.0
  0
ARC
  5
749
100
AcDbEntity
  8
KON
100
AcDbCircle
 10
0.234982
 20
4.540253
 30
0.0
 40
0.1
100
AcDbArc
 50
135.0
 51
168.825007
  0
ARC
  5
74A
100
AcDbEntity
  8
KON
100
AcDbCircle
 10
0.6023
 20
4.440003
 30
0.0
 40
0.04
100
AcDbArc
 50
90.0
 51
168.54217
  0
ARC
  5
74B
100
AcDbEntity
  8
KON
100
AcDbCircle
 10
0.35296
 20
5.092483
 30
0.0
 40
0.16
100
AcDbArc
 50
116.043236
 51
227.818963
  0
ARC
  5
74C
100
AcDbEntity
  8
KON
100
AcDbCircle
 10
2.297995
 20
3.140003
 30
0.0
 40
1.3
100
AcDbArc
 50
296.040085
 51
61.132841
  0
ARC
  5
74D
100
AcDbEntity
  8
KON
100
AcDbCircle
 10
2.146159
 20
1.600003
 30
0.0
 40
0.4
100
AcDbArc
 50
270.0
 51
350.379265
  0
LINE
  5
74E
100
AcDbEntity
  8
KON
100
AcDbLine
 10
0.723912
 20
1.200003
 30
0.0
 11
2.146159
 21
1.200003
 31
0.0
  0
ARC
  5
74F
100
AcDbEntity
  8
KON
100
AcDbCircle
 10
0.723912
 20
1.240003
 30
0.0
 40
0.04
100
AcDbArc
 50
191.45783
 51
270.0
  0
ARC
  5
750
100
AcDbEntity
  8
KON
100
AcDbCircle
 10
3.347995
 20
1.437799
 30
0.0
 40
0.3
100
AcDbArc
 50
121.668243
 51
180.0
  0
ARC
  5
751
100
AcDbEntity
  8
KON
100
AcDbCircle
 10
3.087995
 20
0.840003
 30
0.0
 40
0.04
100
AcDbArc
 50
180.0
 51
270.0
  0
LINE
  5
752
100
AcDbEntity
  8
KON
100
AcDbLine
 10
3.047995
 20
0.840003
 30
0.0
 11
3.047995
 21
1.437799
 31
0.0
  0
LINE
  5
753
100
AcDbEntity
  8
DIM
100
AcDbLine
 10
3.677995
 20
1.429226
 30
0.0
 11
3.20424
 21
0.955471
 31
0.0
  0
ARC
  5
754
100
AcDbEntity
  8
DIM
100
AcDbCircle
 10
3.303546
 20
1.329226
 30
0.0
 40
0.1
100
AcDbArc
 50
90.0
 51
180.0
  0
ARC
  5
755
100
AcDbEntity
  8
DIM
100
AcDbCircle
 10
3.303546
 20
0.929226
 30
0.0
 40
0.1
100
AcDbArc
 50
180.0
 51
270.0
  0
LINE
  5
756
100
AcDbEntity
  8
DIM
100
AcDbLine
 10
3.203546
 20
0.929226
 30
0.0
 11
3.203546
 21
1.329226
 31
0.0
  0
ARC
  5
757
100
AcDbEntity
  8
KON
100
AcDbCircle
 10
3.132095
 20
1.432878
 30
0.0
 40
0.6
100
AcDbArc
 50
116.040085
 51
170.379265
  0
LINE
  5
758
100
AcDbEntity
  8
KON
100
AcDbLine
 10
2.489526
 20
5.183727
 30
0.0
 11
2.003803
 21
4.84362
 31
0.0
  0
LINE
  5
759
100
AcDbEntity
  8
KON
100
AcDbLine
 10
0.7845
 20
4.840003
 30
0.0
 11
1.992332
 21
4.840003
 31
0.0
  0
ARC
  5
75A
100
AcDbEntity
  8
KON
100
AcDbCircle
 10
0.7845
 20
4.880003
 30
0.0
 40
0.04
100
AcDbArc
 50
235.0
 51
270.0
  0
ARC
  5
75B
100
AcDbEntity
  8
KON
100
AcDbCircle
 10
1.245203
 20
5.617534
 30
0.0
 40
0.08
100
AcDbArc
 50
298.275235
 51
116.043236
  0
ARC
  5
75C
100
AcDbEntity
  8
KON
100
AcDbCircle
 10
1.992332
 20
4.860003
 30
0.0
 40
0.02
100
AcDbArc
 50
270.0
 51
305.0
  0
LINE
  5
75D
100
AcDbEntity
  8
KON
100
AcDbLine
 10
2.601581
 20
5.043311
 30
0.0
 11
2.410543
 21
4.870204
 31
0.0
  0
ARC
  5
75E
100
AcDbEntity
  8
KON
100
AcDbCircle
 10
2.405604
 20
3.880003
 30
0.0
 40
0.6
100
AcDbArc
 50
61.132841
 51
90.0
  0
ARC
  5
75F
100
AcDbEntity
  8
KON
100
AcDbCircle
 10
2.423973
 20
4.855384
 30
0.0
 40
0.02
100
AcDbArc
 50
132.181037
 51
265.79972
  0
LINE
  5
760
100
AcDbEntity
  8
KON
100
AcDbLine
 10
2.92561
 20
4.278467
 30
0.0
 11
2.695272
 21
4.405448
 31
0.0
  0
ARC
  5
761
100
AcDbEntity
  8
KON
100
AcDbCircle
 10
2.541148
 20
5.110003
 30
0.0
 40
0.09
100
AcDbArc
 50
312.181037
 51
125.0
  0
TEXT
  5
762
100
AcDbEntity
  8
KON
100
AcDbText
 10
6.036646
 20
3.991108
 30
0.0
 40
0.8
  1
1:1
  7
SIMPLEX
 72
     4
 11
6.72236
 21
4.391108
 31
0.0
100
AcDbText
  0
LINE
  5
763
100
AcDbEntity
  8
DIM
100
AcDbLine
 10
7.677995
 20
1.429226
 30
0.0
 11
7.077995
 21
0.829226
 31
0.0
  0
LINE
  5
764
100
AcDbEntity
  8
DIM
100
AcDbLine
 10
5.677995
 20
1.429226
 30
0.0
 11
5.077995
 21
0.829226
 31
0.0
  0
LINE
  5
765
100
AcDbEntity
  8
DIM
100
AcDbLine
 10
5.177995
 20
1.429226
 30
0.0
 11
4.577995
 21
0.829226
 31
0.0
  0
LINE
  5
766
100
AcDbEntity
  8
DIM
100
AcDbLine
 10
4.677995
 20
1.429226
 30
0.0
 11
4.077995
 21
0.829226
 31
0.0
  0
LINE
  5
767
100
AcDbEntity
  8
DIM
100
AcDbLine
 10
6.677995
 20
1.429226
 30
0.0
 11
6.077995
 21
0.829226
 31
0.0
  0
LINE
  5
768
100
AcDbEntity
  8
DIM
100
AcDbLine
 10
6.177995
 20
1.429226
 30
0.0
 11
5.577995
 21
0.829226
 31
0.0
  0
LINE
  5
769
100
AcDbEntity
  8
DIM
100
AcDbLine
 10
7.15602
 20
1.407251
 30
0.0
 11
6.577995
 21
0.829226
 31
0.0
  0
LINE
  5
76A
100
AcDbEntity
  8
DIM
100
AcDbLine
 10
10.093474
 20
1.429226
 30
0.0
 11
8.19851
 21
1.429226
 31
0.0
  0
LINE
  5
76B
100
AcDbEntity
  8
DIM
100
AcDbLine
 10
8.19851
 20
0.829226
 30
0.0
 11
10.093474
 21
0.829226
 31
0.0
  0
LINE
  5
76C
100
AcDbEntity
  8
KON
100
AcDbLine
 10
10.307995
 20
0.800003
 30
0.0
 11
8.197995
 21
0.800003
 31
0.0
  0
LINE
  5
76D
100
AcDbEntity
  8
DIM
100
AcDbLine
 10
9.15602
 20
1.407251
 30
0.0
 11
8.577995
 21
0.829226
 31
0.0
  0
LINE
  5
76E
100
AcDbEntity
  8
DIM
100
AcDbLine
 10
8.177995
 20
1.429226
 30
0.0
 11
7.577995
 21
0.829226
 31
0.0
  0
LINE
  5
76F
100
AcDbEntity
  8
DIM
100
AcDbLine
 10
8.677995
 20
1.429226
 30
0.0
 11
8.077995
 21
0.829226
 31
0.0
  0
ARC
  5
770
100
AcDbEntity
  8
KON
100
AcDbCircle
 10
10.047995
 20
1.437799
 30
0.0
 40
0.3
100
AcDbArc
 50
0.0
 51
58.331757
  0
LINE
  5
771
100
AcDbEntity
  8
DIM
100
AcDbLine
 10
10.15602
 20
1.407251
 30
0.0
 11
9.577995
 21
0.829226
 31
0.0
  0
LINE
  5
772
100
AcDbEntity
  8
DIM
100
AcDbLine
 10
9.677995
 20
1.429226
 30
0.0
 11
9.077995
 21
0.829226
 31
0.0
  0
ARC
  5
773
100
AcDbEntity
  8
DIM
100
AcDbCircle
 10
10.093474
 20
1.329226
 30
0.0
 40
0.1
100
AcDbArc
 50
0.0
 51
90.0
  0
ARC
  5
774
100
AcDbEntity
  8
DIM
100
AcDbCircle
 10
10.093474
 20
0.929226
 30
0.0
 40
0.1
100
AcDbArc
 50
270.0
 51
0.0
  0
LINE
  5
775
100
AcDbEntity
  8
DIM
100
AcDbLine
 10
10.193474
 20
0.944705
 30
0.0
 11
10.077995
 21
0.829226
 31
0.0
  0
ARC
  5
776
100
AcDbEntity
  8
KON
100
AcDbCircle
 10
10.307995
 20
0.840003
 30
0.0
 40
0.04
100
AcDbArc
 50
270.0
 51
0.0
  0
LINE
  5
777
100
AcDbEntity
  8
DIM
100
AcDbLine
 10
10.193474
 20
0.929226
 30
0.0
 11
10.193474
 21
1.329226
 31
0.0
  0
LINE
  5
778
100
AcDbEntity
  8
KON
100
AcDbLine
 10
10.347995
 20
0.840003
 30
0.0
 11
10.347995
 21
1.437799
 31
0.0
  0
ARC
  5
779
100
AcDbEntity
  8
KON
100
AcDbCircle
 10
6.072995
 20
3.140003
 30
0.0
 40
7.325
100
AcDbArc
 50
346.580326
 51
11.174993
  0
LINE
  5
77A
100
AcDbEntity
  8
KON
100
AcDbLine
 10
13.089942
 20
3.179733
 30
0.0
 11
12.832893
 21
4.447949
 31
0.0
  0
LINE
  5
77B
100
AcDbEntity
  8
KON
100
AcDbLine
 10
12.672078
 20
1.200003
 30
0.0
 11
11.249831
 21
1.200003
 31
0.0
  0
ARC
  5
77C
100
AcDbEntity
  8
KON
100
AcDbCircle
 10
11.249831
 20
1.600003
 30
0.0
 40
0.4
100
AcDbArc
 50
189.620735
 51
270.0
  0
ARC
  5
77D
100
AcDbEntity
  8
KON
100
AcDbCircle
 10
10.263895
 20
1.432878
 30
0.0
 40
0.6
100
AcDbArc
 50
9.620735
 51
63.959915
  0
LINE
  5
77E
100
AcDbEntity
  8
KON
100
AcDbLine
 10
13.089942
 20
3.100274
 30
0.0
 11
12.711281
 21
1.232057
 31
0.0
  0
LINE
  5
77F
100
AcDbEntity
  8
KON
100
AcDbLine
 10
12.362816
 20
0.200003
 30
0.0
 11
13.038814
 21
0.003961
 31
0.0
  0
ARC
  5
780
100
AcDbEntity
  8
KON
100
AcDbCircle
 10
12.672078
 20
1.240003
 30
0.0
 40
0.04
100
AcDbArc
 50
270.0
 51
348.54217
  0
LINE
  5
781
100
AcDbEntity
  8
KON
100
AcDbLine
 10
13.197995
 20
1.440003
 30
0.0
 11
13.197995
 21
0.217422
 31
0.0
  0
LINE
  5
782
100
AcDbEntity
  8
KON
100
AcDbLine
 10
13.197995
 20
0.217422
 30
0.0
 11
13.160321
 21
0.061865
 31
0.0
  0
ARC
  5
783
100
AcDbEntity
  8
KON
100
AcDbCircle
 10
13.066667
 20
0.100003
 30
0.0
 40
0.1
100
AcDbArc
 50
253.827567
 51
337.842582
  0
ARC
  5
784
100
AcDbEntity
  8
KON
100
AcDbCircle
 10
12.893928
 20
3.140003
 30
0.0
 40
0.2
100
AcDbArc
 50
348.54217
 51
11.45783
  0
ARC
  5
785
100
AcDbEntity
  8
KON
100
AcDbCircle
 10
12.150786
 20
5.617534
 30
0.0
 40
0.08
100
AcDbArc
 50
63.956764
 51
241.724765
  0
LINE
  5
786
100
AcDbEntity
  8
KON
100
AcDbLine
 10
12.973107
 20
5.084379
 30
0.0
 11
12.11289
 21
5.547079
 31
0.0
  0
LINE
  5
787
100
AcDbEntity
  8
KON
100
AcDbLine
 10
10.990386
 20
4.480003
 30
0.0
 11
12.79369
 21
4.480003
 31
0.0
  0
LINE
  5
788
100
AcDbEntity
  8
KON
100
AcDbLine
 10
12.61149
 20
4.840003
 30
0.0
 11
11.403658
 21
4.840003
 31
0.0
  0
LINE
  5
789
100
AcDbEntity
  8
KON
100
AcDbLine
 10
10.906464
 20
5.183727
 30
0.0
 11
11.392187
 21
4.84362
 31
0.0
  0
LINE
  5
78A
100
AcDbEntity
  8
KON
100
AcDbLine
 10
10.794409
 20
5.043311
 30
0.0
 11
10.985446
 21
4.870204
 31
0.0
  0
ARC
  5
78B
100
AcDbEntity
  8
KON
100
AcDbCircle
 10
10.990386
 20
3.880003
 30
0.0
 40
0.6
100
AcDbArc
 50
90.0
 51
118.867159
  0
ARC
  5
78C
100
AcDbEntity
  8
KON
100
AcDbCircle
 10
10.972017
 20
4.855384
 30
0.0
 40
0.02
100
AcDbArc
 50
274.20028
 51
47.818963
  0
ARC
  5
78D
100
AcDbEntity
  8
KON
100
AcDbCircle
 10
10.854842
 20
5.110003
 30
0.0
 40
0.09
100
AcDbArc
 50
55.0
 51
227.818963
  0
ARC
  5
78E
100
AcDbEntity
  8
KON
100
AcDbCircle
 10
11.403658
 20
4.860003
 30
0.0
 40
0.02
100
AcDbArc
 50
235.0
 51
270.0
  0
LINE
  5
78F
100
AcDbEntity
  8
KON
100
AcDbLine
 10
12.973107
 20
5.084379
 30
0.0
 11
12.634433
 21
4.847237
 31
0.0
  0
LINE
  5
790
100
AcDbEntity
  8
KON
100
AcDbLine
 10
13.113277
 20
5.236237
 30
0.0
 11
12.18591
 21
5.689411
 31
0.0
  0
ARC
  5
791
100
AcDbEntity
  8
KON
100
AcDbCircle
 10
12.61149
 20
4.880003
 30
0.0
 40
0.04
100
AcDbArc
 50
270.0
 51
305.0
  0
ARC
  5
792
100
AcDbEntity
  8
KON
100
AcDbCircle
 10
12.79369
 20
4.440003
 30
0.0
 40
0.04
100
AcDbArc
 50
11.45783
 51
90.0
  0
LINE
  5
793
100
AcDbEntity
  8
KON
100
AcDbLine
 10
13.150466
 20
4.973919
 30
0.0
 11
13.002679
 21
4.840003
 31
0.0
  0
ARC
  5
794
100
AcDbEntity
  8
KON
100
AcDbCircle
 10
13.161008
 20
4.540253
 30
0.0
 40
0.1
100
AcDbArc
 50
11.174993
 51
45.0
  0
LINE
  5
795
100
AcDbEntity
  8
KON
100
AcDbLine
 10
13.002679
 20
4.840003
 30
0.0
 11
13.231718
 21
4.610964
 31
0.0
  0
ARC
  5
796
100
AcDbEntity
  8
KON
100
AcDbCircle
 10
13.043029
 20
5.092483
 30
0.0
 40
0.16
100
AcDbArc
 50
312.181037
 51
63.956764
  0
TEXT
  5
797
100
AcDbEntity
  8
RAMTEXT
 62
     6
100
AcDbText
 10
-0.07051
 20
8.20191
 30
0.0
 40
2.0
  1
SP 40067
 41
0.8
  7
ROMANS
100
AcDbText
  0
ENDBLK
  5
799
100
AcDbEntity
  8
0
100
AcDbBlockEnd
  0
BLOCK
  5
C0F
100
AcDbEntity
  8
0
100
AcDbBlockBegin
  2
SP40067
 70
     0
 10
0.0
 20
0.0
 30
0.0
  3
SP40067
  1

  0
HATCH
  5
C10
100
AcDbEntity
  8
GLAS_MED_FOGNING
100
AcDbHatch
 10
0.0
 20
0.0
 30
0.0
210
0.0
220
0.0
230
1.0
  2
ANSI36
 70
     0
 71
     1
 91
        3
 92
        7
 72
     1
 73
     1
 93
       48
 10
-25.0
 20
40.0
 42
0.0
 10
-25.0
 20
60.82410708533979
 42
0.0
 10
-24.01978609710317
 20
64.20409455560582
 42
0.4273528427525496
 10
-24.38230919796442
 20
64.82931059414906
 42
0.0
 10
-25.08709473740889
 20
65.00000000000003
 42
0.0
 10
-31.19999999999993
 20
65.00000000000003
 42
0.1077283451384711
 10
-46.79815202475421
 20
65.30558394784975
 42
0.1486704827604817
 10
-47.05480231603347
 20
65.1686174210663
 42
0.0
 10
-48.2
 20
64.02341973709972
 42
0.0
 10
-48.86957849403422
 20
64.76235326426158
 42
0.5304548527028552
 10
-50.18117038868346
 20
64.57641238053369
 42
0.0
 10
-50.44873197733526
 20
59.93957706583208
 42
0.9807093936822649
 10
-49.73707390644985
 20
59.57447432277144
 42
0.0
 10
-49.42188091482541
 20
63.87556279045686
 42
0.0
 10
-48.20000000000003
 20
62.13053599747269
 42
0.0
 10
-48.20000000000004
 20
55.99678592768729
 42
0.0
 10
-49.91861841993006
 20
53.54234445691393
 42
0.9392182275127193
 10
-49.21653790520124
 20
52.98207114587984
 42
0.0
 10
-48.35100410835107
 20
53.93725705325687
 42
-0.659495478712151
 10
-48.17717000875038
 20
53.87743382460794
 42
0.727419388521271
 10
-32.46563107451655
 20
50.03750000000003
 42
-0.2601625430598614
 10
-31.18897773472538
 20
50.75000000000002
 42
0.0
 10
-28.19999999999998
 20
50.75000000000002
 42
-0.4142135623730117
 10
-28.00000000000004
 20
50.55000000000003
 42
0.0
 10
-28.00000000000004
 20
40.00000000000002
 42
0.0
 10
-28.00000000000004
 20
14.44999999999996
 42
-0.4142135623730326
 10
-28.20000000000004
 20
14.25
 42
0.0
 10
-31.18897773472532
 20
14.25
 42
-0.2601625430598701
 10
-32.46563107451655
 20
14.96249999999997
 42
0.7274193885212734
 10
-48.17717000875041
 20
11.12256617539212
 42
-0.6594954787121514
 10
-48.3510041083511
 20
11.06274294674318
 42
0.0
 10
-49.21653790520139
 20
12.01792885412035
 42
0.9392182275128634
 10
-49.91861841993017
 20
11.4576555430862
 42
0.0
 10
-48.20000000000006
 20
9.003214072312815
 42
0.0
 10
-48.2
 20
2.869464002527394
 42
0.0
 10
-49.42188091482541
 20
1.124437209543216
 42
0.0
 10
-49.73707390644985
 20
5.425525677228606
 42
0.9807093936830469
 10
-50.44873197733527
 20
5.060422934167959
 42
0.0
 10
-50.18117038868346
 20
0.423587619466403
 42
0.530454852702854
 10
-48.86957849403422
 20
0.2376467357385223
 42
0.0
 10
-48.19999999999999
 20
0.9765802629003417
 42
0.0
 10
-47.05480231603353
 20
-0.1686174210662017
 42
0.1486704827604388
 10
-46.79815202475438
 20
-0.3055839478496978
 42
0.1077283451384724
 10
-31.19999999999989
 20
0.0
 42
0.0
 10
-25.08709473740884
 20
-0.0000000000000142
 42
0.0
 10
-24.38230919796442
 20
0.1706894058509931
 42
0.4273528427525171
 10
-24.01978609710317
 20
0.7959054443942222
 42
0.0
 10
-25.0
 20
4.175892914660181
 42
0.0
 97
       48
330
C4D
330
C61
330
C4F
330
C50
330
C62
330
C52
330
C5B
330
C5D
330
C5C
330
C54
330
C55
330
C56
330
C57
330
C58
330
C4B
330
C6C
330
C6A
330
C6F
330
C11
330
C2F
330
C40
330
C38
330
C3A
330
C16
330
C22
330
C23
330
C24
330
C25
330
C1D
330
C1E
330
C29
330
C28
330
C27
330
C1F
330
C20
330
C1B
330
C1C
330
C18
330
C37
330
C3E
330
C3D
330
C3F
330
C30
330
C12
330
C64
330
C74
330
C75
330
C73
 92
       22
 72
     1
 73
     1
 93
       12
 10
-30.0
 20
2.62958330761262
 42
-0.3567831256950908
 10
-30.16027066923263
 20
2.433569072729611
 42
0.0
 10
-39.50135335531555
 20
0.5402628851346094
 42
-0.1003229866882686
 10
-39.8986466634515
 20
0.5402628852282874
 42
0.0
 10
-46.23972933085982
 20
1.825511232000124
 42
-0.3567831255621064
 10
-46.39999999999993
 20
2.021525466864403
 42
0.0
 10
-46.4
 20
11.038043389725
 42
-0.1266271045766662
 10
-46.02722416622838
 20
12.48638491726119
 42
0.0
 10
-45.39231902682817
 20
13.63807330966159
 42
-0.6073687848520325
 10
-33.85983360838032
 20
13.35349899565362
 42
0.2416445711928481
 10
-31.66574887874539
 20
11.71269167180449
 42
-0.3658454474621848
 10
-30.0
 20
9.740820431601406
 42
0.0
 97
       12
330
C34
330
C19
330
C2A
330
C2D
330
C2C
330
C2B
330
C1A
330
C2E
330
C17
330
C3B
330
C35
330
C42
 92
       22
 72
     1
 73
     1
 93
       12
 10
-45.39231902682817
 20
51.36192669033845
 42
0.0
 10
-46.02722416622841
 20
52.51361508273889
 42
-0.1266271045766584
 10
-46.4
 20
53.96195661027499
 42
0.0
 10
-46.39999999999993
 20
62.97847453313562
 42
-0.3567831255621956
 10
-46.23972933085977
 20
63.17448876799992
 42
0.0
 10
-39.8986466634516
 20
64.45973711477169
 42
-0.100322986688276
 10
-39.50135335531562
 20
64.45973711486542
 42
0.0
 10
-30.16027066923264
 20
62.56643092727045
 42
-0.3567831256951473
 10
-30.0
 20
62.37041669238744
 42
0.0
 10
-30.0
 20
55.25917956839862
 42
-0.3658454474621866
 10
-31.6657488787454
 20
53.28730832819553
 42
0.2416445711928448
 10
-33.85983360838031
 20
51.64650100434641
 42
-0.6073687848520353
 97
       12
330
C5F
330
C53
330
C5E
330
C60
330
C51
330
C63
330
C4E
330
C66
330
C72
330
C65
330
C6D
330
C4C
 75
     0
 76
     1
 52
90.0
 41
10.0
 77
     0
 78
     1
 53
135.0
 43
61.000017
 44
9.010026
 45
-2.430679560328756
 46
0.6629126073623885
 79
     4
 49
3.125
 49
-0.625
 49
0.0
 49
-0.625
 47
0.287683
 98
        3
 10
-27.603944
 20
6.320631
 10
-27.603944
 20
6.320631
 10
-27.603944
 20
6.320631
  0
LINE
  5
C11
102
{ACAD_REACTORS
330
C10
102
}
100
AcDbEntity
  8
KON
100
AcDbLine
 10
-28.0
 20
50.55
 30
0.0
 11
-28.0
 21
40.0
 31
0.0
  0
LINE
  5
C12
102
{ACAD_REACTORS
330
C10
102
}
100
AcDbEntity
  8
KON
100
AcDbLine
 10
-25.0
 20
60.824107
 30
0.0
 11
-25.0
 21
40.0
 31
0.0
  0
LINE
  5
C13
100
AcDbEntity
  8
DIM
100
AcDbLine
 10
-31.146113
 20
49.477396
 30
0.0
 11
-31.146113
 21
40.002575
 31
0.0
  0
LINE
  5
C14
100
AcDbEntity
  8
DIM
100
AcDbLine
 10
-28.146113
 20
40.002575
 30
0.0
 11
-28.146113
 21
49.477396
 31
0.0
  0
LINE
  5
C15
100
AcDbEntity
  8
DIM
100
AcDbLine
 10
-31.146113
 20
42.4
 30
0.0
 11
-28.146113
 21
39.4
 31
0.0
  0
ARC
  5
C16
102
{ACAD_REACTORS
330
C10
102
}
100
AcDbEntity
  8
KON
100
AcDbCircle
 10
-39.7
 20
10.5
 30
0.0
 40
8.5
100
AcDbArc
 50
31.668243
 51
175.79972
  0
ARC
  5
C17
102
{ACAD_REACTORS
330
C10
102
}
100
AcDbEntity
  8
KON
100
AcDbCircle
 10
-39.7
 20
10.5
 30
0.0
 40
6.5
100
AcDbArc
 50
26.040085
 51
151.132841
  0
ARC
  5
C18
102
{ACAD_REACTORS
330
C10
102
}
100
AcDbEntity
  8
KON
100
AcDbCircle
 10
-39.7
 20
35.625
 30
0.0
 40
36.625
100
AcDbArc
 50
258.825007
 51
283.419674
  0
LINE
  5
C19
102
{ACAD_REACTORS
330
C10
102
}
100
AcDbEntity
  8
KON
100
AcDbLine
 10
-39.501353
 20
0.540263
 30
0.0
 11
-30.160271
 21
2.433569
 31
0.0
  0
ARC
  5
C1A
102
{ACAD_REACTORS
330
C10
102
}
100
AcDbEntity
  8
KON
100
AcDbCircle
 10
-43.4
 20
11.038043
 30
0.0
 40
3.0
100
AcDbArc
 50
151.132841
 51
180.0
  0
LINE
  5
C1B
102
{ACAD_REACTORS
330
C10
102
}
100
AcDbEntity
  8
KON
100
AcDbLine
 10
-48.2
 20
0.97658
 30
0.0
 11
-47.054802
 21
-0.168617
 31
0.0
  0
ARC
  5
C1C
102
{ACAD_REACTORS
330
C10
102
}
100
AcDbEntity
  8
KON
100
AcDbCircle
 10
-46.701249
 20
0.184936
 30
0.0
 40
0.5
100
AcDbArc
 50
225.0
 51
258.825007
  0
LINE
  5
C1D
102
{ACAD_REACTORS
330
C10
102
}
100
AcDbEntity
  8
KON
100
AcDbLine
 10
-48.2
 20
2.932524
 30
0.0
 11
-48.2
 21
8.971684
 31
0.0
  0
LINE
  5
C1E
102
{ACAD_REACTORS
330
C10
102
}
100
AcDbEntity
  8
KON
100
AcDbLine
 10
-49.421881
 20
1.124437
 30
0.0
 11
-48.23617
 21
2.817808
 31
0.0
  0
ARC
  5
C1F
102
{ACAD_REACTORS
330
C10
102
}
100
AcDbEntity
  8
KON
100
AcDbCircle
 10
-49.4624
 20
0.774827
 30
0.0
 40
0.8
100
AcDbArc
 50
206.043236
 51
317.818963
  0
LINE
  5
C20
102
{ACAD_REACTORS
330
C10
102
}
100
AcDbEntity
  8
KON
100
AcDbLine
 10
-48.869578
 20
0.237647
 30
0.0
 11
-48.2
 21
0.97658
 31
0.0
  0
ARC
  5
C21
100
AcDbEntity
  8
KON
100
AcDbCircle
 10
-48.4
 20
2.932524
 30
0.0
 40
0.2
100
AcDbArc
 50
325.0
 51
0.0
  0
ARC
  5
C22
102
{ACAD_REACTORS
330
C10
102
}
100
AcDbEntity
  8
KON
100
AcDbCircle
 10
-48.276901
 20
11.12989
 30
0.0
 40
0.1
100
AcDbArc
 50
222.181037
 51
355.79972
  0
LINE
  5
C23
102
{ACAD_REACTORS
330
C10
102
}
100
AcDbEntity
  8
KON
100
AcDbLine
 10
-49.216538
 20
12.017929
 30
0.0
 11
-48.351004
 21
11.062743
 31
0.0
  0
ARC
  5
C24
102
{ACAD_REACTORS
330
C10
102
}
100
AcDbEntity
  8
KON
100
AcDbCircle
 10
-49.55
 20
11.715765
 30
0.0
 40
0.45
100
AcDbArc
 50
42.181037
 51
215.0
  0
LINE
  5
C25
102
{ACAD_REACTORS
330
C10
102
}
100
AcDbEntity
  8
KON
100
AcDbLine
 10
-49.918618
 20
11.457656
 30
0.0
 11
-48.218085
 21
9.029042
 31
0.0
  0
ARC
  5
C26
100
AcDbEntity
  8
KON
100
AcDbCircle
 10
-48.3
 20
8.971684
 30
0.0
 40
0.1
100
AcDbArc
 50
0.0
 51
35.0
  0
LINE
  5
C27
102
{ACAD_REACTORS
330
C10
102
}
100
AcDbEntity
  8
KON
100
AcDbLine
 10
-50.18117
 20
0.423588
 30
0.0
 11
-50.448732
 21
5.060423
 31
0.0
  0
ARC
  5
C28
102
{ACAD_REACTORS
330
C10
102
}
100
AcDbEntity
  8
KON
100
AcDbCircle
 10
-50.089347
 20
5.236043
 30
0.0
 40
0.4
100
AcDbArc
 50
28.275235
 51
206.043236
  0
LINE
  5
C29
102
{ACAD_REACTORS
330
C10
102
}
100
AcDbEntity
  8
KON
100
AcDbLine
 10
-49.421881
 20
1.124437
 30
0.0
 11
-49.737074
 21
5.425526
 31
0.0
  0
ARC
  5
C2A
102
{ACAD_REACTORS
330
C10
102
}
100
AcDbEntity
  8
KON
100
AcDbCircle
 10
-39.7
 20
1.520334
 30
0.0
 40
1.0
100
AcDbArc
 50
258.54217
 51
281.45783
  0
LINE
  5
C2B
102
{ACAD_REACTORS
330
C10
102
}
100
AcDbEntity
  8
KON
100
AcDbLine
 10
-46.4
 20
11.038043
 30
0.0
 11
-46.4
 21
2.021525
 31
0.0
  0
ARC
  5
C2C
102
{ACAD_REACTORS
330
C10
102
}
100
AcDbEntity
  8
KON
100
AcDbCircle
 10
-46.2
 20
2.021525
 30
0.0
 40
0.2
100
AcDbArc
 50
180.0
 51
258.54217
  0
LINE
  5
C2D
102
{ACAD_REACTORS
330
C10
102
}
100
AcDbEntity
  8
KON
100
AcDbLine
 10
-39.898647
 20
0.540263
 30
0.0
 11
-46.239729
 21
1.825511
 31
0.0
  0
LINE
  5
C2E
102
{ACAD_REACTORS
330
C10
102
}
100
AcDbEntity
  8
KON
100
AcDbLine
 10
-45.392319
 20
13.638073
 30
0.0
 11
-46.027224
 21
12.486385
 31
0.0
  0
LINE
  5
C2F
102
{ACAD_REACTORS
330
C10
102
}
100
AcDbEntity
  8
KON
100
AcDbLine
 10
-28.0
 20
14.45
 30
0.0
 11
-28.0
 21
40.0
 31
0.0
  0
LINE
  5
C30
102
{ACAD_REACTORS
330
C10
102
}
100
AcDbEntity
  8
KON
100
AcDbLine
 10
-25.0
 20
4.175893
 30
0.0
 11
-25.0
 21
40.0
 31
0.0
  0
LINE
  5
C31
100
AcDbEntity
  8
DIM
100
AcDbLine
 10
-28.146113
 20
40.002575
 30
0.0
 11
-28.146113
 21
15.527753
 31
0.0
  0
LINE
  5
C32
100
AcDbEntity
  8
DIM
100
AcDbLine
 10
-31.146113
 20
15.527753
 30
0.0
 11
-31.146113
 21
40.002575
 31
0.0
  0
LINE
  5
C33
100
AcDbEntity
  8
DIM
100
AcDbLine
 10
-31.146113
 20
19.9
 30
0.0
 11
-28.146113
 21
16.9
 31
0.0
  0
ARC
  5
C34
102
{ACAD_REACTORS
330
C10
102
}
100
AcDbEntity
  8
KON
100
AcDbCircle
 10
-30.2
 20
2.629583
 30
0.0
 40
0.2
100
AcDbArc
 50
281.45783
 51
360.0
  0
ARC
  5
C35
102
{ACAD_REACTORS
330
C10
102
}
100
AcDbEntity
  8
KON
100
AcDbCircle
 10
-32.0
 20
9.74082
 30
0.0
 40
2.0
100
AcDbArc
 50
0.0
 51
80.379265
  0
LINE
  5
C36
100
AcDbEntity
  8
DIM
100
AcDbLine
 10
-31.146113
 20
17.4
 30
0.0
 11
-28.777336
 21
15.031224
 31
0.0
  0
LINE
  5
C37
102
{ACAD_REACTORS
330
C10
102
}
100
AcDbEntity
  8
KON
100
AcDbLine
 10
-31.2
 20
0.0
 30
0.0
 11
-25.087095
 21
0.0
 31
0.0
  0
LINE
  5
C38
102
{ACAD_REACTORS
330
C10
102
}
100
AcDbEntity
  8
KON
100
AcDbLine
 10
-28.2
 20
14.25
 30
0.0
 11
-31.188978
 21
14.25
 31
0.0
  0
LINE
  5
C39
100
AcDbEntity
  8
DIM
100
AcDbLine
 10
-28.646113
 20
15.027753
 30
0.0
 11
-30.646113
 21
15.027753
 31
0.0
  0
ARC
  5
C3A
102
{ACAD_REACTORS
330
C10
102
}
100
AcDbEntity
  8
KON
100
AcDbCircle
 10
-31.188978
 20
15.75
 30
0.0
 40
1.5
100
AcDbArc
 50
211.668243
 51
270.0
  0
ARC
  5
C3B
102
{ACAD_REACTORS
330
C10
102
}
100
AcDbEntity
  8
KON
100
AcDbCircle
 10
-31.164372
 20
14.670499
 30
0.0
 40
3.0
100
AcDbArc
 50
206.040085
 51
260.379265
  0
ARC
  5
C3C
100
AcDbEntity
  8
DIM
100
AcDbCircle
 10
-30.646113
 20
15.527753
 30
0.0
 40
0.5
100
AcDbArc
 50
180.0
 51
270.0
  0
ARC
  5
C3D
102
{ACAD_REACTORS
330
C10
102
}
100
AcDbEntity
  8
KON
100
AcDbCircle
 10
-24.5
 20
0.656641
 30
0.0
 40
0.5
100
AcDbArc
 50
292.157418
 51
16.172433
  0
LINE
  5
C3E
102
{ACAD_REACTORS
330
C10
102
}
100
AcDbEntity
  8
KON
100
AcDbLine
 10
-25.087095
 20
0.0
 30
0.0
 11
-24.309308
 21
0.188369
 31
0.0
  0
LINE
  5
C3F
102
{ACAD_REACTORS
330
C10
102
}
100
AcDbEntity
  8
KON
100
AcDbLine
 10
-25.0
 20
4.175893
 30
0.0
 11
-24.019786
 21
0.795905
 31
0.0
  0
ARC
  5
C40
102
{ACAD_REACTORS
330
C10
102
}
100
AcDbEntity
  8
KON
100
AcDbCircle
 10
-28.2
 20
14.45
 30
0.0
 40
0.2
100
AcDbArc
 50
270.0
 51
0.0
  0
ARC
  5
C41
100
AcDbEntity
  8
DIM
100
AcDbCircle
 10
-28.646113
 20
15.527753
 30
0.0
 40
0.5
100
AcDbArc
 50
270.0
 51
0.0
  0
LINE
  5
C42
102
{ACAD_REACTORS
330
C10
102
}
100
AcDbEntity
  8
KON
100
AcDbLine
 10
-30.0
 20
2.629583
 30
0.0
 11
-30.0
 21
9.74082
 31
0.0
  0
LINE
  5
C43
100
AcDbEntity
  8
DIM
100
AcDbLine
 10
-31.146113
 20
32.4
 30
0.0
 11
-28.146113
 21
29.4
 31
0.0
  0
LINE
  5
C44
100
AcDbEntity
  8
DIM
100
AcDbLine
 10
-31.03624
 20
34.790127
 30
0.0
 11
-28.146113
 21
31.9
 31
0.0
  0
LINE
  5
C45
100
AcDbEntity
  8
DIM
100
AcDbLine
 10
-31.146113
 20
24.9
 30
0.0
 11
-28.146113
 21
21.9
 31
0.0
  0
LINE
  5
C46
100
AcDbEntity
  8
DIM
100
AcDbLine
 10
-31.146113
 20
22.4
 30
0.0
 11
-28.146113
 21
19.4
 31
0.0
  0
LINE
  5
C47
100
AcDbEntity
  8
DIM
100
AcDbLine
 10
-31.146113
 20
27.4
 30
0.0
 11
-28.146113
 21
24.4
 31
0.0
  0
LINE
  5
C48
100
AcDbEntity
  8
DIM
100
AcDbLine
 10
-31.146113
 20
29.9
 30
0.0
 11
-28.146113
 21
26.9
 31
0.0
  0
LINE
  5
C49
100
AcDbEntity
  8
DIM
100
AcDbLine
 10
-31.146113
 20
37.4
 30
0.0
 11
-28.146113
 21
34.4
 31
0.0
  0
LINE
  5
C4A
100
AcDbEntity
  8
DIM
100
AcDbLine
 10
-31.146113
 20
39.9
 30
0.0
 11
-28.146113
 21
36.9
 31
0.0
  0
ARC
  5
C4B
102
{ACAD_REACTORS
330
C10
102
}
100
AcDbEntity
  8
KON
100
AcDbCircle
 10
-39.7
 20
54.5
 30
0.0
 40
8.5
100
AcDbArc
 50
184.20028
 51
328.331757
  0
ARC
  5
C4C
102
{ACAD_REACTORS
330
C10
102
}
100
AcDbEntity
  8
KON
100
AcDbCircle
 10
-39.7
 20
54.5
 30
0.0
 40
6.5
100
AcDbArc
 50
208.867159
 51
333.959915
  0
ARC
  5
C4D
102
{ACAD_REACTORS
330
C10
102
}
100
AcDbEntity
  8
KON
100
AcDbCircle
 10
-39.7
 20
29.375
 30
0.0
 40
36.625
100
AcDbArc
 50
76.580326
 51
101.174993
  0
LINE
  5
C4E
102
{ACAD_REACTORS
330
C10
102
}
100
AcDbEntity
  8
KON
100
AcDbLine
 10
-39.501353
 20
64.459737
 30
0.0
 11
-30.160271
 21
62.566431
 31
0.0
  0
LINE
  5
C4F
102
{ACAD_REACTORS
330
C10
102
}
100
AcDbEntity
  8
KON
100
AcDbLine
 10
-48.2
 20
64.02342
 30
0.0
 11
-47.054802
 21
65.168617
 31
0.0
  0
LINE
  5
C50
102
{ACAD_REACTORS
330
C10
102
}
100
AcDbEntity
  8
KON
100
AcDbLine
 10
-48.869578
 20
64.762353
 30
0.0
 11
-48.2
 21
64.02342
 31
0.0
  0
LINE
  5
C51
102
{ACAD_REACTORS
330
C10
102
}
100
AcDbEntity
  8
KON
100
AcDbLine
 10
-39.898647
 20
64.459737
 30
0.0
 11
-46.239729
 21
63.174489
 31
0.0
  0
LINE
  5
C52
102
{ACAD_REACTORS
330
C10
102
}
100
AcDbEntity
  8
KON
100
AcDbLine
 10
-50.18117
 20
64.576412
 30
0.0
 11
-50.448732
 21
59.939577
 31
0.0
  0
ARC
  5
C53
102
{ACAD_REACTORS
330
C10
102
}
100
AcDbEntity
  8
KON
100
AcDbCircle
 10
-43.4
 20
53.961957
 30
0.0
 40
3.0
100
AcDbArc
 50
180.0
 51
208.867159
  0
LINE
  5
C54
102
{ACAD_REACTORS
330
C10
102
}
100
AcDbEntity
  8
KON
100
AcDbLine
 10
-48.2
 20
62.067476
 30
0.0
 11
-48.2
 21
56.028316
 31
0.0
  0
LINE
  5
C55
102
{ACAD_REACTORS
330
C10
102
}
100
AcDbEntity
  8
KON
100
AcDbLine
 10
-49.918618
 20
53.542344
 30
0.0
 11
-48.218085
 21
55.970958
 31
0.0
  0
ARC
  5
C56
102
{ACAD_REACTORS
330
C10
102
}
100
AcDbEntity
  8
KON
100
AcDbCircle
 10
-49.55
 20
53.284235
 30
0.0
 40
0.45
100
AcDbArc
 50
145.0
 51
317.818963
  0
LINE
  5
C57
102
{ACAD_REACTORS
330
C10
102
}
100
AcDbEntity
  8
KON
100
AcDbLine
 10
-49.216538
 20
52.982071
 30
0.0
 11
-48.351004
 21
53.937257
 31
0.0
  0
ARC
  5
C58
102
{ACAD_REACTORS
330
C10
102
}
100
AcDbEntity
  8
KON
100
AcDbCircle
 10
-48.276901
 20
53.87011
 30
0.0
 40
0.1
100
AcDbArc
 50
4.20028
 51
137.818963
  0
ARC
  5
C59
100
AcDbEntity
  8
KON
100
AcDbCircle
 10
-48.3
 20
56.028316
 30
0.0
 40
0.1
100
AcDbArc
 50
325.0
 51
360.0
  0
ARC
  5
C5A
100
AcDbEntity
  8
KON
100
AcDbCircle
 10
-48.4
 20
62.067476
 30
0.0
 40
0.2
100
AcDbArc
 50
360.0
 51
35.0
  0
ARC
  5
C5B
102
{ACAD_REACTORS
330
C10
102
}
100
AcDbEntity
  8
KON
100
AcDbCircle
 10
-50.089347
 20
59.763957
 30
0.0
 40
0.4
100
AcDbArc
 50
153.956764
 51
331.724765
  0
LINE
  5
C5C
102
{ACAD_REACTORS
330
C10
102
}
100
AcDbEntity
  8
KON
100
AcDbLine
 10
-49.421881
 20
63.875563
 30
0.0
 11
-48.23617
 21
62.182192
 31
0.0
  0
LINE
  5
C5D
102
{ACAD_REACTORS
330
C10
102
}
100
AcDbEntity
  8
KON
100
AcDbLine
 10
-49.421881
 20
63.875563
 30
0.0
 11
-49.737074
 21
59.574474
 31
0.0
  0
LINE
  5
C5E
102
{ACAD_REACTORS
330
C10
102
}
100
AcDbEntity
  8
KON
100
AcDbLine
 10
-46.4
 20
53.961957
 30
0.0
 11
-46.4
 21
62.978475
 31
0.0
  0
LINE
  5
C5F
102
{ACAD_REACTORS
330
C10
102
}
100
AcDbEntity
  8
KON
100
AcDbLine
 10
-45.392319
 20
51.361927
 30
0.0
 11
-46.027224
 21
52.513615
 31
0.0
  0
ARC
  5
C60
102
{ACAD_REACTORS
330
C10
102
}
100
AcDbEntity
  8
KON
100
AcDbCircle
 10
-46.2
 20
62.978475
 30
0.0
 40
0.2
100
AcDbArc
 50
101.45783
 51
180.0
  0
ARC
  5
C61
102
{ACAD_REACTORS
330
C10
102
}
100
AcDbEntity
  8
KON
100
AcDbCircle
 10
-46.701249
 20
64.815064
 30
0.0
 40
0.5
100
AcDbArc
 50
101.174993
 51
135.0
  0
ARC
  5
C62
102
{ACAD_REACTORS
330
C10
102
}
100
AcDbEntity
  8
KON
100
AcDbCircle
 10
-49.4624
 20
64.225173
 30
0.0
 40
0.8
100
AcDbArc
 50
42.181037
 51
153.956764
  0
ARC
  5
C63
102
{ACAD_REACTORS
330
C10
102
}
100
AcDbEntity
  8
KON
100
AcDbCircle
 10
-39.7
 20
63.479666
 30
0.0
 40
1.0
100
AcDbArc
 50
78.54217
 51
101.45783
  0
LINE
  5
C64
102
{ACAD_REACTORS
330
C10
102
}
100
AcDbEntity
  8
KON
100
AcDbLine
 10
-25.0
 20
60.824107
 30
0.0
 11
-24.019786
 21
64.204095
 31
0.0
  0
ARC
  5
C65
102
{ACAD_REACTORS
330
C10
102
}
100
AcDbEntity
  8
KON
100
AcDbCircle
 10
-32.0
 20
55.25918
 30
0.0
 40
2.0
100
AcDbArc
 50
279.620735
 51
0.0
  0
ARC
  5
C66
102
{ACAD_REACTORS
330
C10
102
}
100
AcDbEntity
  8
KON
100
AcDbCircle
 10
-30.2
 20
62.370417
 30
0.0
 40
0.2
100
AcDbArc
 50
0.0
 51
78.54217
  0
LINE
  5
C67
100
AcDbEntity
  8
DIM
100
AcDbLine
 10
-31.03624
 20
49.790127
 30
0.0
 11
-28.146113
 21
46.9
 31
0.0
  0
LINE
  5
C68
100
AcDbEntity
  8
DIM
100
AcDbLine
 10
-31.03624
 20
44.790127
 30
0.0
 11
-28.146113
 21
41.9
 31
0.0
  0
LINE
  5
C69
100
AcDbEntity
  8
DIM
100
AcDbLine
 10
-31.146113
 20
47.4
 30
0.0
 11
-28.146113
 21
44.4
 31
0.0
  0
LINE
  5
C6A
102
{ACAD_REACTORS
330
C10
102
}
100
AcDbEntity
  8
KON
100
AcDbLine
 10
-28.2
 20
50.75
 30
0.0
 11
-31.188978
 21
50.75
 31
0.0
  0
LINE
  5
C6B
100
AcDbEntity
  8
DIM
100
AcDbLine
 10
-28.646113
 20
49.977396
 30
0.0
 11
-30.646113
 21
49.977396
 31
0.0
  0
ARC
  5
C6C
102
{ACAD_REACTORS
330
C10
102
}
100
AcDbEntity
  8
KON
100
AcDbCircle
 10
-31.188978
 20
49.25
 30
0.0
 40
1.5
100
AcDbArc
 50
90.0
 51
148.331757
  0
ARC
  5
C6D
102
{ACAD_REACTORS
330
C10
102
}
100
AcDbEntity
  8
KON
100
AcDbCircle
 10
-31.164372
 20
50.329501
 30
0.0
 40
3.0
100
AcDbArc
 50
99.620735
 51
153.959915
  0
ARC
  5
C6E
100
AcDbEntity
  8
DIM
100
AcDbCircle
 10
-30.646113
 20
49.477396
 30
0.0
 40
0.5
100
AcDbArc
 50
90.0
 51
180.0
  0
ARC
  5
C6F
102
{ACAD_REACTORS
330
C10
102
}
100
AcDbEntity
  8
KON
100
AcDbCircle
 10
-28.2
 20
50.55
 30
0.0
 40
0.2
100
AcDbArc
 50
0.0
 51
90.0
  0
ARC
  5
C70
100
AcDbEntity
  8
DIM
100
AcDbCircle
 10
-28.646113
 20
49.477396
 30
0.0
 40
0.5
100
AcDbArc
 50
0.0
 51
90.0
  0
LINE
  5
C71
100
AcDbEntity
  8
DIM
100
AcDbLine
 10
-28.723509
 20
49.977396
 30
0.0
 11
-28.146113
 21
49.4
 31
0.0
  0
LINE
  5
C72
102
{ACAD_REACTORS
330
C10
102
}
100
AcDbEntity
  8
KON
100
AcDbLine
 10
-30.0
 20
62.370417
 30
0.0
 11
-30.0
 21
55.25918
 31
0.0
  0
LINE
  5
C73
102
{ACAD_REACTORS
330
C10
102
}
100
AcDbEntity
  8
KON
100
AcDbLine
 10
-31.2
 20
65.0
 30
0.0
 11
-25.087095
 21
65.0
 31
0.0
  0
ARC
  5
C74
102
{ACAD_REACTORS
330
C10
102
}
100
AcDbEntity
  8
KON
100
AcDbCircle
 10
-24.5
 20
64.343359
 30
0.0
 40
0.5
100
AcDbArc
 50
343.827567
 51
67.842582
  0
LINE
  5
C75
102
{ACAD_REACTORS
330
C10
102
}
100
AcDbEntity
  8
KON
100
AcDbLine
 10
-25.087095
 20
65.0
 30
0.0
 11
-24.309308
 21
64.811631
 31
0.0
  0
ENDBLK
  5
C76
100
AcDbEntity
  8
0
100
AcDbBlockEnd
  0
ENDSEC
  0
SECTION
  2
ENTITIES
  0
INSERT
  5
1F
100
AcDbEntity
  8
0
100
AcDbBlockReference
  2
SIDA
 10
-25.0
 20
-5.0
 30
0.0
  0
INSERT
  5
132
100
AcDbEntity
  8
GLAS_MED_FOGNING
100
AcDbBlockReference
  2
65_SP42020DKTRI
 10
-320.0
 20
290.0
 30
0.0
  0
TEXT
  5
214
100
AcDbEntity
  8
TEXT
100
AcDbText
 10
-297.747619
 20
130.0
 30
0.0
 40
5.0
  1
%%UEXPLODE
 41
0.8
  7
ROMANS
 72
     1
 11
-285.0
 21
130.0
 31
0.0
100
AcDbText
  0
INSERT
  5
215
100
AcDbEntity
  8
0
100
AcDbBlockReference
  2
GLAS30-4X3DK
 10
-375.0
 20
60.0
 30
0.0
  0
LWPOLYLINE
  5
25E
100
AcDbEntity
  8
CENTRUM
100
AcDbPolyline
 90
        4
 70
     0
 43
0.0
 10
-325.0
 20
122.5
 10
-338.0
 20
122.5
 10
-368.0
 20
122.5
 10
-375.0
 20
122.5
  0
TEXT
  5
25F
100
AcDbEntity
  8
TEXT
100
AcDbText
 10
-387.652381
 20
73.0
 30
0.0
 40
5.0
  1
%%UGLAS30-4X3DK
 41
0.8
  7
ROMANS
 72
     1
 11
-365.0
 21
73.0
 31
0.0
100
AcDbText
  0
LINE
  5
260
100
AcDbEntity
  8
GLAS_MED_FOGNING
100
AcDbLine
 10
-368.0
 20
122.5
 30
0.0
 11
-368.0
 21
114.0
 31
0.0
  0
INSERT
  5
261
100
AcDbEntity
  8
0
100
AcDbBlockReference
  2
SP41020
 10
-310.0
 20
60.0
 30
0.0
  0
LINE
  5
26D
100
AcDbEntity
  8
GLAS_MED_FOGNING
100
AcDbLine
 10
-338.0
 20
122.5
 30
0.0
 11
-338.0
 21
114.0
 31
0.0
  0
TEXT
  5
26E
100
AcDbEntity
  8
TEXT
100
AcDbText
 10
-322.842857
 20
73.0
 30
0.0
 40
5.0
  1
%%USP41020
 41
0.8
  7
ROMANS
 72
     1
 11
-310.0
 21
73.0
 31
0.0
100
AcDbText
  0
TEXT
  5
26F
100
AcDbEntity
  8
TEXT
100
AcDbText
 10
-383.209524
 20
223.0
 30
0.0
 40
5.0
  1
%%U65_SP43520TRI
 41
0.8
  7
ROMANS
 72
     1
 11
-360.0
 21
223.0
 31
0.0
100
AcDbText
  0
INSERT
  5
270
100
AcDbEntity
  8
GLAS_MED_FOGNING
100
AcDbBlockReference
  2
65_SP43520DKTRI
 10
-320.0
 20
155.0
 30
0.0
  0
INSERT
  5
29C
100
AcDbEntity
  8
GLAS_MED_FOGNING
100
AcDbBlockReference
  2
65_SP43520TRI
 10
-320.0
 20
215.0
 30
0.0
  0
LINE
  5
2BF
100
AcDbEntity
  8
TEXT
100
AcDbLine
 10
-369.668702
 20
181.109415
 30
0.0
 11
-361.444358
 21
161.998604
 31
0.0
  0
LINE
  5
2C0
100
AcDbEntity
  8
TEXT
100
AcDbLine
 10
-369.668702
 20
316.109415
 30
0.0
 11
-361.444358
 21
296.998604
 31
0.0
  0
LWPOLYLINE
  5
2C1
100
AcDbEntity
  8
CENTRUM
100
AcDbPolyline
 90
        4
 70
     0
 43
0.0
 10
-205.0
 20
122.5
 10
-235.0
 20
122.5
 10
-246.0
 20
122.5
 10
-255.0
 20
122.5
  0
TEXT
  5
2C2
100
AcDbEntity
  8
TEXT
100
AcDbText
 10
-268.652381
 20
73.0
 30
0.0
 40
5.0
  1
%%UGLAS11-6X5
 41
0.8
  7
ROMANS
 72
     1
 11
-250.0
 21
73.0
 31
0.0
100
AcDbText
  0
LINE
  5
2C3
100
AcDbEntity
  8
GLAS_MED_FOGNING
100
AcDbLine
 10
-246.0
 20
122.5
 30
0.0
 11
-246.0
 21
114.0
 31
0.0
  0
LINE
  5
2C4
100
AcDbEntity
  8
GLAS_MED_FOGNING
100
AcDbLine
 10
-235.0
 20
122.5
 30
0.0
 11
-235.0
 21
114.0
 31
0.0
  0
INSERT
  5
2C5
100
AcDbEntity
  8
0
100
AcDbBlockReference
  2
GLAS11-6X5
 10
-255.0
 20
60.0
 30
0.0
  0
TEXT
  5
32D
100
AcDbEntity
  8
TEXT
100
AcDbText
 10
-207.842857
 20
73.0
 30
0.0
 40
5.0
  1
%%USP42520
 41
0.8
  7
ROMANS
 72
     1
 11
-195.0
 21
73.0
 31
0.0
100
AcDbText
  0
INSERT
  5
32E
100
AcDbEntity
  8
0
100
AcDbBlockReference
  2
SP42520
 10
-200.0
 20
60.0
 30
0.0
  0
INSERT
  5
330
100
AcDbEntity
  8
GLAS_MED_FOGNING
100
AcDbBlockReference
  2
65_SP44020DKTRI
 10
-195.0
 20
155.0
 30
0.0
  0
INSERT
  5
35C
100
AcDbEntity
  8
GLAS_MED_FOGNING
100
AcDbBlockReference
  2
65_SP44020TRI
 10
-195.0
 20
215.0
 30
0.0
  0
TEXT
  5
37D
100
AcDbEntity
  8
TEXT
100
AcDbText
 10
-258.209524
 20
223.0
 30
0.0
 40
5.0
  1
%%U65_SP44020TRI
 41
0.8
  7
ROMANS
 72
     1
 11
-235.0
 21
223.0
 31
0.0
100
AcDbText
  0
LINE
  5
37E
100
AcDbEntity
  8
TEXT
100
AcDbLine
 10
-244.668702
 20
181.109415
 30
0.0
 11
-236.444358
 21
161.998604
 31
0.0
  0
INSERT
  5
37F
100
AcDbEntity
  8
GLAS_MED_FOGNING
100
AcDbBlockReference
  2
65_SP44020
 10
-320.0
 20
480.0
 30
0.0
  0
TEXT
  5
442
100
AcDbEntity
  8
TEXT
100
AcDbText
 10
-358.938095
 20
488.0
 30
0.0
 40
5.0
  1
%%U65_SP44020
 41
0.8
  7
ROMANS
 72
     1
 11
-340.0
 21
488.0
 31
0.0
100
AcDbText
  0
TEXT
  5
443
100
AcDbEntity
  8
TEXT
100
AcDbText
 10
-383.209524
 20
358.0
 30
0.0
 40
5.0
  1
%%U65_SP42020TRI
 41
0.8
  7
ROMANS
 72
     1
 11
-360.0
 21
358.0
 31
0.0
100
AcDbText
  0
INSERT
  5
444
100
AcDbEntity
  8
GLAS_MED_FOGNING
100
AcDbBlockReference
  2
65_SP44020DK
 10
-320.0
 20
420.0
 30
0.0
  0
INSERT
  5
464
100
AcDbEntity
  8
GLAS_MED_FOGNING
100
AcDbBlockReference
  2
65_SP42020TRI
 10
-320.0
 20
345.0
 30
0.0
  0
TEXT
  5
483
100
AcDbEntity
  8
TEXT
100
AcDbText
 10
-359.938095
 20
428.0
 30
0.0
 40
5.0
  1
%%UDISTANCE BLOCK
 41
0.8
  7
ROMANS
 72
     1
 11
-335.0
 21
428.0
 31
0.0
100
AcDbText
  0
LINE
  5
484
100
AcDbEntity
  8
TEXT
100
AcDbLine
 10
-369.668702
 20
446.109415
 30
0.0
 11
-361.444358
 21
426.998604
 31
0.0
  0
INSERT
  5
485
100
AcDbEntity
  8
GLAS_MED_FOGNING
100
AcDbBlockReference
  2
65_SP43520
 10
-195.0
 20
480.0
 30
0.0
  0
TEXT
  5
4A0
100
AcDbEntity
  8
TEXT
100
AcDbText
 10
-233.938095
 20
488.0
 30
0.0
 40
5.0
  1
%%U65_SP43520
 41
0.8
  7
ROMANS
 72
     1
 11
-215.0
 21
488.0
 31
0.0
100
AcDbText
  0
TEXT
  5
4A2
100
AcDbEntity
  8
TEXT
100
AcDbText
 10
-263.209524
 20
358.0
 30
0.0
 40
5.0
  1
%%U65_SP42520TRI
 41
0.8
  7
ROMANS
 72
     1
 11
-240.0
 21
358.0
 31
0.0
100
AcDbText
  0
INSERT
  5
4A3
100
AcDbEntity
  8
GLAS_MED_FOGNING
100
AcDbBlockReference
  2
65_SP43520DK
 10
-195.0
 20
420.0
 30
0.0
  0
INSERT
  5
4C3
100
AcDbEntity
  8
GLAS_MED_FOGNING
100
AcDbBlockReference
  2
65_SP42520TRI
 10
-195.0
 20
345.0
 30
0.0
  0
LINE
  5
4E4
100
AcDbEntity
  8
TEXT
100
AcDbLine
 10
-244.668702
 20
446.109415
 30
0.0
 11
-236.444358
 21
426.998604
 31
0.0
  0
INSERT
  5
4E5
100
AcDbEntity
  8
GLAS_MED_FOGNING
100
AcDbBlockReference
  2
65_SP43020DKTRI
 10
-80.0
 20
290.0
 30
0.0
  0
TEXT
  5
511
100
AcDbEntity
  8
TEXT
100
AcDbText
 10
-99.333333
 20
35.0
 30
0.0
 40
5.0
  1
56500  %%UPAGE 7
 41
0.8
  7
ROMANS
 72
     2
 11
-50.0
 21
35.0
 31
0.0
100
AcDbText
  0
TEXT
  5
512
100
AcDbEntity
  8
TEXT
100
AcDbText
 10
-129.842857
 20
58.0
 30
0.0
 40
5.0
  1
%%USP 40067
 41
0.8
  7
ROMANS
 72
     1
 11
-115.0
 21
58.0
 31
0.0
100
AcDbText
  0
TEXT
  5
66D
100
AcDbEntity
  8
TEXT
100
AcDbText
 10
-109.985714
 20
163.0
 30
0.0
 40
5.0
  1
%%UFILLING
 41
0.8
  7
ROMANS
 72
     1
 11
-100.0
 21
163.0
 31
0.0
100
AcDbText
  0
TEXT
  5
66E
100
AcDbEntity
  8
TEXT
100
AcDbText
 10
-107.842857
 20
223.0
 30
0.0
 40
5.0
  1
%%USP40520
 41
0.8
  7
ROMANS
 72
     1
 11
-95.0
 21
223.0
 31
0.0
100
AcDbText
  0
INSERT
  5
66F
100
AcDbEntity
  8
0
100
AcDbBlockReference
  2
SP40520
 10
-80.0
 20
215.0
 30
0.0
  0
INSERT
  5
677
100
AcDbEntity
  8
GLAS_MED_FOGNING
100
AcDbBlockReference
  2
65_SP40520FYLLN
 10
-80.0
 20
155.0
 30
0.0
  0
LINE
  5
6C4
100
AcDbEntity
  8
TEXT
100
AcDbLine
 10
-121.261656
 20
183.685782
 30
0.0
 11
-113.636196
 21
161.999677
 31
0.0
  0
LINE
  5
6C5
100
AcDbEntity
  8
TEXT
100
AcDbLine
 10
-129.668702
 20
316.109415
 30
0.0
 11
-121.444358
 21
296.998604
 31
0.0
  0
INSERT
  5
6C6
100
AcDbEntity
  8
GLAS_MED_FOGNING
100
AcDbBlockReference
  2
65_SP43020
 10
-80.0
 20
480.0
 30
0.0
  0
TEXT
  5
6E1
100
AcDbEntity
  8
TEXT
100
AcDbText
 10
-118.938095
 20
488.0
 30
0.0
 40
5.0
  1
%%U65_SP43020
 41
0.8
  7
ROMANS
 72
     1
 11
-100.0
 21
488.0
 31
0.0
100
AcDbText
  0
INSERT
  5
6E3
100
AcDbEntity
  8
GLAS_MED_FOGNING
100
AcDbBlockReference
  2
65_SP43020DK
 10
-80.0
 20
420.0
 30
0.0
  0
INSERT
  5
703
100
AcDbEntity
  8
GLAS_MED_FOGNING
100
AcDbBlockReference
  2
65_SP43020TRI
 10
-80.0
 20
345.0
 30
0.0
  0
LINE
  5
724
100
AcDbEntity
  8
TEXT
100
AcDbLine
 10
-129.668702
 20
446.109415
 30
0.0
 11
-121.444358
 21
426.998604
 31
0.0
  0
TEXT
  5
725
100
AcDbEntity
  8
TEXT
100
AcDbText
 10
-148.209524
 20
358.0
 30
0.0
 40
5.0
  1
%%U65_SP43020TRI
 41
0.8
  7
ROMANS
 72
     1
 11
-125.0
 21
358.0
 31
0.0
100
AcDbText
  0
INSERT
  5
C77
100
AcDbEntity
  8
GLAS_MED_FOGNING
100
AcDbBlockReference
  2
SP40067
 10
-80.0
 20
70.0
 30
0.0
  0
TEXT
  5
C87
100
AcDbEntity
  8
TEXT
100
AcDbText
 10
-234.938095
 20
428.0
 30
0.0
 40
5.0
  1
%%UDISTANCE BLOCK
 41
0.8
  7
ROMANS
 72
     1
 11
-210.0
 21
428.0
 31
0.0
100
AcDbText
  0
TEXT
  5
C88
100
AcDbEntity
  8
TEXT
100
AcDbText
 10
-119.938095
 20
428.0
 30
0.0
 40
5.0
  1
%%UDISTANCE BLOCK
 41
0.8
  7
ROMANS
 72
     1
 11
-95.0
 21
428.0
 31
0.0
100
AcDbText
  0
TEXT
  5
C89
100
AcDbEntity
  8
TEXT
100
AcDbText
 10
-119.938095
 20
298.0
 30
0.0
 40
5.0
  1
%%UDISTANCE BLOCK
 41
0.8
  7
ROMANS
 72
     1
 11
-95.0
 21
298.0
 31
0.0
100
AcDbText
  0
TEXT
  5
C8A
100
AcDbEntity
  8
TEXT
100
AcDbText
 10
-359.938095
 20
298.0
 30
0.0
 40
5.0
  1
%%UDISTANCE BLOCK
 41
0.8
  7
ROMANS
 72
     1
 11
-335.0
 21
298.0
 31
0.0
100
AcDbText
  0
INSERT
  5
C90
100
AcDbEntity
  8
GLAS_MED_FOGNING
100
AcDbBlockReference
  2
SP42520
 10
-195.0
 20
290.0
 30
0.0
  0
INSERT
  5
C91
100
AcDbEntity
  8
GLAS_MED_FOGNING
100
AcDbBlockReference
  2
GLAS26-5DK
 10
-195.0
 20
290.0
 30
0.0
  0
LINE
  5
C93
100
AcDbEntity
  8
TEXT
100
AcDbLine
 10
-238.407373
 20
296.239706
 30
0.0
 11
-245.202989
 21
314.912553
 31
0.0
  0
TEXT
  5
C94
100
AcDbEntity
  8
TEXT
100
AcDbText
 10
-237.494815
 20
298.0
 30
0.0
 40
5.0
  1
%%UDISTANCE BLOCK
 41
0.8
  7
ROMANS
 72
     1
 11
-212.55672
 21
298.0
 31
0.0
100
AcDbText
  0
TEXT
  5
C95
100
AcDbEntity
  8
TEXT
100
AcDbText
 10
-359.938095
 20
163.0
 30
0.0
 40
5.0
  1
%%UDISTANCE BLOCK
 41
0.8
  7
ROMANS
 72
     1
 11
-335.0
 21
163.0
 31
0.0
100
AcDbText
  0
TEXT
  5
C96
100
AcDbEntity
  8
TEXT
100
AcDbText
 10
-234.938095
 20
163.0
 30
0.0
 40
5.0
  1
%%UDISTANCE BLOCK
 41
0.8
  7
ROMANS
 72
     1
 11
-210.0
 21
163.0
 31
0.0
100
AcDbText
  0
ENDSEC
  0
SECTION
  2
OBJECTS
  0
DICTIONARY
  5
1A
100
AcDbDictionary
  3
ACAD_GROUP
350
18
  3
ACAD_LAYOUT
350
C80
  3
ACAD_MLINESTYLE
350
19
  3
ACAD_PLOTSETTINGS
350
C81
  3
ACAD_PLOTSTYLENAME
350
C7E
  3
ACDBHEADERROUNDTRIPXREC
350
C9A
  3
ACDBVARIABLEDICTIONARY
350
804
  3
CONTENTDICTIONARY
350
C78
  0
DICTIONARY
  5
C98
100
AcDbDictionary
280
     1
  3
ACAD_XREC_ROUNDTRIP
360
C99
  0
DICTIONARY
  5
CBA
100
AcDbDictionary
280
     1
  3
ACAD_LAYOUTSELFREF
360
CBB
  0
DICTIONARY
  5
CBC
100
AcDbDictionary
280
     1
  3
ACAD_LAYOUTSELFREF
360
CBD
  0
DICTIONARY
  5
18
102
{ACAD_REACTORS
330
1A
102
}
100
AcDbDictionary
  0
DICTIONARY
  5
C80
102
{ACAD_XDICTIONARY
360
CBF
102
}
102
{ACAD_REACTORS
330
1A
102
}
100
AcDbDictionary
  3
LAYOUT1
350
C83
  3
MODEL
350
C82
  0
DICTIONARY
  5
19
102
{ACAD_REACTORS
330
1A
102
}
100
AcDbDictionary
  3
STANDARD
350
1D
  0
DICTIONARY
  5
C81
102
{ACAD_REACTORS
330
1A
102
}
100
AcDbDictionary
  0
ACAD_PROXY_OBJECT
  5
C7E
102
{ACAD_REACTORS
330
1A
102
}
100
AcDbProxyObject
 90
      499
 91
      503
 93
       86
310
405010041939BDC9B585B2
350
C7F
340
C7F
 94
        0
  0
DICTIONARY
  5
C9A
102
{ACAD_REACTORS
330
1A
102
}
100
AcDbDictionary
  3
CEPSNTYPE
350
CA4
  3
FINGERPRINTGUID
350
CA5
  3
HYPERLINKBASE
350
C9D
  3
INSUNITS
350
CA3
  3
LAYOUTDICT
350
C9F
  3
LWETCUNION
350
CA2
  3
PLOTSETDICT
350
CA0
  3
PLOTSTYLNAMDICT
350
CA1
  3
PSVPSCALE
350
CA7
  3
PUCSBASE
350
CAA
  3
PUCSORGBACK
350
CB0
  3
PUCSORGBOTTOM
350
CAC
  3
PUCSORGFRONT
350
CAF
  3
PUCSORGLEFT
350
CAD
  3
PUCSORGRIGHT
350
CAE
  3
PUCSORGTOP
350
CAB
  3
PUCSORTHOREF
350
CA8
  3
PUCSORTHOVIEW
350
CA9
  3
STYLESHEET
350
C9E
  3
TSTACKALIGN
350
C9B
  3
TSTACKSIZE
350
C9C
  3
UCSBASE
350
CB3
  3
UCSORGBACK
350
CB9
  3
UCSORGBOTTOM
350
CB5
  3
UCSORGFRONT
350
CB8
  3
UCSORGLEFT
350
CB6
  3
UCSORGRIGHT
350
CB7
  3
UCSORGTOP
350
CB4
  3
UCSORTHOREF
350
CB1
  3
UCSORTHOVIEW
350
CB2
  3
VERSIONGUID
350
CA6
  0
DICTIONARY
  5
804
102
{ACAD_REACTORS
330
1A
102
}
100
AcDbDictionary
  3
SORTENTS
350
805
  0
DICTIONARY
  5
C78
102
{ACAD_REACTORS
330
1A
102
}
100
AcDbDictionary
  0
XRECORD
  5
C99
102
{ACAD_REACTORS
330
C98
102
}
100
AcDbXrecord
102
EXTNAMES
  1
*ACTIVE
  2
*Active
102
UCS
 74
     0
 71
     1
 10
0.0
 20
0.0
 30
0.0
 10
1.0
 20
0.0
 30
0.0
 10
0.0
 20
1.0
 30
0.0
146
0.0
 79
     0
102
VIEW
281
     0
  0
XRECORD
  5
CBB
102
{ACAD_REACTORS
330
CBA
102
}
100
AcDbXrecord
340
2
  0
XRECORD
  5
CBD
102
{ACAD_REACTORS
330
CBC
102
}
100
AcDbXrecord
340
7
  0
DICTIONARY
  5
CBF
100
AcDbDictionary
280
     1
  3
ACAD_XREC_ROUNDTRIP
360
CC0
  0
ACAD_PROXY_OBJECT
  5
C83
102
{ACAD_REACTORS
330
C80
102
}
100
AcDbProxyObject
 90
      499
 91
      505
 93
     1092
310
91D4850204C617365724A65742034562F344D5620506F73745363726970742C00AAAAAA416AA591069074C61796F75743140501A80000000001A22B000000000001C20B00000000000241EB00000000000141CB02A6A6A10232D5E076BC5510408CB5781DAF154410232D5E076BC5510408CB5781DAF15C410232D5E076BC5
310
710408CB5781DAF15C46
330
7
330
0
340
0
340
0
 94
        0
  0
ACAD_PROXY_OBJECT
  5
C82
102
{ACAD_REACTORS
330
C80
102
}
100
AcDbProxyObject
 90
      499
 91
      505
 93
      668
310
91D4850204C617365724A65742034562F344D5620506F73745363726970742C01AAAAAAAAA5A69054D6F64656C901A800000000000000000000000000000000000000000000A1000000000000008902A6A6AAAA0
330
2
330
0
340
0
340
0
 94
        0
  0
MLINESTYLE
  5
1D
102
{ACAD_REACTORS
330
19
102
}
100
AcDbMlineStyle
  2
STANDARD
 70
     0
  3

 62
     0
 51
90.0
 52
90.0
 71
     2
 49
0.5
 62
   256
  6
BYLAYER
 49
-0.5
 62
   256
  6
BYLAYER
  0
ACAD_PROXY_OBJECT
  5
C7F
102
{ACAD_REACTORS
330
C7E
102
}
100
AcDbProxyObject
 90
      499
 91
      504
 93
        0
 94
        0
  0
XRECORD
  5
CA4
102
{ACAD_REACTORS
330
C9A
102
}
100
AcDbXrecord
 90
        0
  0
XRECORD
  5
CA5
102
{ACAD_REACTORS
330
C9A
102
}
100
AcDbXrecord
  1
{DCFA092D-0BE8-11D6-AA0B-00D0B7E2A69D}
  0
XRECORD
  5
C9D
102
{ACAD_REACTORS
330
C9A
102
}
100
AcDbXrecord
  1

  0
XRECORD
  5
CA3
102
{ACAD_REACTORS
330
C9A
102
}
100
AcDbXrecord
 90
        0
  0
XRECORD
  5
C9F
102
{ACAD_REACTORS
330
C9A
102
}
100
AcDbXrecord
340
C80
  0
XRECORD
  5
CA2
102
{ACAD_REACTORS
330
C9A
102
}
100
AcDbXrecord
 90
    14877
  0
XRECORD
  5
CA0
102
{ACAD_REACTORS
330
C9A
102
}
100
AcDbXrecord
340
C81
  0
XRECORD
  5
CA1
102
{ACAD_REACTORS
330
C9A
102
}
100
AcDbXrecord
340
C7E
  0
XRECORD
  5
CA7
102
{ACAD_REACTORS
330
C9A
102
}
100
AcDbXrecord
 40
0.0
  0
XRECORD
  5
CAA
102
{ACAD_REACTORS
330
C9A
102
}
100
AcDbXrecord
340
0
  0
XRECORD
  5
CB0
102
{ACAD_REACTORS
330
C9A
102
}
100
AcDbXrecord
 10
0.0
 20
0.0
 30
0.0
  0
XRECORD
  5
CAC
102
{ACAD_REACTORS
330
C9A
102
}
100
AcDbXrecord
 10
0.0
 20
0.0
 30
0.0
  0
XRECORD
  5
CAF
102
{ACAD_REACTORS
330
C9A
102
}
100
AcDbXrecord
 10
0.0
 20
0.0
 30
0.0
  0
XRECORD
  5
CAD
102
{ACAD_REACTORS
330
C9A
102
}
100
AcDbXrecord
 10
0.0
 20
0.0
 30
0.0
  0
XRECORD
  5
CAE
102
{ACAD_REACTORS
330
C9A
102
}
100
AcDbXrecord
 10
0.0
 20
0.0
 30
0.0
  0
XRECORD
  5
CAB
102
{ACAD_REACTORS
330
C9A
102
}
100
AcDbXrecord
 10
0.0
 20
0.0
 30
0.0
  0
XRECORD
  5
CA8
102
{ACAD_REACTORS
330
C9A
102
}
100
AcDbXrecord
340
0
  0
XRECORD
  5
CA9
102
{ACAD_REACTORS
330
C9A
102
}
100
AcDbXrecord
 70
     0
  0
XRECORD
  5
C9E
102
{ACAD_REACTORS
330
C9A
102
}
100
AcDbXrecord
  1

  0
XRECORD
  5
C9B
102
{ACAD_REACTORS
330
C9A
102
}
100
AcDbXrecord
 90
        1
  0
XRECORD
  5
C9C
102
{ACAD_REACTORS
330
C9A
102
}
100
AcDbXrecord
 90
       70
  0
XRECORD
  5
CB3
102
{ACAD_REACTORS
330
C9A
102
}
100
AcDbXrecord
340
0
  0
XRECORD
  5
CB9
102
{ACAD_REACTORS
330
C9A
102
}
100
AcDbXrecord
 10
0.0
 20
0.0
 30
0.0
  0
XRECORD
  5
CB5
102
{ACAD_REACTORS
330
C9A
102
}
100
AcDbXrecord
 10
0.0
 20
0.0
 30
0.0
  0
XRECORD
  5
CB8
102
{ACAD_REACTORS
330
C9A
102
}
100
AcDbXrecord
 10
0.0
 20
0.0
 30
0.0
  0
XRECORD
  5
CB6
102
{ACAD_REACTORS
330
C9A
102
}
100
AcDbXrecord
 10
0.0
 20
0.0
 30
0.0
  0
XRECORD
  5
CB7
102
{ACAD_REACTORS
330
C9A
102
}
100
AcDbXrecord
 10
0.0
 20
0.0
 30
0.0
  0
XRECORD
  5
CB4
102
{ACAD_REACTORS
330
C9A
102
}
100
AcDbXrecord
 10
0.0
 20
0.0
 30
0.0
  0
XRECORD
  5
CB1
102
{ACAD_REACTORS
330
C9A
102
}
100
AcDbXrecord
340
0
  0
XRECORD
  5
CB2
102
{ACAD_REACTORS
330
C9A
102
}
100
AcDbXrecord
 70
     0
  0
XRECORD
  5
CA6
102
{ACAD_REACTORS
330
C9A
102
}
100
AcDbXrecord
  1
{DCFA092F-0BE8-11D6-AA0B-00D0B7E2A69D}
  0
DICTIONARYVAR
  5
805
102
{ACAD_REACTORS
330
804
102
}
100
DictionaryVariables
280
     0
  1
96
  0
XRECORD
  5
CC0
102
{ACAD_REACTORS
330
CBF
102
}
100
AcDbXrecord
102
EXTNAMES
  1
LAYOUT1
  2
Layout1
  1
MODEL
  2
Model
  0
ENDSEC
  0
EOF
