  0
SECTION
  2
HEADER
  9
$ACADVER
  1
AC1014
  9
$ACADMAINTVER
 70
     0
  9
$DWGCODEPAGE
  3
ANSI_1252
  9
$INSBASE
 10
-5.0
 20
20.0
 30
0.0
  9
$EXTMIN
 10
-380.0
 20
24.0
 30
0.0
  9
$EXTMAX
 10
-20.0
 20
560.0
 30
0.0
  9
$LIMMIN
 10
0.0
 20
0.0
  9
$LIMMAX
 10
840.0
 20
600.0
  9
$ORTHOMODE
 70
     0
  9
$REGENMODE
 70
     1
  9
$FILLMODE
 70
     1
  9
$QTEXTMODE
 70
     0
  9
$MIRRTEXT
 70
     1
  9
$DRAGMODE
 70
     2
  9
$LTSCALE
 40
5.0
  9
$OSMODE
 70
   547
  9
$ATTMODE
 70
     1
  9
$TEXTSIZE
 40
3.15
  9
$TRACEWID
 40
0.05
  9
$TEXTSTYLE
  7
STANDARD
  9
$CLAYER
  8
SPKONTUR
  9
$CELTYPE
  6
BYLAYER
  9
$CECOLOR
 62
   256
  9
$CELTSCALE
 40
1.0
  9
$DELOBJ
 70
     1
  9
$DISPSILH
 70
     0
  9
$DIMSCALE
 40
1.0
  9
$DIMASZ
 40
0.0
  9
$DIMEXO
 40
1.0
  9
$DIMDLI
 40
10.0
  9
$DIMRND
 40
0.0
  9
$DIMDLE
 40
0.0
  9
$DIMEXE
 40
2.0
  9
$DIMTP
 40
0.0
  9
$DIMTM
 40
0.0
  9
$DIMTXT
 40
3.5
  9
$DIMCEN
 40
2.5
  9
$DIMTSZ
 40
1.0
  9
$DIMTOL
 70
     0
  9
$DIMLIM
 70
     0
  9
$DIMTIH
 70
     0
  9
$DIMTOH
 70
     0
  9
$DIMSE1
 70
     0
  9
$DIMSE2
 70
     0
  9
$DIMTAD
 70
     1
  9
$DIMZIN
 70
     8
  9
$DIMBLK
  1

  9
$DIMASO
 70
     1
  9
$DIMSHO
 70
     1
  9
$DIMPOST
  1

  9
$DIMAPOST
  1

  9
$DIMALT
 70
     0
  9
$DIMALTD
 70
     2
  9
$DIMALTF
 40
25.4
  9
$DIMLFAC
 40
1.0
  9
$DIMTOFL
 70
     1
  9
$DIMTVP
 40
0.0
  9
$DIMTIX
 70
     0
  9
$DIMSOXD
 70
     0
  9
$DIMSAH
 70
     0
  9
$DIMBLK1
  1

  9
$DIMBLK2
  1

  9
$DIMSTYLE
  2
STANDARD
  9
$DIMCLRD
 70
     0
  9
$DIMCLRE
 70
     0
  9
$DIMCLRT
 70
     6
  9
$DIMTFAC
 40
1.0
  9
$DIMGAP
 40
0.1
  9
$DIMJUST
 70
     0
  9
$DIMSD1
 70
     0
  9
$DIMSD2
 70
     0
  9
$DIMTOLJ
 70
     1
  9
$DIMTZIN
 70
     0
  9
$DIMALTZ
 70
     0
  9
$DIMALTTZ
 70
     0
  9
$DIMFIT
 70
     3
  9
$DIMUPT
 70
     0
  9
$DIMUNIT
 70
     2
  9
$DIMDEC
 70
     4
  9
$DIMTDEC
 70
     4
  9
$DIMALTU
 70
     2
  9
$DIMALTTD
 70
     2
  9
$DIMTXSTY
  7
STANDARD
  9
$DIMAUNIT
 70
     0
  9
$LUNITS
 70
     2
  9
$LUPREC
 70
     2
  9
$SKETCHINC
 40
0.1
  9
$FILLETRAD
 40
0.5
  9
$AUNITS
 70
     0
  9
$AUPREC
 70
     4
  9
$MENU
  1
acad
  9
$ELEVATION
 40
0.0
  9
$PELEVATION
 40
0.0
  9
$THICKNESS
 40
0.0
  9
$LIMCHECK
 70
     0
  9
$BLIPMODE
 70
     0
  9
$CHAMFERA
 40
10.0
  9
$CHAMFERB
 40
10.0
  9
$CHAMFERC
 40
0.0
  9
$CHAMFERD
 40
0.0
  9
$SKPOLY
 70
     0
  9
$TDCREATE
 40
2450610.855011227
  9
$TDUPDATE
 40
2452293.472668750
  9
$TDINDWG
 40
0.0079520833
  9
$TDUSRTIMER
 40
0.0079520833
  9
$USRTIMER
 70
     1
  9
$ANGBASE
 50
0.0
  9
$ANGDIR
 70
     0
  9
$PDMODE
 70
    35
  9
$PDSIZE
 40
-3.0
  9
$PLINEWID
 40
0.0
  9
$COORDS
 70
     1
  9
$SPLFRAME
 70
     0
  9
$SPLINETYPE
 70
     6
  9
$SPLINESEGS
 70
     8
  9
$ATTDIA
 70
     0
  9
$ATTREQ
 70
     1
  9
$HANDLING
 70
     1
  9
$HANDSEED
  5
AC
  9
$SURFTAB1
 70
     6
  9
$SURFTAB2
 70
     6
  9
$SURFTYPE
 70
     6
  9
$SURFU
 70
     6
  9
$SURFV
 70
     6
  9
$UCSNAME
  2

  9
$UCSORG
 10
0.0
 20
0.0
 30
0.0
  9
$UCSXDIR
 10
1.0
 20
0.0
 30
0.0
  9
$UCSYDIR
 10
0.0
 20
1.0
 30
0.0
  9
$PUCSNAME
  2

  9
$PUCSORG
 10
0.0
 20
0.0
 30
0.0
  9
$PUCSXDIR
 10
1.0
 20
0.0
 30
0.0
  9
$PUCSYDIR
 10
0.0
 20
1.0
 30
0.0
  9
$USERI1
 70
     0
  9
$USERI2
 70
     0
  9
$USERI3
 70
     0
  9
$USERI4
 70
     0
  9
$USERI5
 70
     0
  9
$USERR1
 40
0.0
  9
$USERR2
 40
0.0
  9
$USERR3
 40
0.0
  9
$USERR4
 40
0.0
  9
$USERR5
 40
0.0
  9
$WORLDVIEW
 70
     1
  9
$SHADEDGE
 70
     3
  9
$SHADEDIF
 70
    70
  9
$TILEMODE
 70
     1
  9
$MAXACTVP
 70
    16
  9
$PINSBASE
 10
0.0
 20
0.0
 30
0.0
  9
$PLIMCHECK
 70
     0
  9
$PEXTMIN
 10
1.000000E+20
 20
1.000000E+20
 30
1.000000E+20
  9
$PEXTMAX
 10
-1.000000E+20
 20
-1.000000E+20
 30
-1.000000E+20
  9
$PLIMMIN
 10
0.0
 20
0.0
  9
$PLIMMAX
 10
420.0
 20
297.0
  9
$UNITMODE
 70
     0
  9
$VISRETAIN
 70
     0
  9
$PLINEGEN
 70
     0
  9
$PSLTSCALE
 70
     1
  9
$TREEDEPTH
 70
  3020
  9
$PICKSTYLE
 70
     1
  9
$CMLSTYLE
  2
STANDARD
  9
$CMLJUST
 70
     0
  9
$CMLSCALE
 40
1.0
  9
$PROXYGRAPHICS
 70
     1
  9
$MEASUREMENT
 70
     0
  0
ENDSEC
  0
SECTION
  2
CLASSES
  0
CLASS
  1
LWPOLYLINE
  2
AcDbPolyline
  3
"AutoCAD"
 90
        0
280
     0
281
     1
  0
CLASS
  1
ACDBDICTIONARYWDFLT
  2
AcDbDictionaryWithDefault
  3
AutoCAD 2000
 90
        0
280
     0
281
     0
  0
CLASS
  1
ACDBPLACEHOLDER
  2
AcDbPlaceHolder
  3
AutoCAD 2000
 90
        0
280
     0
281
     0
  0
CLASS
  1
LAYOUT
  2
AcDbLayout
  3
AutoCAD 2000
 90
        0
280
     0
281
     0
  0
CLASS
  1
LONG_TRANSACTION
  2
AcDbLongTransaction
  3
AutoCAD 2000
 90
        0
280
     0
281
     0
  0
CLASS
  1
LWPOLYLINE
  2
AcDbPolyline
  3
"AutoCAD"
 90
        0
280
     0
281
     1
  0
CLASS
  1
HATCH
  2
AcDbHatch
  3
"ACAD_SEDONA"
 90
        0
280
     0
281
     1
  0
CLASS
  1
XRECORD
  2
AcDbXrecord
  3
"<Built In>"
 90
        0
280
     0
281
     0
  0
ENDSEC
  0
SECTION
  2
TABLES
  0
TABLE
  2
VPORT
  5
12
100
AcDbSymbolTable
 70
     1
  0
VPORT
  5
7B
102
{ACAD_XDICTIONARY
360
7C
102
}
100
AcDbSymbolTableRecord
100
AcDbViewportTableRecord
  2
*ACTIVE
 70
     0
 10
0.0
 20
0.0
 11
1.0
 21
1.0
 12
-142.665381
 22
322.498426
 13
0.0
 23
0.0
 14
5.0
 24
5.0
 15
10.0
 25
10.0
 16
0.0
 26
0.0
 36
1.0
 17
0.0
 27
0.0
 37
0.0
 40
837.447838
 41
1.630435
 42
50.0
 43
0.0
 44
0.0
 50
0.0
 51
0.0
 71
     0
 72
   100
 73
     1
 74
     1
 75
     1
 76
     0
 77
     0
 78
     0
  0
ENDTAB
  0
TABLE
  2
LTYPE
  5
D
100
AcDbSymbolTable
 70
     2
  0
LTYPE
  5
E
100
AcDbSymbolTableRecord
100
AcDbLinetypeTableRecord
  2
BYBLOCK
 70
     0
  3

 72
    65
 73
     0
 40
0.0
  0
LTYPE
  5
F
100
AcDbSymbolTableRecord
100
AcDbLinetypeTableRecord
  2
BYLAYER
 70
     0
  3

 72
    65
 73
     0
 40
0.0
  0
LTYPE
  5
5
100
AcDbSymbolTableRecord
100
AcDbLinetypeTableRecord
  2
CONTINUOUS
 70
     0
  3
Solid line
 72
    65
 73
     0
 40
0.0
  0
LTYPE
  5
2D
100
AcDbSymbolTableRecord
100
AcDbLinetypeTableRecord
  2
DASHDOT
 70
     0
  3
__ . __ . __ . __ . __ . __ . __ . __ . __ . __
 72
    65
 73
     4
 40
1.0
 49
0.5
 74
     0
 49
-0.25
 74
     0
 49
0.0
 74
     0
 49
-0.25
 74
     0
  0
ENDTAB
  0
TABLE
  2
LAYER
  5
A
100
AcDbSymbolTable
 70
     7
  0
LAYER
  5
4
100
AcDbSymbolTableRecord
100
AcDbLayerTableRecord
  2
0
 70
     0
 62
     7
  6
CONTINUOUS
  0
LAYER
  5
1B
100
AcDbSymbolTableRecord
100
AcDbLayerTableRecord
  2
SPKONTUR
 70
     0
 62
     7
  6
CONTINUOUS
  0
LAYER
  5
3C
100
AcDbSymbolTableRecord
100
AcDbLayerTableRecord
  2
TEXT
 70
     0
 62
     6
  6
CONTINUOUS
  0
LAYER
  5
2B
100
AcDbSymbolTableRecord
100
AcDbLayerTableRecord
  2
RAM
 70
     0
 62
     5
  6
CONTINUOUS
  0
LAYER
  5
52
100
AcDbSymbolTableRecord
100
AcDbLayerTableRecord
  2
01
 70
     0
 62
     7
  6
CONTINUOUS
  0
LAYER
  5
21
100
AcDbSymbolTableRecord
100
AcDbLayerTableRecord
  2
PROFIL
 70
     0
 62
     1
  6
CONTINUOUS
  0
LAYER
  5
23
100
AcDbSymbolTableRecord
100
AcDbLayerTableRecord
  2
KONTUR
 70
     0
 62
     7
  6
CONTINUOUS
  0
ENDTAB
  0
TABLE
  2
STYLE
  5
B
100
AcDbSymbolTable
 70
     2
  0
STYLE
  5
C
100
AcDbSymbolTableRecord
100
AcDbTextStyleTableRecord
  2
STANDARD
 70
     0
 40
0.0
 41
1.0
 50
0.0
 71
     0
 42
5.0
  3
txt
  4

  0
STYLE
  5
3D
100
AcDbSymbolTableRecord
100
AcDbTextStyleTableRecord
  2
ROMANS
 70
     0
 40
0.0
 41
0.8
 50
0.0
 71
     0
 42
5.0
  3
romans
  4

  0
ENDTAB
  0
TABLE
  2
VIEW
  5
10
100
AcDbSymbolTable
 70
     0
  0
ENDTAB
  0
TABLE
  2
UCS
  5
11
100
AcDbSymbolTable
 70
     0
  0
ENDTAB
  0
TABLE
  2
APPID
  5
14
100
AcDbSymbolTable
 70
     2
  0
APPID
  5
15
100
AcDbSymbolTableRecord
100
AcDbRegAppTableRecord
  2
ACAD
 70
     0
  0
APPID
  5
27
100
AcDbSymbolTableRecord
100
AcDbRegAppTableRecord
  2
CONTENTBLOCKICON
 70
     0
  0
ENDTAB
  0
TABLE
  2
DIMSTYLE
  5
16
100
AcDbSymbolTable
 70
     1
  0
DIMSTYLE
105
1D
100
AcDbSymbolTableRecord
100
AcDbDimStyleTableRecord
  2
STANDARD
 70
     0
  3

  4

  5

  6

  7

 40
1.0
 41
0.18
 42
0.0625
 43
0.38
 44
0.18
 45
0.0
 46
0.0
 47
0.0
 48
0.0
140
0.18
141
0.09
142
0.0
143
25.4
144
1.0
145
0.0
146
1.0
147
0.09
 71
     0
 72
     0
 73
     1
 74
     1
 75
     0
 76
     0
 77
     0
 78
     0
170
     0
171
     2
172
     0
173
     0
174
     0
175
     0
176
     0
177
     0
178
     0
270
     2
271
     4
272
     4
273
     2
274
     2
340
C
275
     0
280
     0
281
     0
282
     0
283
     1
284
     0
285
     0
286
     0
287
     3
288
     0
  0
ENDTAB
  0
TABLE
  2
BLOCK_RECORD
  5
1
100
AcDbSymbolTable
 70
     4
  0
BLOCK_RECORD
  5
2
102
{ACAD_XDICTIONARY
360
9E
102
}
100
AcDbSymbolTableRecord
100
AcDbBlockTableRecord
  2
*MODEL_SPACE
  0
BLOCK_RECORD
  5
7
102
{ACAD_XDICTIONARY
360
A0
102
}
100
AcDbSymbolTableRecord
100
AcDbBlockTableRecord
  2
*PAPER_SPACE
  0
BLOCK_RECORD
  5
29
100
AcDbSymbolTableRecord
100
AcDbBlockTableRecord
  2
SIDA
1001
CONTENTBLOCKICON
1071
        0
1004
2800000020000000200000000100040000000000000200000000000000000000000000000000000000000000000080000080000000808000800000008000800080800000C0C0C000808080000000FF0000FF000000FFFF00FF000000FF00FF00FFFF0000FFFFFF00FFFFFCCCCCCCCCCCCCCCCCCCCCCFFFFFFFFFFCFFFFFFFF
1004
FFFFFFFFFFFFCFFFFFFFFFFCFFFFFFFFFFFFFFFFFFFFCFFFFFFFFFFCFFFFFFFFFFFFFFFFFFFFCFFFFFFFFFFCFFFFFFFFFFFFFFFFFFFFCFFFFFFFFFFCFFFFFFFFFFFFFFFFFFFFCFFFFFFFFFFCFFFFFFFFFFFFFFFFFFFFCFFFFFFFFFFCFFFFFFDFFFFFFDFFFFFFCFFFFFFFFFFCFFFFFDDDFFFFFDDFFFFFCFFFFFFFFFFCFFFFFF
1004
FFFFFFFFFFFFFFCFFFFFFFFFFCFFFFFFFFFFFFFFFFFFFFCFFFFFFFFFFCFFFFFFFFFFFFFFFFFFFFCFFFFFFFFFFCFFFFFFFFFFFFFFFFFFFFCFFFFFFFFFFCFFFFFFFFFFFFFFFFFFFFCFFFFFFFFFFCFFFFFFFFFFFFFFFFFFFFCFFFFFFFFFFCFFFFFFDFFFFFFDFFFFFFCFFFFFFFFFFCFFFFFDDDFFFFFDDFFFFFCFFFFFFFFFFCFFFF
1004
FFFFFFFFFFFFFFFFCFFFFFFFFFFCFFFFFFFFFFFFFFFFFFFFCFFFFFFFFFFCFFFFFFFFFFFFFFFFFFFFCFFFFFFFFFFCFFFFFFFFFFFFFFFFFFFFCFFFFFFFFFFCFFFFFFFFFFFFFFFFFFFFCFFFFFFFFFFCFFFFFFFFFFFFFFFFFFFFCFFFFFFFFFFCFFFFFDDDFFFFFDDFFFFFCFFFFFFFFFFCFFFFFFDFFFFFFDFFFFFFCFFFFFFFFFFCFF
1004
FFFFFFFFFFFFFFFFFFCFFFFFFFFFFCFFFFFFFFFFFFFFFFFFFFCFFFFFFFFFFCFFFFFFFFFFFFFFFFFFFFCFFFFFFFFFFCFFFFFFFFFFFFFFFFFFFFCFFFFFFFFFFCFFFFFFFFFFFFFFFFFFFFCFFFFFFFFFFCFFFFFFFFFFFFFFFFFFFFCFFFFFFFFFFCCCCCCCCCCCCCCCCCCCCCCFFFFF
  0
BLOCK_RECORD
  5
49
100
AcDbSymbolTableRecord
100
AcDbBlockTableRecord
  2
SP6050
1001
CONTENTBLOCKICON
1071
        0
1004
2800000020000000200000000100040000000000000200000000000000000000000000000000000000000000000080000080000000808000800000008000800080800000C0C0C000808080000000FF0000FF000000FFFF00FF000000FF00FF00FFFF0000FFFFFF00FFFFFFFFFFFFFFFFFFFFFFFFFFFFFFFFFFFFFFFFFFFFFF
1004
FFFFFFFFFFFFFFFFFFFFFFFFFFFFFFFFFFFFFFFFFFFFFFFFFFFFF000000000000000000000000000FFF999999999999999999999999999990F900FFFFFFFFFFFFFFFFFFFFFFFFFF09F90FFFFFFFFFFFFFFFFFFFFFFFFFFFF9090FFFFFFFFFFFFFFFFFFFFFFFFFFFF9090FFFFFFFFFFFFFFFFFFFFFFFFFFFF9090FFFFFFFFFF
1004
FFFFFFFFFFFFFFFFFF9090FFFFFFFFFFFFFFFFFFFFFFFFFFFF9090FFFFFFFFFFFFFFFFFFFFFFFFFFFF9090FFFFFFFFFFFFFFFFFFFFFFFFFFFF9090FFFFFFFFFFFFFFFFFFFFFFFFFFFF9090FFFFFFFFFFFFFFFFFFFFFFFFFFFF9090FFFFFFFFFFFFFFFFFFFFFFFFFFFF9090FFFFFFFFFFFFFFFFFFFFFFFFFFFF9090FFFFFFFF
1004
FFFFFFFFFFFFFFFFFFFF9090FFFFFFFFFFFFFFFFFFFFFFFFFFFF9090FFFFFFFFFFFFFFFFFFFFFFFFFFFF9090FFFFFFFFFFFF0000FFFFFFFFFFFF9090FFFFFFFFFFF099990FFFFFFFFFFF9090FFFFFFFFFFF00FF90FFFFFFFFFFF9090FFFFFFFFFFFFFFFFF0FFFFFFFFFF9090FFFFFFFFFF0FFFFFF90FFFFFFFFF9090FFFFFF
1004
FFF09FFFFFF9FFFFFFFFFF9090FFFFFFFFF090FFFF990FFFFFFFFF909F0FFFFFFFFF0FFFFF00FFFFFFFFF090F000000000090FFFFFF9000000000F0FFF999999999FFFFFFFFF999999999FFFFFFFFFFFFFFFFFFFFFFFFFFFFFFFFFFFFFFFFFFFFFFFFFFFFFFFFFFFFFFFFFFF
  0
BLOCK_RECORD
  5
1F
100
AcDbSymbolTableRecord
100
AcDbBlockTableRecord
  2
SP6075
1001
CONTENTBLOCKICON
1071
        0
1004
2800000020000000200000000100040000000000000200000000000000000000000000000000000000000000000080000080000000808000800000008000800080800000C0C0C000808080000000FF0000FF000000FFFF00FF000000FF00FF00FFFF0000FFFFFF00FFFFF00000000000000000000000FFFFFFF00000000000
1004
00000000000000FFFFFFF00FFFFFFFFFFFFFFFFFFFFFF00FFFFFF00FFFFFFFFFFFFFFFFFFFFFF00FFFFFF00FFFFFFFFFFFFFFFFFFFFFF00FFFFFF00FFFFFFFFFFFFFFFFFFFFFF00FFFFFF00FFFFFFFFFFFFFFFFFFFFFF00FFFFFF00FFFFFFFFFFFFFFFFFFFFFF00FFFFFF00FFFFFFFFFFFFFFFFFFFFFF00FFFFFF00FFFFFFF
1004
FFFFFFFFFFFFFFF00FFFFFF00FFFFFFFFFFFFFFFFFFFFFF00FFFFFF00FFFFFFFFFFFFFFFFFFFFFF00FFFFFF00FFFFFFFFFFFFFFFFFFFFFF00FFFFFF00FFFFFFFFFFFFFFFFFFFFFF00FFFFFF00FFFFFFFFFFFFFFFFFFFFFF00FFFFFF00FFFFFFFFFFFFFFFFFFFFFF00FFFFFF00FFFFFFFFFFFFFFFFFFFFFF00FFFFFF00FFFFF
1004
FFFFFFFFFFFFFFFFF00FFFFFF00FFFFFFFFFFFFFFFFFFFFFF00FFFFFF00FFFFFFFFFFFFFFFFFFFFFF00FFFFFF00FFFFFFFFFFFFFFFFFFFFFF00FFFFFF00FFFFFFFFFFFFFFFFFFFFFF00FFFFFF00FFFFFFFFFFFFFFFFFFFFFF00FFFFFF00FFFFFFFFFF0FFFFFFFFFFF00FFFFFF00FFFFFFFFF0000FFFFFFFFF00FFFFFF00FFF
1004
FFFFF00FF00FFFFFFFF00FFFFFF00FFFFFFF00FFFF0FFFFFFFF00FFFFFF00FFFFFFF00FFFF00FFFFFFF00FFFFFF00FFFFFFF00FFFF0FFFFFFFF00FFFFFF00FFFFFFF00FFFFFFFFFFFFF00FFFFFF90000000000FFFF00000000000FFFFFFF00000000FFFFFFF00000000FFFFF
  0
BLOCK_RECORD
  5
40
100
AcDbSymbolTableRecord
100
AcDbBlockTableRecord
  2
SP60120
1001
CONTENTBLOCKICON
1071
        0
1004
2800000020000000200000000100040000000000000200000000000000000000000000000000000000000000000080000080000000808000800000008000800080800000C0C0C000808080000000FF0000FF000000FFFF00FF000000FF00FF00FFFF0000FFFFFF00FFFFFFFF0F00000000000000FFFFFFFFFFFFFFFF999999
1004
9999999990FFFFFFFFFFFFFFFF90FFFFFFFFFFFFF0FFFFFFFFFFFFFFFF90FFFFFFFFFFFFF0FFFFFFFFFFFFFFFF90FFFFFFFFFFFFF0FFFFFFFFFFFFFFFF90FFFFFFFFFFFFF0FFFFFFFFFFFFFFFF90FFFFFFFFFFFFF0FFFFFFFFFFFFFFFF90FFFFFFFFFFFFF0FFFFFFFFFFFFFFFF90FFFFFFFFFFFFF0FFFFFFFFFFFFFFFF90FF
1004
FFFFFFFFFFF0FFFFFFFFFFFFFFFF90FFFFFFFFFFFFF0FFFFFFFFFFFFFFFF90FFFFFFFFFFFFF0FFFFFFFFFFFFFFFF90FFFFFFFFFFFFF0FFFFFFFFFFFFFFFF90FFFFFFFFFFFFF0FFFFFFFFFFFFFFFF90FFFFFFFFFFFFF0FFFFFFFFFFFFFFFF90FFFFFFFFFFFFF0FFFFFFFFFFFFFFFF90FFFFFFFFFFFFF0FFFFFFFFFFFFFFFF90
1004
FFFFFFFFFFFFF0FFFFFFFFFFFFFFFF90FFFFFFFFFFFFF0FFFFFFFFFFFFFFFF90FFFFFFFFFFFFF0FFFFFFFFFFFFFFFF90FFFFFFFFFFFFF0FFFFFFFFFFFFFFFF90FFFFFFFFFFFFF0FFFFFFFFFFFFFFFF90FFFFFFFFFFFFF0FFFFFFFFFFFFFFFF90FFFFFFFFFFFFF0FFFFFFFFFFFFFFFF90FFFFFFFFFFFFF0FFFFFFFFFFFFFFFF
1004
90FFFFFFFFFFFFF0FFFFFFFFFFFFFFFF90FFFFF000FFFFF0FFFFFFFFFFFFFFFF90FFFFF9990FFFF0FFFFFFFFFFFFFFFF90FFFF0FF90FFFF0FFFFFFFFFFFFFFFF90FFFF0FF90FFFF0FFFFFFFFFFFFFFFF9000000FF9000000FFFFFFFFFFFFFFFF999999FFFF999990FFFFFFFF
  0
ENDTAB
  0
ENDSEC
  0
SECTION
  2
BLOCKS
  0
BLOCK
  5
3
100
AcDbEntity
  8
0
100
AcDbBlockBegin
  2
*MODEL_SPACE
 70
     0
 10
0.0
 20
0.0
 30
0.0
  3
*MODEL_SPACE
  1

  0
ENDBLK
  5
6
100
AcDbEntity
  8
0
100
AcDbBlockEnd
  0
BLOCK
  5
8
100
AcDbEntity
 67
     1
  8
0
100
AcDbBlockBegin
  2
*PAPER_SPACE
 70
     0
 10
0.0
 20
0.0
 30
0.0
  3
*PAPER_SPACE
  1

  0
ENDBLK
  5
9
100
AcDbEntity
 67
     1
  8
0
100
AcDbBlockEnd
  0
BLOCK
  5
39
100
AcDbEntity
  8
0
100
AcDbBlockBegin
  2
SIDA
 70
     0
 10
0.0
 20
0.0
 30
0.0
  3
SIDA
  1

  0
LWPOLYLINE
  5
2A
100
AcDbEntity
  8
RAM
 62
     5
100
AcDbPolyline
 90
        4
 70
     1
 43
0.0
 10
-20.0
 20
35.0
 10
-20.0
 20
560.0
 10
-380.0
 20
560.0
 10
-380.0
 20
35.0
  0
LINE
  5
2C
100
AcDbEntity
  8
RAM
  6
DASHDOT
 62
     6
100
AcDbLine
 10
-260.0
 20
307.5
 30
0.0
 11
-260.0
 21
287.5
 31
0.0
  0
LINE
  5
2E
100
AcDbEntity
  8
RAM
  6
DASHDOT
 62
     6
100
AcDbLine
 10
-270.0
 20
167.5
 30
0.0
 11
-250.0
 21
167.5
 31
0.0
  0
LINE
  5
2F
100
AcDbEntity
  8
RAM
  6
DASHDOT
 62
     6
100
AcDbLine
 10
-260.0
 20
177.5
 30
0.0
 11
-260.0
 21
157.5
 31
0.0
  0
LINE
  5
30
100
AcDbEntity
  8
RAM
  6
DASHDOT
 62
     6
100
AcDbLine
 10
-270.0
 20
297.5
 30
0.0
 11
-250.0
 21
297.5
 31
0.0
  0
LINE
  5
31
100
AcDbEntity
  8
RAM
  6
DASHDOT
 62
     6
100
AcDbLine
 10
-270.0
 20
427.5
 30
0.0
 11
-250.0
 21
427.5
 31
0.0
  0
LINE
  5
32
100
AcDbEntity
  8
RAM
  6
DASHDOT
 62
     6
100
AcDbLine
 10
-260.0
 20
437.5
 30
0.0
 11
-260.0
 21
417.5
 31
0.0
  0
LINE
  5
33
100
AcDbEntity
  8
RAM
  6
DASHDOT
 62
     6
100
AcDbLine
 10
-140.0
 20
307.5
 30
0.0
 11
-140.0
 21
287.5
 31
0.0
  0
LINE
  5
34
100
AcDbEntity
  8
RAM
  6
DASHDOT
 62
     6
100
AcDbLine
 10
-140.0
 20
177.5
 30
0.0
 11
-140.0
 21
157.5
 31
0.0
  0
LINE
  5
35
100
AcDbEntity
  8
RAM
  6
DASHDOT
 62
     6
100
AcDbLine
 10
-150.0
 20
167.5
 30
0.0
 11
-130.0
 21
167.5
 31
0.0
  0
LINE
  5
36
100
AcDbEntity
  8
RAM
  6
DASHDOT
 62
     6
100
AcDbLine
 10
-150.0
 20
297.5
 30
0.0
 11
-130.0
 21
297.5
 31
0.0
  0
LINE
  5
37
100
AcDbEntity
  8
RAM
  6
DASHDOT
 62
     6
100
AcDbLine
 10
-150.0
 20
427.5
 30
0.0
 11
-130.0
 21
427.5
 31
0.0
  0
LINE
  5
38
100
AcDbEntity
  8
RAM
  6
DASHDOT
 62
     6
100
AcDbLine
 10
-140.0
 20
437.5
 30
0.0
 11
-140.0
 21
417.5
 31
0.0
  0
ENDBLK
  5
3A
100
AcDbEntity
  8
0
100
AcDbBlockEnd
  0
BLOCK
  5
67
100
AcDbEntity
  8
0
100
AcDbBlockBegin
  2
SP6050
 70
     0
 10
0.0
 20
0.0
 30
0.0
  3
SP6050
  1

  0
LWPOLYLINE
  5
4A
100
AcDbEntity
  8
KONTUR
100
AcDbPolyline
 90
       12
 70
     0
 43
0.0
 10
37.4124
 20
6.111771
 42
-0.493145
 10
38.861289
 20
8.0
 10
57.5
 20
8.0
 42
-0.414214
 10
58.0
 20
7.5
 10
58.0
 20
-37.5
 42
-0.414214
 10
57.5
 20
-38.0
 10
2.5
 20
-38.0
 42
-0.414214
 10
2.0
 20
-37.5
 10
2.0
 20
7.5
 42
-0.414214
 10
2.5
 20
8.0
 10
21.138712
 20
8.0
 42
-0.493145
 10
22.587601
 20
6.111771
 42
-0.493145
  0
LWPOLYLINE
  5
4B
100
AcDbEntity
  8
KONTUR
100
AcDbPolyline
 90
       13
 70
     0
 43
0.0
 10
35.480549
 20
5.594133
 42
-0.493145
 10
38.861289
 20
10.0
 10
57.5
 20
10.0
 42
-0.414214
 10
60.0
 20
7.5
 10
60.0
 20
-37.5
 42
-0.414214
 10
57.5
 20
-40.0
 10
30.0
 20
-40.0
 10
2.5
 20
-40.0
 42
-0.414214
 10
0.0
 20
-37.5
 10
0.0
 20
7.5
 42
-0.414214
 10
2.5
 20
10.0
 10
21.138712
 20
10.0
 42
-0.493145
 10
24.519452
 20
5.594133
  0
LWPOLYLINE
  5
4C
100
AcDbEntity
  8
PROFIL
100
AcDbPolyline
 90
       12
 70
     0
 43
2.0
 10
36.446474
 20
5.852952
 42
-0.493145
 10
38.861289
 20
9.0
 10
57.5
 20
9.0
 42
-0.414214
 10
59.0
 20
7.5
 10
59.0
 20
-37.5
 42
-0.414214
 10
57.5
 20
-39.0
 10
2.5
 20
-39.0
 42
-0.414214
 10
1.0
 20
-37.5
 10
1.0
 20
7.5
 42
-0.414214
 10
2.5
 20
9.0
 10
21.138712
 20
9.0
 42
-0.493145
 10
23.553527
 20
5.852952
 42
-0.493145
  0
LWPOLYLINE
  5
4D
100
AcDbEntity
  8
KONTUR
100
AcDbPolyline
 90
        2
 70
     0
 43
0.0
 10
28.585787
 20
-5.414213
 10
23.790061
 20
-0.618488
  0
LWPOLYLINE
  5
4E
100
AcDbEntity
  8
PROFIL
100
AcDbPolyline
 90
        2
 70
     0
 43
2.0
 10
27.87868
 20
-6.12132
 10
23.082954
 20
-1.325595
  0
ARC
  5
4F
100
AcDbEntity
  8
KONTUR
100
AcDbCircle
 10
30.0
 20
-4.0
 30
0.0
 40
4.0
100
AcDbArc
 50
225.0
 51
270.0
  0
LWPOLYLINE
  5
50
100
AcDbEntity
  8
PROFIL
100
AcDbPolyline
 90
        2
 70
     0
 43
2.0
 10
27.87868
 20
-6.12132
 42
0.198912
 10
30.0
 20
-7.0
 42
0.198912
  0
ARC
  5
51
100
AcDbEntity
  8
01
100
AcDbCircle
 10
2.5
 20
7.5
 30
0.0
 40
0.5
100
AcDbArc
 50
90.0
 51
180.0
  0
LINE
  5
53
100
AcDbEntity
  8
KONTUR
100
AcDbLine
 10
22.5876
 20
6.111772
 30
0.0
 11
21.440571
 21
1.831002
 31
0.0
  0
LINE
  5
54
100
AcDbEntity
  8
KONTUR
100
AcDbLine
 10
24.519452
 20
5.594134
 30
0.0
 11
23.372423
 21
1.313364
 31
0.0
  0
LWPOLYLINE
  5
55
100
AcDbEntity
  8
PROFIL
100
AcDbPolyline
 90
        2
 70
     0
 43
2.0
 10
23.553526
 20
5.852953
 10
22.406497
 20
1.572183
  0
ARC
  5
56
100
AcDbEntity
  8
KONTUR
100
AcDbCircle
 10
25.231538
 20
0.704208
 30
0.0
 40
3.956369
100
AcDbArc
 50
161.858142
 51
222.53942
  0
ARC
  5
57
100
AcDbEntity
  8
KONTUR
100
AcDbCircle
 10
25.231538
 20
0.704208
 30
0.0
 40
1.956369
100
AcDbArc
 50
161.858142
 51
222.53942
  0
LWPOLYLINE
  5
58
100
AcDbEntity
  8
PROFIL
100
AcDbPolyline
 90
        2
 70
     0
 43
2.0
 10
22.422135
 20
1.624735
 42
0.271138
 10
23.053249
 20
-1.294585
 42
0.271138
  0
LWPOLYLINE
  5
59
100
AcDbEntity
  8
KONTUR
100
AcDbPolyline
 90
        2
 70
     0
 43
0.0
 10
27.171574
 20
-6.828427
 10
22.375848
 20
-2.032702
  0
LWPOLYLINE
  5
5A
100
AcDbEntity
  8
KONTUR
100
AcDbPolyline
 90
        2
 70
     0
 43
0.0
 10
37.412401
 20
6.111772
 10
38.55943
 20
1.831002
  0
LWPOLYLINE
  5
5B
100
AcDbEntity
  8
KONTUR
100
AcDbPolyline
 90
        2
 70
     0
 43
0.0
 10
35.480549
 20
5.594134
 10
36.627578
 20
1.313364
  0
LWPOLYLINE
  5
5C
100
AcDbEntity
  8
PROFIL
100
AcDbPolyline
 90
        2
 70
     0
 43
2.0
 10
36.446475
 20
5.852953
 10
37.593504
 20
1.572183
  0
ARC
  5
5D
100
AcDbEntity
  8
KONTUR
100
AcDbCircle
 10
30.0
 20
-4.0
 30
0.0
 40
4.0
100
AcDbArc
 50
270.0
 51
315.0
  0
ARC
  5
5E
100
AcDbEntity
  8
KONTUR
100
AcDbCircle
 10
30.0
 20
-4.0
 30
0.0
 40
2.0
100
AcDbArc
 50
270.0
 51
315.0
  0
ARC
  5
5F
100
AcDbEntity
  8
KONTUR
100
AcDbCircle
 10
34.768463
 20
0.704208
 30
0.0
 40
3.956369
100
AcDbArc
 50
317.46058
 51
18.141858
  0
ARC
  5
60
100
AcDbEntity
  8
KONTUR
100
AcDbCircle
 10
34.768463
 20
0.704208
 30
0.0
 40
1.956369
100
AcDbArc
 50
317.46058
 51
18.141858
  0
LWPOLYLINE
  5
61
100
AcDbEntity
  8
PROFIL
100
AcDbPolyline
 90
        2
 70
     0
 43
2.0
 10
36.946752
 20
-1.294585
 42
0.271138
 10
37.577866
 20
1.624735
 42
0.271138
  0
LINE
  5
62
100
AcDbEntity
  8
KONTUR
100
AcDbLine
 10
32.828427
 20
-6.828427
 30
0.0
 11
37.624153
 21
-2.032702
 31
0.0
  0
LINE
  5
63
100
AcDbEntity
  8
KONTUR
100
AcDbLine
 10
31.414214
 20
-5.414213
 30
0.0
 11
36.20994
 21
-0.618488
 31
0.0
  0
LWPOLYLINE
  5
64
100
AcDbEntity
  8
PROFIL
100
AcDbPolyline
 90
        2
 70
     0
 43
2.0
 10
32.121321
 20
-6.12132
 10
36.917047
 20
-1.325595
  0
ARC
  5
65
100
AcDbEntity
  8
KONTUR
100
AcDbCircle
 10
30.0
 20
-4.0
 30
0.0
 40
2.0
100
AcDbArc
 50
225.0
 51
270.0
  0
LWPOLYLINE
  5
66
100
AcDbEntity
  8
PROFIL
100
AcDbPolyline
 90
        2
 70
     0
 43
2.0
 10
30.0
 20
-7.0
 42
0.198912
 10
32.12132
 20
-6.12132
 42
0.198912
  0
ENDBLK
  5
68
100
AcDbEntity
  8
0
100
AcDbBlockEnd
  0
BLOCK
  5
25
100
AcDbEntity
  8
0
100
AcDbBlockBegin
  2
SP6075
 70
     0
 10
0.0
 20
0.0
 30
0.0
  3
SP6075
  1

  0
LWPOLYLINE
  5
20
100
AcDbEntity
  8
PROFIL
 62
     1
100
AcDbPolyline
 90
       19
 70
     1
 43
2.0
 10
23.553526
 20
5.852953
 10
22.412865
 20
1.595947
 42
0.270542
 10
23.069331
 20
-1.311971
 10
27.878679
 20
-6.121319
 42
0.198913
 10
30.0
 20
-7.0
 42
0.198912
 10
32.12132
 20
-6.12132
 10
36.93067
 20
-1.311971
 42
0.270542
 10
37.587136
 20
1.595947
 10
36.446475
 20
5.852953
 42
-0.493145
 10
38.861289
 20
9.0
 10
57.5
 20
9.0
 42
-0.414214
 10
59.0
 20
7.5
 10
59.0
 20
-62.5
 42
-0.414214
 10
57.5
 20
-64.0
 10
2.5
 20
-64.0
 42
-0.414214
 10
1.0
 20
-62.5
 10
1.0
 20
7.5
 42
-0.414214
 10
2.5
 20
9.0
 10
21.138712
 20
9.0
 42
-0.493145
  0
LWPOLYLINE
  5
22
100
AcDbEntity
  8
KONTUR
 62
     7
100
AcDbPolyline
 90
       19
 70
     1
 43
0.0
 10
22.5876
 20
6.111772
 10
21.452292
 20
1.874745
 42
0.270191
 10
22.35077
 20
-2.007624
 10
27.171571
 20
-6.828424
 42
0.198913
 10
30.000001
 20
-8.0
 42
0.198912
 10
32.828427
 20
-6.828427
 10
37.649231
 20
-2.007624
 42
0.27019
 10
38.547709
 20
1.874745
 10
37.412401
 20
6.111772
 42
-0.493145
 10
38.861289
 20
8.0
 10
57.5
 20
8.0
 42
-0.414214
 10
58.0
 20
7.5
 10
58.0
 20
-62.5
 42
-0.414214
 10
57.5
 20
-63.0
 10
2.5
 20
-63.0
 42
-0.414214
 10
2.0
 20
-62.5
 10
2.0
 20
7.5
 42
-0.414214
 10
2.5
 20
8.0
 10
21.138712
 20
8.0
 42
-0.493145
  0
LWPOLYLINE
  5
24
100
AcDbEntity
  8
KONTUR
 62
     7
100
AcDbPolyline
 90
       21
 70
     0
 43
0.0
 10
24.519452
 20
5.594134
 10
23.372423
 20
1.313364
 42
0.271138
 10
23.790061
 20
-0.618488
 10
28.585787
 20
-5.414213
 42
0.198913
 10
30.0
 20
-6.0
 42
0.198912
 10
31.414214
 20
-5.414214
 10
36.20994
 20
-0.618488
 42
0.271138
 10
36.627578
 20
1.313364
 10
35.480549
 20
5.594134
 42
-0.493145
 10
38.861289
 20
10.0
 10
57.5
 20
10.0
 42
-0.414214
 10
60.0
 20
7.5
 10
60.0
 20
-62.5
 42
-0.414214
 10
57.5
 20
-65.0
 10
30.0
 20
-65.0
 10
2.5
 20
-65.0
 42
-0.414214
 10
0.0
 20
-62.5
 10
0.0
 20
7.5
 42
-0.414214
 10
2.5
 20
10.0
 10
21.138712
 20
10.0
 42
-0.493145
 10
24.519452
 20
5.594133
  0
ENDBLK
  5
26
100
AcDbEntity
  8
0
100
AcDbBlockEnd
  0
BLOCK
  5
45
100
AcDbEntity
  8
0
100
AcDbBlockBegin
  2
SP60120
 70
     0
 10
0.0
 20
0.0
 30
0.0
  3
SP60120
  1

  0
LWPOLYLINE
  5
41
100
AcDbEntity
  8
KONTUR
 62
     7
100
AcDbPolyline
 90
       21
 70
     0
 43
0.0
 10
24.519452
 20
5.635952
 10
23.372423
 20
1.355182
 42
0.271138
 10
23.790061
 20
-0.57667
 10
28.585787
 20
-5.372395
 42
0.198913
 10
30.0
 20
-5.958182
 42
0.198912
 10
31.414214
 20
-5.372396
 10
36.20994
 20
-0.57667
 42
0.271138
 10
36.627578
 20
1.355182
 10
35.480549
 20
5.635952
 42
-0.493145
 10
38.861289
 20
10.041818
 10
57.5
 20
10.041818
 42
-0.414214
 10
60.0
 20
7.541818
 10
60.0
 20
-107.458182
 42
-0.414214
 10
57.5
 20
-109.958182
 10
30.0
 20
-109.958182
 10
2.5
 20
-109.958182
 42
-0.414214
 10
0.0
 20
-107.458182
 10
0.0
 20
7.541818
 42
-0.414214
 10
2.5
 20
10.041818
 10
21.138712
 20
10.041818
 42
-0.493145
 10
24.519452
 20
5.635951
  0
LWPOLYLINE
  5
42
100
AcDbEntity
  8
KONTUR
 62
     7
100
AcDbPolyline
 90
       19
 70
     1
 43
0.0
 10
22.5876
 20
6.15359
 10
21.452292
 20
1.916563
 42
0.270191
 10
22.35077
 20
-1.965806
 10
27.171571
 20
-6.786606
 42
0.198913
 10
30.000001
 20
-7.958182
 42
0.198912
 10
32.828427
 20
-6.786609
 10
37.649231
 20
-1.965806
 42
0.27019
 10
38.547709
 20
1.916563
 10
37.412401
 20
6.15359
 42
-0.493145
 10
38.861289
 20
8.041818
 10
57.5
 20
8.041818
 42
-0.414214
 10
58.0
 20
7.541818
 10
58.0
 20
-107.458182
 42
-0.414214
 10
57.5
 20
-107.958182
 10
2.5
 20
-107.958182
 42
-0.414214
 10
2.0
 20
-107.458182
 10
2.0
 20
7.541818
 42
-0.414214
 10
2.5
 20
8.041818
 10
21.138712
 20
8.041818
 42
-0.493145
  0
LWPOLYLINE
  5
43
100
AcDbEntity
  8
PROFIL
 62
     1
100
AcDbPolyline
 90
       19
 70
     1
 43
2.0
 10
23.553526
 20
5.894771
 10
22.412865
 20
1.637765
 42
0.270542
 10
23.069331
 20
-1.270153
 10
27.878679
 20
-6.079501
 42
0.198913
 10
30.0
 20
-6.958182
 42
0.198912
 10
32.12132
 20
-6.079502
 10
36.93067
 20
-1.270153
 42
0.270542
 10
37.587136
 20
1.637765
 10
36.446475
 20
5.894771
 42
-0.493145
 10
38.861289
 20
9.041818
 10
57.5
 20
9.041818
 42
-0.414214
 10
59.0
 20
7.541818
 10
59.0
 20
-107.458182
 42
-0.414214
 10
57.5
 20
-108.958182
 10
2.5
 20
-108.958182
 42
-0.414214
 10
1.0
 20
-107.458182
 10
1.0
 20
7.541818
 42
-0.414214
 10
2.5
 20
9.041818
 10
21.138712
 20
9.041818
 42
-0.493145
  0
LINE
  5
44
100
AcDbEntity
  8
SPKONTUR
100
AcDbLine
 10
57.5
 20
-109.958182
 30
0.0
 11
54.864726
 21
-110.0
 31
0.0
  0
ENDBLK
  5
46
100
AcDbEntity
  8
0
100
AcDbBlockEnd
  0
ENDSEC
  0
SECTION
  2
ENTITIES
  0
INSERT
  5
1E
100
AcDbEntity
  8
SPKONTUR
100
AcDbBlockReference
  2
SP6075
 10
-230.0
 20
365.0
 30
0.0
  0
INSERT
  5
28
100
AcDbEntity
  8
0
100
AcDbBlockReference
  2
SIDA
 10
0.0
 20
0.0
 30
0.0
  0
TEXT
  5
3B
100
AcDbEntity
  8
TEXT
100
AcDbText
 10
-89.761905
 20
25.0
 30
0.0
 40
5.0
  1
Filnamn  %%U60PAGE 20
 41
0.8
  7
ROMANS
 72
     2
 11
-25.0
 21
25.0
 31
0.0
100
AcDbText
  0
TEXT
  5
3E
100
AcDbEntity
  8
TEXT
100
AcDbText
 10
-82.142857
 20
40.0
 30
0.0
 40
5.0
  1
SP6000  %%UPAGE 20
 41
0.8
  7
ROMANS
 72
     2
 11
-25.0
 21
40.0
 31
0.0
100
AcDbText
  0
INSERT
  5
3F
100
AcDbEntity
  8
SPKONTUR
100
AcDbBlockReference
  2
SP60120
 10
-105.0
 20
230.0
 30
0.0
  0
TEXT
  5
47
100
AcDbEntity
  8
TEXT
 62
     7
100
AcDbText
 10
-92.996575
 20
182.387288
 30
0.0
 40
5.0
  1
%%USP 60120
 41
0.8
  7
ROMANS
 72
     1
 11
-78.153718
 21
182.387288
 31
0.0
100
AcDbText
  0
INSERT
  5
48
100
AcDbEntity
  8
SPKONTUR
100
AcDbBlockReference
  2
SP6050
 10
-350.0
 20
500.0
 30
0.0
  0
TEXT
  5
69
100
AcDbEntity
  8
TEXT
 62
     7
100
AcDbText
 10
-216.091813
 20
337.387288
 30
0.0
 40
5.0
  1
%%USP 6075
 41
0.8
  7
ROMANS
 72
     1
 11
-203.153718
 21
337.387288
 31
0.0
100
AcDbText
  0
TEXT
  5
6A
100
AcDbEntity
  8
TEXT
 62
     7
100
AcDbText
 10
-336.091813
 20
477.387288
 30
0.0
 40
5.0
  1
%%USP 6050
 41
0.8
  7
ROMANS
 72
     1
 11
-323.153718
 21
477.387288
 31
0.0
100
AcDbText
  0
ENDSEC
  0
SECTION
  2
OBJECTS
  0
DICTIONARY
  5
1A
100
AcDbDictionary
  3
ACAD_GROUP
350
18
  3
ACAD_LAYOUT
350
74
  3
ACAD_MLINESTYLE
350
19
  3
ACAD_PLOTSETTINGS
350
75
  3
ACAD_PLOTSTYLENAME
350
72
  3
ACDBHEADERROUNDTRIPXREC
350
7E
  0
DICTIONARY
  5
7C
100
AcDbDictionary
280
     1
  3
ACAD_XREC_ROUNDTRIP
360
7D
  0
DICTIONARY
  5
9E
100
AcDbDictionary
280
     1
  3
ACAD_LAYOUTSELFREF
360
9F
  0
DICTIONARY
  5
A0
100
AcDbDictionary
280
     1
  3
ACAD_LAYOUTSELFREF
360
A1
  0
DICTIONARY
  5
18
102
{ACAD_REACTORS
330
1A
102
}
100
AcDbDictionary
  0
DICTIONARY
  5
74
102
{ACAD_XDICTIONARY
360
A6
102
}
102
{ACAD_REACTORS
330
1A
102
}
100
AcDbDictionary
  3
LAYOUT1
350
77
  3
MODEL
350
76
  0
DICTIONARY
  5
19
102
{ACAD_REACTORS
330
1A
102
}
100
AcDbDictionary
  3
STANDARD
350
1C
  0
DICTIONARY
  5
75
102
{ACAD_REACTORS
330
1A
102
}
100
AcDbDictionary
  0
ACAD_PROXY_OBJECT
  5
72
102
{ACAD_REACTORS
330
1A
102
}
100
AcDbProxyObject
 90
      499
 91
      501
 93
       86
310
405010041939BDC9B585B0
350
73
340
73
 94
        0
  0
DICTIONARY
  5
7E
102
{ACAD_REACTORS
330
1A
102
}
100
AcDbDictionary
  3
CEPSNTYPE
350
88
  3
FINGERPRINTGUID
350
89
  3
HYPERLINKBASE
350
81
  3
INSUNITS
350
87
  3
LAYOUTDICT
350
83
  3
LWETCUNION
350
86
  3
PLOTSETDICT
350
84
  3
PLOTSTYLNAMDICT
350
85
  3
PSVPSCALE
350
8B
  3
PUCSBASE
350
8E
  3
PUCSORGBACK
350
94
  3
PUCSORGBOTTOM
350
90
  3
PUCSORGFRONT
350
93
  3
PUCSORGLEFT
350
91
  3
PUCSORGRIGHT
350
92
  3
PUCSORGTOP
350
8F
  3
PUCSORTHOREF
350
8C
  3
PUCSORTHOVIEW
350
8D
  3
STYLESHEET
350
82
  3
TSTACKALIGN
350
7F
  3
TSTACKSIZE
350
80
  3
UCSBASE
350
97
  3
UCSORGBACK
350
9D
  3
UCSORGBOTTOM
350
99
  3
UCSORGFRONT
350
9C
  3
UCSORGLEFT
350
9A
  3
UCSORGRIGHT
350
9B
  3
UCSORGTOP
350
98
  3
UCSORTHOREF
350
95
  3
UCSORTHOVIEW
350
96
  3
VERSIONGUID
350
8A
  0
XRECORD
  5
7D
102
{ACAD_REACTORS
330
7C
102
}
100
AcDbXrecord
102
EXTNAMES
  1
*ACTIVE
  2
*Active
102
UCS
 74
     0
 71
     1
 10
0.0
 20
0.0
 30
0.0
 10
1.0
 20
0.0
 30
0.0
 10
0.0
 20
1.0
 30
0.0
146
0.0
 79
     0
102
VIEW
281
     0
  0
XRECORD
  5
9F
102
{ACAD_REACTORS
330
9E
102
}
100
AcDbXrecord
340
2
  0
XRECORD
  5
A1
102
{ACAD_REACTORS
330
A0
102
}
100
AcDbXrecord
340
7
  0
DICTIONARY
  5
A6
100
AcDbDictionary
280
     1
  3
ACAD_XREC_ROUNDTRIP
360
A7
  0
ACAD_PROXY_OBJECT
  5
77
102
{ACAD_REACTORS
330
74
102
}
100
AcDbProxyObject
 90
      499
 91
      503
 93
     1092
310
91D4850204C617365724A65742034562F344D5620506F73745363726970742C00AAAAAA416AA591069074C61796F75743140501A800000000000000000000000000000000000000000101E900000000000241C902A6A6A10232D5E076BC5510408CB5781DAF154410232D5E076BC5510408CB5781DAF15C410232D5E076BC5
310
710408CB5781DAF15C40
330
7
330
0
340
0
340
0
 94
        0
  0
ACAD_PROXY_OBJECT
  5
76
102
{ACAD_REACTORS
330
74
102
}
100
AcDbProxyObject
 90
      499
 91
      503
 93
      668
310
91D4850204C617365724A65742034562F344D5620506F73745363726970742C01AAAAAAAAA5A69054D6F64656C901A800000000000000000000000000000000000000000000A1000000000000008902A6A6AAAA0
330
2
330
0
340
0
340
0
 94
        0
  0
MLINESTYLE
  5
1C
102
{ACAD_REACTORS
330
19
102
}
100
AcDbMlineStyle
  2
STANDARD
 70
     0
  3

 62
     0
 51
90.0
 52
90.0
 71
     2
 49
0.5
 62
   256
  6
BYLAYER
 49
-0.5
 62
   256
  6
BYLAYER
  0
ACAD_PROXY_OBJECT
  5
73
102
{ACAD_REACTORS
330
72
102
}
100
AcDbProxyObject
 90
      499
 91
      502
 93
        0
 94
        0
  0
XRECORD
  5
88
102
{ACAD_REACTORS
330
7E
102
}
100
AcDbXrecord
 90
        0
  0
XRECORD
  5
89
102
{ACAD_REACTORS
330
7E
102
}
100
AcDbXrecord
  1
{DCFA097B-0BE8-11D6-AA0B-00D0B7E2A69D}
  0
XRECORD
  5
81
102
{ACAD_REACTORS
330
7E
102
}
100
AcDbXrecord
  1

  0
XRECORD
  5
87
102
{ACAD_REACTORS
330
7E
102
}
100
AcDbXrecord
 90
        0
  0
XRECORD
  5
83
102
{ACAD_REACTORS
330
7E
102
}
100
AcDbXrecord
340
74
  0
XRECORD
  5
86
102
{ACAD_REACTORS
330
7E
102
}
100
AcDbXrecord
 90
    14877
  0
XRECORD
  5
84
102
{ACAD_REACTORS
330
7E
102
}
100
AcDbXrecord
340
75
  0
XRECORD
  5
85
102
{ACAD_REACTORS
330
7E
102
}
100
AcDbXrecord
340
72
  0
XRECORD
  5
8B
102
{ACAD_REACTORS
330
7E
102
}
100
AcDbXrecord
 40
0.0
  0
XRECORD
  5
8E
102
{ACAD_REACTORS
330
7E
102
}
100
AcDbXrecord
340
0
  0
XRECORD
  5
94
102
{ACAD_REACTORS
330
7E
102
}
100
AcDbXrecord
 10
0.0
 20
0.0
 30
0.0
  0
XRECORD
  5
90
102
{ACAD_REACTORS
330
7E
102
}
100
AcDbXrecord
 10
0.0
 20
0.0
 30
0.0
  0
XRECORD
  5
93
102
{ACAD_REACTORS
330
7E
102
}
100
AcDbXrecord
 10
0.0
 20
0.0
 30
0.0
  0
XRECORD
  5
91
102
{ACAD_REACTORS
330
7E
102
}
100
AcDbXrecord
 10
0.0
 20
0.0
 30
0.0
  0
XRECORD
  5
92
102
{ACAD_REACTORS
330
7E
102
}
100
AcDbXrecord
 10
0.0
 20
0.0
 30
0.0
  0
XRECORD
  5
8F
102
{ACAD_REACTORS
330
7E
102
}
100
AcDbXrecord
 10
0.0
 20
0.0
 30
0.0
  0
XRECORD
  5
8C
102
{ACAD_REACTORS
330
7E
102
}
100
AcDbXrecord
340
0
  0
XRECORD
  5
8D
102
{ACAD_REACTORS
330
7E
102
}
100
AcDbXrecord
 70
     0
  0
XRECORD
  5
82
102
{ACAD_REACTORS
330
7E
102
}
100
AcDbXrecord
  1

  0
XRECORD
  5
7F
102
{ACAD_REACTORS
330
7E
102
}
100
AcDbXrecord
 90
        1
  0
XRECORD
  5
80
102
{ACAD_REACTORS
330
7E
102
}
100
AcDbXrecord
 90
       70
  0
XRECORD
  5
97
102
{ACAD_REACTORS
330
7E
102
}
100
AcDbXrecord
340
0
  0
XRECORD
  5
9D
102
{ACAD_REACTORS
330
7E
102
}
100
AcDbXrecord
 10
0.0
 20
0.0
 30
0.0
  0
XRECORD
  5
99
102
{ACAD_REACTORS
330
7E
102
}
100
AcDbXrecord
 10
0.0
 20
0.0
 30
0.0
  0
XRECORD
  5
9C
102
{ACAD_REACTORS
330
7E
102
}
100
AcDbXrecord
 10
0.0
 20
0.0
 30
0.0
  0
XRECORD
  5
9A
102
{ACAD_REACTORS
330
7E
102
}
100
AcDbXrecord
 10
0.0
 20
0.0
 30
0.0
  0
XRECORD
  5
9B
102
{ACAD_REACTORS
330
7E
102
}
100
AcDbXrecord
 10
0.0
 20
0.0
 30
0.0
  0
XRECORD
  5
98
102
{ACAD_REACTORS
330
7E
102
}
100
AcDbXrecord
 10
0.0
 20
0.0
 30
0.0
  0
XRECORD
  5
95
102
{ACAD_REACTORS
330
7E
102
}
100
AcDbXrecord
340
0
  0
XRECORD
  5
96
102
{ACAD_REACTORS
330
7E
102
}
100
AcDbXrecord
 70
     0
  0
XRECORD
  5
8A
102
{ACAD_REACTORS
330
7E
102
}
100
AcDbXrecord
  1
{DCFA097D-0BE8-11D6-AA0B-00D0B7E2A69D}
  0
XRECORD
  5
A7
102
{ACAD_REACTORS
330
A6
102
}
100
AcDbXrecord
102
EXTNAMES
  1
LAYOUT1
  2
Layout1
  1
MODEL
  2
Model
  0
ENDSEC
  0
EOF
