  0
SECTION
  2
HEADER
  9
$ACADVER
  1
AC1014
  9
$ACADMAINTVER
 70
     0
  9
$DWGCODEPAGE
  3
ANSI_1252
  9
$INSBASE
 10
-20.0
 20
35.0
 30
0.0
  9
$EXTMIN
 10
-380.0
 20
24.0
 30
0.0
  9
$EXTMAX
 10
-20.0
 20
560.0
 30
0.0
  9
$LIMMIN
 10
0.0
 20
0.0
  9
$LIMMAX
 10
840.0
 20
600.0
  9
$ORTHOMODE
 70
     0
  9
$REGENMODE
 70
     1
  9
$FILLMODE
 70
     1
  9
$QTEXTMODE
 70
     0
  9
$MIRRTEXT
 70
     1
  9
$DRAGMODE
 70
     2
  9
$LTSCALE
 40
5.0
  9
$OSMODE
 70
   547
  9
$ATTMODE
 70
     1
  9
$TEXTSIZE
 40
5.0
  9
$TRACEWID
 40
0.05
  9
$TEXTSTYLE
  7
STANDARD
  9
$CLAYER
  8
GLAS_MED_FOGNING
  9
$CELTYPE
  6
BYLAYER
  9
$CECOLOR
 62
   256
  9
$CELTSCALE
 40
1.0
  9
$DELOBJ
 70
     1
  9
$DISPSILH
 70
     0
  9
$DIMSCALE
 40
1.0
  9
$DIMASZ
 40
2.0
  9
$DIMEXO
 40
1.0
  9
$DIMDLI
 40
10.0
  9
$DIMRND
 40
0.0
  9
$DIMDLE
 40
0.0
  9
$DIMEXE
 40
2.0
  9
$DIMTP
 40
0.0
  9
$DIMTM
 40
0.0
  9
$DIMTXT
 40
3.5
  9
$DIMCEN
 40
2.5
  9
$DIMTSZ
 40
0.0
  9
$DIMTOL
 70
     0
  9
$DIMLIM
 70
     0
  9
$DIMTIH
 70
     0
  9
$DIMTOH
 70
     0
  9
$DIMSE1
 70
     0
  9
$DIMSE2
 70
     0
  9
$DIMTAD
 70
     1
  9
$DIMZIN
 70
     8
  9
$DIMBLK
  1

  9
$DIMASO
 70
     1
  9
$DIMSHO
 70
     1
  9
$DIMPOST
  1

  9
$DIMAPOST
  1

  9
$DIMALT
 70
     0
  9
$DIMALTD
 70
     2
  9
$DIMALTF
 40
25.4
  9
$DIMLFAC
 40
1.0
  9
$DIMTOFL
 70
     1
  9
$DIMTVP
 40
0.0
  9
$DIMTIX
 70
     0
  9
$DIMSOXD
 70
     0
  9
$DIMSAH
 70
     0
  9
$DIMBLK1
  1

  9
$DIMBLK2
  1

  9
$DIMSTYLE
  2
STANDARD
  9
$DIMCLRD
 70
     0
  9
$DIMCLRE
 70
     0
  9
$DIMCLRT
 70
     6
  9
$DIMTFAC
 40
1.0
  9
$DIMGAP
 40
0.1
  9
$DIMJUST
 70
     0
  9
$DIMSD1
 70
     0
  9
$DIMSD2
 70
     0
  9
$DIMTOLJ
 70
     1
  9
$DIMTZIN
 70
     0
  9
$DIMALTZ
 70
     0
  9
$DIMALTTZ
 70
     0
  9
$DIMFIT
 70
     3
  9
$DIMUPT
 70
     0
  9
$DIMUNIT
 70
     2
  9
$DIMDEC
 70
     4
  9
$DIMTDEC
 70
     4
  9
$DIMALTU
 70
     2
  9
$DIMALTTD
 70
     2
  9
$DIMTXSTY
  7
STANDARD
  9
$DIMAUNIT
 70
     0
  9
$LUNITS
 70
     2
  9
$LUPREC
 70
     2
  9
$SKETCHINC
 40
0.1
  9
$FILLETRAD
 40
0.5
  9
$AUNITS
 70
     0
  9
$AUPREC
 70
     4
  9
$MENU
  1
acad
  9
$ELEVATION
 40
0.0
  9
$PELEVATION
 40
0.0
  9
$THICKNESS
 40
0.0
  9
$LIMCHECK
 70
     0
  9
$BLIPMODE
 70
     0
  9
$CHAMFERA
 40
10.0
  9
$CHAMFERB
 40
10.0
  9
$CHAMFERC
 40
0.0
  9
$CHAMFERD
 40
0.0
  9
$SKPOLY
 70
     0
  9
$TDCREATE
 40
2450610.853837731
  9
$TDUPDATE
 40
2452293.498769213
  9
$TDINDWG
 40
0.0032804398
  9
$TDUSRTIMER
 40
0.0032804398
  9
$USRTIMER
 70
     1
  9
$ANGBASE
 50
0.0
  9
$ANGDIR
 70
     0
  9
$PDMODE
 70
    35
  9
$PDSIZE
 40
0.0
  9
$PLINEWID
 40
0.0
  9
$COORDS
 70
     1
  9
$SPLFRAME
 70
     0
  9
$SPLINETYPE
 70
     6
  9
$SPLINESEGS
 70
     8
  9
$ATTDIA
 70
     0
  9
$ATTREQ
 70
     1
  9
$HANDLING
 70
     1
  9
$HANDSEED
  5
823
  9
$SURFTAB1
 70
     6
  9
$SURFTAB2
 70
     6
  9
$SURFTYPE
 70
     6
  9
$SURFU
 70
     6
  9
$SURFV
 70
     6
  9
$UCSNAME
  2

  9
$UCSORG
 10
0.0
 20
0.0
 30
0.0
  9
$UCSXDIR
 10
1.0
 20
0.0
 30
0.0
  9
$UCSYDIR
 10
0.0
 20
1.0
 30
0.0
  9
$PUCSNAME
  2

  9
$PUCSORG
 10
0.0
 20
0.0
 30
0.0
  9
$PUCSXDIR
 10
1.0
 20
0.0
 30
0.0
  9
$PUCSYDIR
 10
0.0
 20
1.0
 30
0.0
  9
$USERI1
 70
     0
  9
$USERI2
 70
     0
  9
$USERI3
 70
     0
  9
$USERI4
 70
     0
  9
$USERI5
 70
     0
  9
$USERR1
 40
0.0
  9
$USERR2
 40
0.0
  9
$USERR3
 40
0.0
  9
$USERR4
 40
0.0
  9
$USERR5
 40
0.0
  9
$WORLDVIEW
 70
     1
  9
$SHADEDGE
 70
     3
  9
$SHADEDIF
 70
    70
  9
$TILEMODE
 70
     1
  9
$MAXACTVP
 70
    16
  9
$PINSBASE
 10
0.0
 20
0.0
 30
0.0
  9
$PLIMCHECK
 70
     0
  9
$PEXTMIN
 10
1.000000E+20
 20
1.000000E+20
 30
1.000000E+20
  9
$PEXTMAX
 10
-1.000000E+20
 20
-1.000000E+20
 30
-1.000000E+20
  9
$PLIMMIN
 10
0.0
 20
0.0
  9
$PLIMMAX
 10
420.0
 20
297.0
  9
$UNITMODE
 70
     0
  9
$VISRETAIN
 70
     0
  9
$PLINEGEN
 70
     0
  9
$PSLTSCALE
 70
     1
  9
$TREEDEPTH
 70
  3020
  9
$PICKSTYLE
 70
     1
  9
$CMLSTYLE
  2
STANDARD
  9
$CMLJUST
 70
     0
  9
$CMLSCALE
 40
1.0
  9
$PROXYGRAPHICS
 70
     1
  9
$MEASUREMENT
 70
     0
  0
ENDSEC
  0
SECTION
  2
CLASSES
  0
CLASS
  1
LWPOLYLINE
  2
AcDbPolyline
  3
"AutoCAD"
 90
        0
280
     0
281
     1
  0
CLASS
  1
ACDBDICTIONARYWDFLT
  2
AcDbDictionaryWithDefault
  3
AutoCAD 2000
 90
        0
280
     0
281
     0
  0
CLASS
  1
ACDBPLACEHOLDER
  2
AcDbPlaceHolder
  3
AutoCAD 2000
 90
        0
280
     0
281
     0
  0
CLASS
  1
LAYOUT
  2
AcDbLayout
  3
AutoCAD 2000
 90
        0
280
     0
281
     0
  0
CLASS
  1
LONG_TRANSACTION
  2
AcDbLongTransaction
  3
AutoCAD 2000
 90
        0
280
     0
281
     0
  0
CLASS
  1
LWPOLYLINE
  2
AcDbPolyline
  3
"AutoCAD"
 90
        0
280
     0
281
     1
  0
CLASS
  1
HATCH
  2
AcDbHatch
  3
"ACAD_SEDONA"
 90
        0
280
     0
281
     1
  0
CLASS
  1
XRECORD
  2
AcDbXrecord
  3
"<Built In>"
 90
        0
280
     0
281
     0
  0
ENDSEC
  0
SECTION
  2
TABLES
  0
TABLE
  2
VPORT
  5
13
100
AcDbSymbolTable
 70
     1
  0
VPORT
  5
7F3
102
{ACAD_XDICTIONARY
360
7F6
102
}
100
AcDbSymbolTableRecord
100
AcDbViewportTableRecord
  2
*ACTIVE
 70
     0
 10
0.0
 20
0.0
 11
1.0
 21
1.0
 12
-207.755841
 22
293.850106
 13
0.0
 23
0.0
 14
5.0
 24
5.0
 15
10.0
 25
10.0
 16
0.0
 26
0.0
 36
1.0
 17
0.0
 27
0.0
 37
0.0
 40
640.333895
 41
1.630435
 42
50.0
 43
0.0
 44
0.0
 50
0.0
 51
0.0
 71
     0
 72
   100
 73
     1
 74
     1
 75
     1
 76
     0
 77
     0
 78
     1
  0
ENDTAB
  0
TABLE
  2
LTYPE
  5
F
100
AcDbSymbolTable
 70
     2
  0
LTYPE
  5
10
100
AcDbSymbolTableRecord
100
AcDbLinetypeTableRecord
  2
BYBLOCK
 70
     0
  3

 72
    65
 73
     0
 40
0.0
  0
LTYPE
  5
6
100
AcDbSymbolTableRecord
100
AcDbLinetypeTableRecord
  2
BYLAYER
 70
     0
  3

 72
    65
 73
     0
 40
0.0
  0
LTYPE
  5
5
100
AcDbSymbolTableRecord
100
AcDbLinetypeTableRecord
  2
CONTINUOUS
 70
     0
  3
Solid line
 72
    65
 73
     0
 40
0.0
  0
LTYPE
  5
28
100
AcDbSymbolTableRecord
100
AcDbLinetypeTableRecord
  2
DASHDOT
 70
     0
  3
__ . __ . __ . __ . __ . __ . __ . __ . __ . __
 72
    65
 73
     4
 40
1.0
 49
0.5
 74
     0
 49
-0.25
 74
     0
 49
0.0
 74
     0
 49
-0.25
 74
     0
  0
ENDTAB
  0
TABLE
  2
LAYER
  5
B
100
AcDbSymbolTable
 70
    16
  0
LAYER
  5
C
100
AcDbSymbolTableRecord
100
AcDbLayerTableRecord
  2
0
 70
     0
 62
     7
  6
CONTINUOUS
  0
LAYER
  5
3C
100
AcDbSymbolTableRecord
100
AcDbLayerTableRecord
  2
16
 70
     0
 62
     1
  6
CONTINUOUS
  0
LAYER
  5
549
102
{ACAD_XDICTIONARY
360
81C
102
}
100
AcDbSymbolTableRecord
100
AcDbLayerTableRecord
  2
DEFPOINTS
 70
     0
 62
     7
  6
CONTINUOUS
  0
LAYER
  5
6AA
100
AcDbSymbolTableRecord
100
AcDbLayerTableRecord
  2
01
 70
     0
 62
     7
  6
CONTINUOUS
  0
LAYER
  5
33D
100
AcDbSymbolTableRecord
100
AcDbLayerTableRecord
  2
KON
 70
     0
 62
    82
  6
CONTINUOUS
  0
LAYER
  5
BF
100
AcDbSymbolTableRecord
100
AcDbLayerTableRecord
  2
2
 70
     0
 62
     2
  6
CONTINUOUS
  0
LAYER
  5
140
100
AcDbSymbolTableRecord
100
AcDbLayerTableRecord
  2
GLASFOGNINGAR
 70
     0
 62
    11
  6
CONTINUOUS
  0
LAYER
  5
1E8
100
AcDbSymbolTableRecord
100
AcDbLayerTableRecord
  2
GREEN
 70
     0
 62
     3
  6
CONTINUOUS
  0
LAYER
  5
587
100
AcDbSymbolTableRecord
100
AcDbLayerTableRecord
  2
HATCH
 70
     0
 62
     5
  6
CONTINUOUS
  0
LAYER
  5
33A
100
AcDbSymbolTableRecord
100
AcDbLayerTableRecord
  2
GLASMFOGNING
 70
     0
 62
     2
  6
CONTINUOUS
  0
LAYER
  5
4
100
AcDbSymbolTableRecord
100
AcDbLayerTableRecord
  2
GLAS_MED_FOGNING
 70
     0
 62
     2
  6
CONTINUOUS
  0
LAYER
  5
2D7
100
AcDbSymbolTableRecord
100
AcDbLayerTableRecord
  2
STALPROFIL
 70
     0
 62
     1
  6
CONTINUOUS
  0
LAYER
  5
4B1
100
AcDbSymbolTableRecord
100
AcDbLayerTableRecord
  2
PROFIL
 70
     0
 62
     1
  6
CONTINUOUS
  0
LAYER
  5
E2
100
AcDbSymbolTableRecord
100
AcDbLayerTableRecord
  2
GLISTHATCH
 70
     0
 62
     4
  6
CONTINUOUS
  0
LAYER
  5
334
100
AcDbSymbolTableRecord
100
AcDbLayerTableRecord
  2
TEXT
 70
     0
 62
     6
  6
CONTINUOUS
  0
LAYER
  5
22
100
AcDbSymbolTableRecord
100
AcDbLayerTableRecord
  2
RAM
 70
     0
 62
     5
  6
CONTINUOUS
  0
ENDTAB
  0
TABLE
  2
STYLE
  5
D
100
AcDbSymbolTable
 70
     2
  0
STYLE
  5
E
100
AcDbSymbolTableRecord
100
AcDbTextStyleTableRecord
  2
STANDARD
 70
     0
 40
0.0
 41
0.8
 50
0.0
 71
     0
 42
5.0
  3
C:/ACADWIN/FONTS/ROMANS.SHX
  4

  0
STYLE
  5
335
100
AcDbSymbolTableRecord
100
AcDbTextStyleTableRecord
  2
ROMANS
 70
     0
 40
0.0
 41
0.8
 50
0.0
 71
     0
 42
9.0
  3
romans
  4

  0
ENDTAB
  0
TABLE
  2
VIEW
  5
11
100
AcDbSymbolTable
 70
     0
  0
ENDTAB
  0
TABLE
  2
UCS
  5
12
100
AcDbSymbolTable
 70
     0
  0
ENDTAB
  0
TABLE
  2
APPID
  5
15
100
AcDbSymbolTable
 70
     1
  0
APPID
  5
16
100
AcDbSymbolTableRecord
100
AcDbRegAppTableRecord
  2
ACAD
 70
     0
  0
ENDTAB
  0
TABLE
  2
DIMSTYLE
  5
17
100
AcDbSymbolTable
 70
     1
  0
DIMSTYLE
105
1D
100
AcDbSymbolTableRecord
100
AcDbDimStyleTableRecord
  2
STANDARD
 70
     0
  3

  4

  5

  6

  7

 40
1.0
 41
0.18
 42
0.0625
 43
0.38
 44
0.18
 45
0.0
 46
0.0
 47
0.0
 48
0.0
140
0.18
141
0.09
142
0.0
143
25.4
144
1.0
145
0.0
146
1.0
147
0.09
 71
     0
 72
     0
 73
     1
 74
     1
 75
     0
 76
     0
 77
     0
 78
     0
170
     0
171
     2
172
     0
173
     0
174
     0
175
     0
176
     0
177
     0
178
     0
270
     2
271
     4
272
     4
273
     2
274
     2
340
E
275
     0
280
     0
281
     0
282
     0
283
     1
284
     0
285
     0
286
     0
287
     3
288
     0
  0
ENDTAB
  0
TABLE
  2
BLOCK_RECORD
  5
1
100
AcDbSymbolTable
 70
    40
  0
BLOCK_RECORD
  5
2
102
{ACAD_XDICTIONARY
360
818
102
}
100
AcDbSymbolTableRecord
100
AcDbBlockTableRecord
  2
*MODEL_SPACE
  0
BLOCK_RECORD
  5
8
102
{ACAD_XDICTIONARY
360
81A
102
}
100
AcDbSymbolTableRecord
100
AcDbBlockTableRecord
  2
*PAPER_SPACE
  0
BLOCK_RECORD
  5
1E9
100
AcDbSymbolTableRecord
100
AcDbBlockTableRecord
  2
*X0
  0
BLOCK_RECORD
  5
E3
100
AcDbSymbolTableRecord
100
AcDbBlockTableRecord
  2
*X1
  0
BLOCK_RECORD
  5
103
100
AcDbSymbolTableRecord
100
AcDbBlockTableRecord
  2
*X2
  0
BLOCK_RECORD
  5
5F4
100
AcDbSymbolTableRecord
100
AcDbBlockTableRecord
  2
*X3
  0
BLOCK_RECORD
  5
143
100
AcDbSymbolTableRecord
100
AcDbBlockTableRecord
  2
SKRUV
  0
BLOCK_RECORD
  5
141
100
AcDbSymbolTableRecord
100
AcDbBlockTableRecord
  2
SP60000_SKRUV
  0
BLOCK_RECORD
  5
58A
100
AcDbSymbolTableRecord
100
AcDbBlockTableRecord
  2
*X6
  0
BLOCK_RECORD
  5
588
100
AcDbSymbolTableRecord
100
AcDbBlockTableRecord
  2
NIT
  0
BLOCK_RECORD
  5
33E
100
AcDbSymbolTableRecord
100
AcDbBlockTableRecord
  2
*X8
  0
BLOCK_RECORD
  5
33B
100
AcDbSymbolTableRecord
100
AcDbBlockTableRecord
  2
GLIST-66350
  0
BLOCK_RECORD
  5
565
100
AcDbSymbolTableRecord
100
AcDbBlockTableRecord
  2
*X10
  0
BLOCK_RECORD
  5
4E4
100
AcDbSymbolTableRecord
100
AcDbBlockTableRecord
  2
*X11
  0
BLOCK_RECORD
  5
4BE
100
AcDbSymbolTableRecord
100
AcDbBlockTableRecord
  2
*X12
  0
BLOCK_RECORD
  5
529
100
AcDbSymbolTableRecord
100
AcDbBlockTableRecord
  2
*X13
  0
BLOCK_RECORD
  5
1E6
100
AcDbSymbolTableRecord
100
AcDbBlockTableRecord
  2
C2
  0
BLOCK_RECORD
  5
5EF
100
AcDbSymbolTableRecord
100
AcDbBlockTableRecord
  2
A2
  0
BLOCK_RECORD
  5
5ED
100
AcDbSymbolTableRecord
100
AcDbBlockTableRecord
  2
C3
  0
BLOCK_RECORD
  5
2A0
100
AcDbSymbolTableRecord
100
AcDbBlockTableRecord
  2
A3
  0
BLOCK_RECORD
  5
7C9
100
AcDbSymbolTableRecord
100
AcDbBlockTableRecord
  2
SP_66253_66352
  0
BLOCK_RECORD
  5
7C7
100
AcDbSymbolTableRecord
100
AcDbBlockTableRecord
  2
C1
  0
BLOCK_RECORD
  5
5A6
100
AcDbSymbolTableRecord
100
AcDbBlockTableRecord
  2
SP_60000_SKRUV-KNOPP
  0
BLOCK_RECORD
  5
4AE
100
AcDbSymbolTableRecord
100
AcDbBlockTableRecord
  2
A4
  0
BLOCK_RECORD
  5
4AC
100
AcDbSymbolTableRecord
100
AcDbBlockTableRecord
  2
SP_66500_GLASKNOPP
  0
BLOCK_RECORD
  5
338
100
AcDbSymbolTableRecord
100
AcDbBlockTableRecord
  2
SP_66350
  0
BLOCK_RECORD
  5
39
100
AcDbSymbolTableRecord
100
AcDbBlockTableRecord
  2
A11
  0
BLOCK_RECORD
  5
1E1
100
AcDbSymbolTableRecord
100
AcDbBlockTableRecord
  2
SP-66253_ISOLATOR
  0
BLOCK_RECORD
  5
13E
100
AcDbSymbolTableRecord
100
AcDbBlockTableRecord
  2
B9
  0
BLOCK_RECORD
  5
1F
100
AcDbSymbolTableRecord
100
AcDbBlockTableRecord
  2
SIDA
  0
BLOCK_RECORD
  5
707
100
AcDbSymbolTableRecord
100
AcDbBlockTableRecord
  2
*X28
  0
BLOCK_RECORD
  5
6FD
100
AcDbSymbolTableRecord
100
AcDbBlockTableRecord
  2
SP_66362_STANDARD
  0
BLOCK_RECORD
  5
7C5
100
AcDbSymbolTableRecord
100
AcDbBlockTableRecord
  2
SP_66254_66253_66352
  0
BLOCK_RECORD
  5
5E4
100
AcDbSymbolTableRecord
100
AcDbBlockTableRecord
  2
SP_66254
  0
BLOCK_RECORD
  5
5EB
100
AcDbSymbolTableRecord
100
AcDbBlockTableRecord
  2
SP_66253
  0
BLOCK_RECORD
  5
29E
100
AcDbSymbolTableRecord
100
AcDbBlockTableRecord
  2
B4
  0
BLOCK_RECORD
  5
5A4
100
AcDbSymbolTableRecord
100
AcDbBlockTableRecord
  2
SKRUV_TILL_66500
  0
BLOCK_RECORD
  5
5BA
100
AcDbSymbolTableRecord
100
AcDbBlockTableRecord
  2
A14
  0
BLOCK_RECORD
  5
5B1
100
AcDbSymbolTableRecord
100
AcDbBlockTableRecord
  2
SP_60000_GLAS_
  0
BLOCK_RECORD
  5
29C
100
AcDbSymbolTableRecord
100
AcDbBlockTableRecord
  2
SP_66362_MODIFERAD
  0
BLOCK_RECORD
  5
13C
102
{ACAD_XDICTIONARY
360
7F4
102
}
100
AcDbSymbolTableRecord
100
AcDbBlockTableRecord
  2
SP_66254_66253_66362_SKRUV
  0
BLOCK_RECORD
  5
37
100
AcDbSymbolTableRecord
100
AcDbBlockTableRecord
  2
SP_66253_ISOL_V
  0
ENDTAB
  0
ENDSEC
  0
SECTION
  2
BLOCKS
  0
BLOCK
  5
3
100
AcDbEntity
  8
0
100
AcDbBlockBegin
  2
*MODEL_SPACE
 70
     0
 10
0.0
 20
0.0
 30
0.0
  3
*MODEL_SPACE
  1

  0
ENDBLK
  5
7
100
AcDbEntity
  8
0
100
AcDbBlockEnd
  0
BLOCK
  5
9
100
AcDbEntity
 67
     1
  8
0
100
AcDbBlockBegin
  2
*PAPER_SPACE
 70
     0
 10
0.0
 20
0.0
 30
0.0
  3
*PAPER_SPACE
  1

  0
ENDBLK
  5
A
100
AcDbEntity
 67
     1
  8
0
100
AcDbBlockEnd
  0
BLOCK
  5
282
100
AcDbEntity
  8
0
100
AcDbBlockBegin
  2
*X0
 70
     1
 10
0.0
 20
0.0
 30
0.0
  3
*X0
  1

  0
LINE
  5
1EA
100
AcDbEntity
  8
0
 62
     0
100
AcDbLine
 10
896.886497
 20
239.826859
 30
0.0
 11
895.636497
 21
241.076859
 31
0.0
  0
LINE
  5
1EB
100
AcDbEntity
  8
0
 62
     0
100
AcDbLine
 10
896.356167
 20
239.826859
 30
0.0
 11
895.106167
 21
241.076859
 31
0.0
  0
LINE
  5
1EC
100
AcDbEntity
  8
0
 62
     0
100
AcDbLine
 10
895.825837
 20
239.826859
 30
0.0
 11
894.575837
 21
241.076859
 31
0.0
  0
LINE
  5
1ED
100
AcDbEntity
  8
0
 62
     0
100
AcDbLine
 10
895.295506
 20
239.826859
 30
0.0
 11
894.045506
 21
241.076859
 31
0.0
  0
LINE
  5
1EE
100
AcDbEntity
  8
0
 62
     0
100
AcDbLine
 10
894.765176
 20
239.826859
 30
0.0
 11
893.515176
 21
241.076859
 31
0.0
  0
LINE
  5
1EF
100
AcDbEntity
  8
0
 62
     0
100
AcDbLine
 10
894.234846
 20
239.826859
 30
0.0
 11
892.984846
 21
241.076859
 31
0.0
  0
LINE
  5
1F0
100
AcDbEntity
  8
0
 62
     0
100
AcDbLine
 10
893.704516
 20
239.826859
 30
0.0
 11
892.454516
 21
241.076859
 31
0.0
  0
LINE
  5
1F1
100
AcDbEntity
  8
0
 62
     0
100
AcDbLine
 10
893.174186
 20
239.826859
 30
0.0
 11
891.924186
 21
241.076859
 31
0.0
  0
LINE
  5
1F2
100
AcDbEntity
  8
0
 62
     0
100
AcDbLine
 10
892.643856
 20
239.826859
 30
0.0
 11
891.393856
 21
241.076859
 31
0.0
  0
LINE
  5
1F3
100
AcDbEntity
  8
0
 62
     0
100
AcDbLine
 10
892.113526
 20
239.826859
 30
0.0
 11
890.863526
 21
241.076859
 31
0.0
  0
LINE
  5
1F4
100
AcDbEntity
  8
0
 62
     0
100
AcDbLine
 10
891.583196
 20
239.826859
 30
0.0
 11
890.333196
 21
241.076859
 31
0.0
  0
LINE
  5
1F5
100
AcDbEntity
  8
0
 62
     0
100
AcDbLine
 10
891.052866
 20
239.826859
 30
0.0
 11
889.802866
 21
241.076859
 31
0.0
  0
LINE
  5
1F6
100
AcDbEntity
  8
0
 62
     0
100
AcDbLine
 10
890.522536
 20
239.826859
 30
0.0
 11
889.272536
 21
241.076859
 31
0.0
  0
LINE
  5
1F7
100
AcDbEntity
  8
0
 62
     0
100
AcDbLine
 10
889.992206
 20
239.826859
 30
0.0
 11
888.742206
 21
241.076859
 31
0.0
  0
LINE
  5
1F8
100
AcDbEntity
  8
0
 62
     0
100
AcDbLine
 10
889.461875
 20
239.826859
 30
0.0
 11
888.211875
 21
241.076859
 31
0.0
  0
LINE
  5
1F9
100
AcDbEntity
  8
0
 62
     0
100
AcDbLine
 10
888.931545
 20
239.826859
 30
0.0
 11
887.681545
 21
241.076859
 31
0.0
  0
LINE
  5
1FA
100
AcDbEntity
  8
0
 62
     0
100
AcDbLine
 10
888.401215
 20
239.826859
 30
0.0
 11
887.151215
 21
241.076859
 31
0.0
  0
LINE
  5
1FB
100
AcDbEntity
  8
0
 62
     0
100
AcDbLine
 10
887.870885
 20
239.826859
 30
0.0
 11
886.620885
 21
241.076859
 31
0.0
  0
LINE
  5
1FC
100
AcDbEntity
  8
0
 62
     0
100
AcDbLine
 10
887.340555
 20
239.826859
 30
0.0
 11
886.090555
 21
241.076859
 31
0.0
  0
LINE
  5
1FD
100
AcDbEntity
  8
0
 62
     0
100
AcDbLine
 10
886.810225
 20
239.826859
 30
0.0
 11
885.560225
 21
241.076859
 31
0.0
  0
LINE
  5
1FE
100
AcDbEntity
  8
0
 62
     0
100
AcDbLine
 10
886.279895
 20
239.826859
 30
0.0
 11
885.029895
 21
241.076859
 31
0.0
  0
LINE
  5
1FF
100
AcDbEntity
  8
0
 62
     0
100
AcDbLine
 10
885.749565
 20
239.826859
 30
0.0
 11
884.499565
 21
241.076859
 31
0.0
  0
LINE
  5
200
100
AcDbEntity
  8
0
 62
     0
100
AcDbLine
 10
885.219235
 20
239.826859
 30
0.0
 11
883.969235
 21
241.076859
 31
0.0
  0
LINE
  5
201
100
AcDbEntity
  8
0
 62
     0
100
AcDbLine
 10
884.688905
 20
239.826859
 30
0.0
 11
883.438905
 21
241.076859
 31
0.0
  0
LINE
  5
202
100
AcDbEntity
  8
0
 62
     0
100
AcDbLine
 10
884.158575
 20
239.826859
 30
0.0
 11
882.908575
 21
241.076859
 31
0.0
  0
LINE
  5
203
100
AcDbEntity
  8
0
 62
     0
100
AcDbLine
 10
883.628245
 20
239.826859
 30
0.0
 11
882.378245
 21
241.076859
 31
0.0
  0
LINE
  5
204
100
AcDbEntity
  8
0
 62
     0
100
AcDbLine
 10
883.097914
 20
239.826859
 30
0.0
 11
881.847914
 21
241.076859
 31
0.0
  0
LINE
  5
205
100
AcDbEntity
  8
0
 62
     0
100
AcDbLine
 10
882.567584
 20
239.826859
 30
0.0
 11
881.317584
 21
241.076859
 31
0.0
  0
LINE
  5
206
100
AcDbEntity
  8
0
 62
     0
100
AcDbLine
 10
882.037254
 20
239.826859
 30
0.0
 11
880.787254
 21
241.076859
 31
0.0
  0
LINE
  5
207
100
AcDbEntity
  8
0
 62
     0
100
AcDbLine
 10
881.506924
 20
239.826859
 30
0.0
 11
880.256924
 21
241.076859
 31
0.0
  0
LINE
  5
208
100
AcDbEntity
  8
0
 62
     0
100
AcDbLine
 10
880.976594
 20
239.826859
 30
0.0
 11
879.726594
 21
241.076859
 31
0.0
  0
LINE
  5
209
100
AcDbEntity
  8
0
 62
     0
100
AcDbLine
 10
880.446264
 20
239.826859
 30
0.0
 11
879.196264
 21
241.076859
 31
0.0
  0
LINE
  5
20A
100
AcDbEntity
  8
0
 62
     0
100
AcDbLine
 10
879.915934
 20
239.826859
 30
0.0
 11
878.665934
 21
241.076859
 31
0.0
  0
LINE
  5
20B
100
AcDbEntity
  8
0
 62
     0
100
AcDbLine
 10
879.385604
 20
239.826859
 30
0.0
 11
878.135604
 21
241.076859
 31
0.0
  0
LINE
  5
20C
100
AcDbEntity
  8
0
 62
     0
100
AcDbLine
 10
878.855274
 20
239.826859
 30
0.0
 11
877.605274
 21
241.076859
 31
0.0
  0
LINE
  5
20D
100
AcDbEntity
  8
0
 62
     0
100
AcDbLine
 10
878.324944
 20
239.826859
 30
0.0
 11
877.074944
 21
241.076859
 31
0.0
  0
LINE
  5
20E
100
AcDbEntity
  8
0
 62
     0
100
AcDbLine
 10
877.794614
 20
239.826859
 30
0.0
 11
876.544614
 21
241.076859
 31
0.0
  0
LINE
  5
20F
100
AcDbEntity
  8
0
 62
     0
100
AcDbLine
 10
877.264284
 20
239.826859
 30
0.0
 11
876.014284
 21
241.076859
 31
0.0
  0
LINE
  5
210
100
AcDbEntity
  8
0
 62
     0
100
AcDbLine
 10
876.733953
 20
239.826859
 30
0.0
 11
875.483953
 21
241.076859
 31
0.0
  0
LINE
  5
211
100
AcDbEntity
  8
0
 62
     0
100
AcDbLine
 10
876.203623
 20
239.826859
 30
0.0
 11
874.953623
 21
241.076859
 31
0.0
  0
LINE
  5
212
100
AcDbEntity
  8
0
 62
     0
100
AcDbLine
 10
875.673293
 20
239.826859
 30
0.0
 11
874.423293
 21
241.076859
 31
0.0
  0
LINE
  5
213
100
AcDbEntity
  8
0
 62
     0
100
AcDbLine
 10
875.142963
 20
239.826859
 30
0.0
 11
873.892963
 21
241.076859
 31
0.0
  0
LINE
  5
214
100
AcDbEntity
  8
0
 62
     0
100
AcDbLine
 10
874.612633
 20
239.826859
 30
0.0
 11
873.362633
 21
241.076859
 31
0.0
  0
LINE
  5
215
100
AcDbEntity
  8
0
 62
     0
100
AcDbLine
 10
874.082303
 20
239.826859
 30
0.0
 11
872.832303
 21
241.076859
 31
0.0
  0
LINE
  5
216
100
AcDbEntity
  8
0
 62
     0
100
AcDbLine
 10
873.551973
 20
239.826859
 30
0.0
 11
872.345586
 21
241.033246
 31
0.0
  0
LINE
  5
217
100
AcDbEntity
  8
0
 62
     0
100
AcDbLine
 10
873.021643
 20
239.826859
 30
0.0
 11
872.000738
 21
240.847763
 31
0.0
  0
LINE
  5
218
100
AcDbEntity
  8
0
 62
     0
100
AcDbLine
 10
872.887394
 20
239.430778
 30
0.0
 11
871.760736
 21
240.557435
 31
0.0
  0
LINE
  5
219
100
AcDbEntity
  8
0
 62
     0
100
AcDbLine
 10
872.886999
 20
238.900843
 30
0.0
 11
871.640197
 21
240.147644
 31
0.0
  0
LINE
  5
21A
100
AcDbEntity
  8
0
 62
     0
100
AcDbLine
 10
872.886604
 20
238.370908
 30
0.0
 11
871.637689
 21
239.619822
 31
0.0
  0
LINE
  5
21B
100
AcDbEntity
  8
0
 62
     0
100
AcDbLine
 10
872.886208
 20
237.840973
 30
0.0
 11
871.637689
 21
239.089492
 31
0.0
  0
LINE
  5
21C
100
AcDbEntity
  8
0
 62
     0
100
AcDbLine
 10
872.885813
 20
237.311038
 30
0.0
 11
871.637689
 21
238.559162
 31
0.0
  0
LINE
  5
21D
100
AcDbEntity
  8
0
 62
     0
100
AcDbLine
 10
872.885418
 20
236.781103
 30
0.0
 11
871.637689
 21
238.028832
 31
0.0
  0
LINE
  5
21E
100
AcDbEntity
  8
0
 62
     0
100
AcDbLine
 10
872.885023
 20
236.251168
 30
0.0
 11
871.637689
 21
237.498502
 31
0.0
  0
LINE
  5
21F
100
AcDbEntity
  8
0
 62
     0
100
AcDbLine
 10
872.884628
 20
235.721233
 30
0.0
 11
871.637689
 21
236.968172
 31
0.0
  0
LINE
  5
220
100
AcDbEntity
  8
0
 62
     0
100
AcDbLine
 10
872.884233
 20
235.191298
 30
0.0
 11
871.637689
 21
236.437842
 31
0.0
  0
LINE
  5
221
100
AcDbEntity
  8
0
 62
     0
100
AcDbLine
 10
872.883838
 20
234.661363
 30
0.0
 11
871.637689
 21
235.907512
 31
0.0
  0
LINE
  5
222
100
AcDbEntity
  8
0
 62
     0
100
AcDbLine
 10
872.883443
 20
234.131428
 30
0.0
 11
871.637689
 21
235.377182
 31
0.0
  0
LINE
  5
223
100
AcDbEntity
  8
0
 62
     0
100
AcDbLine
 10
872.883048
 20
233.601493
 30
0.0
 11
871.637689
 21
234.846852
 31
0.0
  0
LINE
  5
224
100
AcDbEntity
  8
0
 62
     0
100
AcDbLine
 10
872.882653
 20
233.071558
 30
0.0
 11
871.637689
 21
234.316522
 31
0.0
  0
LINE
  5
225
100
AcDbEntity
  8
0
 62
     0
100
AcDbLine
 10
872.882258
 20
232.541623
 30
0.0
 11
871.637689
 21
233.786191
 31
0.0
  0
LINE
  5
226
100
AcDbEntity
  8
0
 62
     0
100
AcDbLine
 10
872.881863
 20
232.011688
 30
0.0
 11
871.637689
 21
233.255861
 31
0.0
  0
LINE
  5
227
100
AcDbEntity
  8
0
 62
     0
100
AcDbLine
 10
872.881467
 20
231.481753
 30
0.0
 11
871.637689
 21
232.725531
 31
0.0
  0
LINE
  5
228
100
AcDbEntity
  8
0
 62
     0
100
AcDbLine
 10
872.881072
 20
230.951818
 30
0.0
 11
871.637689
 21
232.195201
 31
0.0
  0
LINE
  5
229
100
AcDbEntity
  8
0
 62
     0
100
AcDbLine
 10
873.068603
 20
230.233957
 30
0.0
 11
871.637689
 21
231.664871
 31
0.0
  0
LINE
  5
22A
100
AcDbEntity
  8
0
 62
     0
100
AcDbLine
 10
873.092481
 20
229.679749
 30
0.0
 11
871.637689
 21
231.134541
 31
0.0
  0
LINE
  5
22B
100
AcDbEntity
  8
0
 62
     0
100
AcDbLine
 10
872.878896
 20
229.363004
 30
0.0
 11
871.637689
 21
230.604211
 31
0.0
  0
LINE
  5
22C
100
AcDbEntity
  8
0
 62
     0
100
AcDbLine
 10
872.521977
 20
229.189593
 30
0.0
 11
871.637689
 21
230.073881
 31
0.0
  0
LINE
  5
22D
100
AcDbEntity
  8
0
 62
     0
100
AcDbLine
 10
897.416827
 20
239.826859
 30
0.0
 11
896.166827
 21
241.076859
 31
0.0
  0
LINE
  5
22E
100
AcDbEntity
  8
0
 62
     0
100
AcDbLine
 10
897.947157
 20
239.826859
 30
0.0
 11
896.697157
 21
241.076859
 31
0.0
  0
LINE
  5
22F
100
AcDbEntity
  8
0
 62
     0
100
AcDbLine
 10
898.477487
 20
239.826859
 30
0.0
 11
897.227487
 21
241.076859
 31
0.0
  0
LINE
  5
230
100
AcDbEntity
  8
0
 62
     0
100
AcDbLine
 10
899.007817
 20
239.826859
 30
0.0
 11
897.757817
 21
241.076859
 31
0.0
  0
LINE
  5
231
100
AcDbEntity
  8
0
 62
     0
100
AcDbLine
 10
899.538147
 20
239.826859
 30
0.0
 11
898.288147
 21
241.076859
 31
0.0
  0
LINE
  5
232
100
AcDbEntity
  8
0
 62
     0
100
AcDbLine
 10
900.068477
 20
239.826859
 30
0.0
 11
898.818477
 21
241.076859
 31
0.0
  0
LINE
  5
233
100
AcDbEntity
  8
0
 62
     0
100
AcDbLine
 10
900.598807
 20
239.826859
 30
0.0
 11
899.348807
 21
241.076859
 31
0.0
  0
LINE
  5
234
100
AcDbEntity
  8
0
 62
     0
100
AcDbLine
 10
901.129137
 20
239.826859
 30
0.0
 11
899.879137
 21
241.076859
 31
0.0
  0
LINE
  5
235
100
AcDbEntity
  8
0
 62
     0
100
AcDbLine
 10
901.659467
 20
239.826859
 30
0.0
 11
900.409467
 21
241.076859
 31
0.0
  0
LINE
  5
236
100
AcDbEntity
  8
0
 62
     0
100
AcDbLine
 10
902.189798
 20
239.826859
 30
0.0
 11
900.939798
 21
241.076859
 31
0.0
  0
LINE
  5
237
100
AcDbEntity
  8
0
 62
     0
100
AcDbLine
 10
902.720128
 20
239.826859
 30
0.0
 11
901.470128
 21
241.076859
 31
0.0
  0
LINE
  5
238
100
AcDbEntity
  8
0
 62
     0
100
AcDbLine
 10
903.250458
 20
239.826859
 30
0.0
 11
902.000458
 21
241.076859
 31
0.0
  0
LINE
  5
239
100
AcDbEntity
  8
0
 62
     0
100
AcDbLine
 10
903.780788
 20
239.826859
 30
0.0
 11
902.530788
 21
241.076859
 31
0.0
  0
LINE
  5
23A
100
AcDbEntity
  8
0
 62
     0
100
AcDbLine
 10
904.311118
 20
239.826859
 30
0.0
 11
903.061118
 21
241.076859
 31
0.0
  0
LINE
  5
23B
100
AcDbEntity
  8
0
 62
     0
100
AcDbLine
 10
904.841448
 20
239.826859
 30
0.0
 11
903.591448
 21
241.076859
 31
0.0
  0
LINE
  5
23C
100
AcDbEntity
  8
0
 62
     0
100
AcDbLine
 10
905.371778
 20
239.826859
 30
0.0
 11
904.121778
 21
241.076859
 31
0.0
  0
LINE
  5
23D
100
AcDbEntity
  8
0
 62
     0
100
AcDbLine
 10
905.902108
 20
239.826859
 30
0.0
 11
904.652108
 21
241.076859
 31
0.0
  0
LINE
  5
23E
100
AcDbEntity
  8
0
 62
     0
100
AcDbLine
 10
906.432438
 20
239.826859
 30
0.0
 11
905.182438
 21
241.076859
 31
0.0
  0
LINE
  5
23F
100
AcDbEntity
  8
0
 62
     0
100
AcDbLine
 10
906.962768
 20
239.826859
 30
0.0
 11
905.712768
 21
241.076859
 31
0.0
  0
LINE
  5
240
100
AcDbEntity
  8
0
 62
     0
100
AcDbLine
 10
907.493098
 20
239.826859
 30
0.0
 11
906.243098
 21
241.076859
 31
0.0
  0
LINE
  5
241
100
AcDbEntity
  8
0
 62
     0
100
AcDbLine
 10
908.023429
 20
239.826859
 30
0.0
 11
906.773429
 21
241.076859
 31
0.0
  0
LINE
  5
242
100
AcDbEntity
  8
0
 62
     0
100
AcDbLine
 10
908.553759
 20
239.826859
 30
0.0
 11
907.303759
 21
241.076859
 31
0.0
  0
LINE
  5
243
100
AcDbEntity
  8
0
 62
     0
100
AcDbLine
 10
909.084089
 20
239.826859
 30
0.0
 11
907.834089
 21
241.076859
 31
0.0
  0
LINE
  5
244
100
AcDbEntity
  8
0
 62
     0
100
AcDbLine
 10
909.614419
 20
239.826859
 30
0.0
 11
908.364419
 21
241.076859
 31
0.0
  0
LINE
  5
245
100
AcDbEntity
  8
0
 62
     0
100
AcDbLine
 10
910.144749
 20
239.826859
 30
0.0
 11
908.894749
 21
241.076859
 31
0.0
  0
LINE
  5
246
100
AcDbEntity
  8
0
 62
     0
100
AcDbLine
 10
910.675079
 20
239.826859
 30
0.0
 11
909.425079
 21
241.076859
 31
0.0
  0
LINE
  5
247
100
AcDbEntity
  8
0
 62
     0
100
AcDbLine
 10
911.205409
 20
239.826859
 30
0.0
 11
909.955409
 21
241.076859
 31
0.0
  0
LINE
  5
248
100
AcDbEntity
  8
0
 62
     0
100
AcDbLine
 10
911.735739
 20
239.826859
 30
0.0
 11
910.485739
 21
241.076859
 31
0.0
  0
LINE
  5
249
100
AcDbEntity
  8
0
 62
     0
100
AcDbLine
 10
912.266069
 20
239.826859
 30
0.0
 11
911.016069
 21
241.076859
 31
0.0
  0
LINE
  5
24A
100
AcDbEntity
  8
0
 62
     0
100
AcDbLine
 10
912.796399
 20
239.826859
 30
0.0
 11
911.546399
 21
241.076859
 31
0.0
  0
LINE
  5
24B
100
AcDbEntity
  8
0
 62
     0
100
AcDbLine
 10
913.326729
 20
239.826859
 30
0.0
 11
912.076729
 21
241.076859
 31
0.0
  0
LINE
  5
24C
100
AcDbEntity
  8
0
 62
     0
100
AcDbLine
 10
913.857059
 20
239.826859
 30
0.0
 11
912.607059
 21
241.076859
 31
0.0
  0
LINE
  5
24D
100
AcDbEntity
  8
0
 62
     0
100
AcDbLine
 10
914.38739
 20
239.826859
 30
0.0
 11
913.13739
 21
241.076859
 31
0.0
  0
LINE
  5
24E
100
AcDbEntity
  8
0
 62
     0
100
AcDbLine
 10
914.91772
 20
239.826859
 30
0.0
 11
913.66772
 21
241.076859
 31
0.0
  0
LINE
  5
24F
100
AcDbEntity
  8
0
 62
     0
100
AcDbLine
 10
915.44805
 20
239.826859
 30
0.0
 11
914.19805
 21
241.076859
 31
0.0
  0
LINE
  5
250
100
AcDbEntity
  8
0
 62
     0
100
AcDbLine
 10
915.97838
 20
239.826859
 30
0.0
 11
914.72838
 21
241.076859
 31
0.0
  0
LINE
  5
251
100
AcDbEntity
  8
0
 62
     0
100
AcDbLine
 10
916.50871
 20
239.826859
 30
0.0
 11
915.25871
 21
241.076859
 31
0.0
  0
LINE
  5
252
100
AcDbEntity
  8
0
 62
     0
100
AcDbLine
 10
917.03904
 20
239.826859
 30
0.0
 11
915.78904
 21
241.076859
 31
0.0
  0
LINE
  5
253
100
AcDbEntity
  8
0
 62
     0
100
AcDbLine
 10
917.56937
 20
239.826859
 30
0.0
 11
916.31937
 21
241.076859
 31
0.0
  0
LINE
  5
254
100
AcDbEntity
  8
0
 62
     0
100
AcDbLine
 10
918.0997
 20
239.826859
 30
0.0
 11
916.8497
 21
241.076859
 31
0.0
  0
LINE
  5
255
100
AcDbEntity
  8
0
 62
     0
100
AcDbLine
 10
918.63003
 20
239.826859
 30
0.0
 11
917.38003
 21
241.076859
 31
0.0
  0
LINE
  5
256
100
AcDbEntity
  8
0
 62
     0
100
AcDbLine
 10
919.16036
 20
239.826859
 30
0.0
 11
917.91036
 21
241.076859
 31
0.0
  0
LINE
  5
257
100
AcDbEntity
  8
0
 62
     0
100
AcDbLine
 10
919.69069
 20
239.826859
 30
0.0
 11
918.44069
 21
241.076859
 31
0.0
  0
LINE
  5
258
100
AcDbEntity
  8
0
 62
     0
100
AcDbLine
 10
930.867147
 20
229.180732
 30
0.0
 11
930.044893
 21
230.002986
 31
0.0
  0
LINE
  5
259
100
AcDbEntity
  8
0
 62
     0
100
AcDbLine
 10
920.22102
 20
239.826859
 30
0.0
 11
918.97102
 21
241.076859
 31
0.0
  0
LINE
  5
25A
100
AcDbEntity
  8
0
 62
     0
100
AcDbLine
 10
931.246897
 20
229.331312
 30
0.0
 11
930.195473
 21
230.382736
 31
0.0
  0
LINE
  5
25B
100
AcDbEntity
  8
0
 62
     0
100
AcDbLine
 10
920.751351
 20
239.826859
 30
0.0
 11
919.501351
 21
241.076859
 31
0.0
  0
LINE
  5
25C
100
AcDbEntity
  8
0
 62
     0
100
AcDbLine
 10
931.479398
 20
229.629142
 30
0.0
 11
930.294408
 21
230.814131
 31
0.0
  0
LINE
  5
25D
100
AcDbEntity
  8
0
 62
     0
100
AcDbLine
 10
921.281681
 20
239.826859
 30
0.0
 11
920.031681
 21
241.076859
 31
0.0
  0
LINE
  5
25E
100
AcDbEntity
  8
0
 62
     0
100
AcDbLine
 10
931.537689
 20
230.101181
 30
0.0
 11
930.294013
 21
231.344857
 31
0.0
  0
LINE
  5
25F
100
AcDbEntity
  8
0
 62
     0
100
AcDbLine
 10
921.812011
 20
239.826859
 30
0.0
 11
920.562011
 21
241.076859
 31
0.0
  0
LINE
  5
260
100
AcDbEntity
  8
0
 62
     0
100
AcDbLine
 10
931.537689
 20
230.631511
 30
0.0
 11
930.293617
 21
231.875583
 31
0.0
  0
LINE
  5
261
100
AcDbEntity
  8
0
 62
     0
100
AcDbLine
 10
922.342341
 20
239.826859
 30
0.0
 11
921.092341
 21
241.076859
 31
0.0
  0
LINE
  5
262
100
AcDbEntity
  8
0
 62
     0
100
AcDbLine
 10
931.537689
 20
231.161841
 30
0.0
 11
930.293221
 21
232.406308
 31
0.0
  0
LINE
  5
263
100
AcDbEntity
  8
0
 62
     0
100
AcDbLine
 10
922.872671
 20
239.826859
 30
0.0
 11
921.622671
 21
241.076859
 31
0.0
  0
LINE
  5
264
100
AcDbEntity
  8
0
 62
     0
100
AcDbLine
 10
931.537689
 20
231.692171
 30
0.0
 11
930.292826
 21
232.937034
 31
0.0
  0
LINE
  5
265
100
AcDbEntity
  8
0
 62
     0
100
AcDbLine
 10
923.403001
 20
239.826859
 30
0.0
 11
922.153001
 21
241.076859
 31
0.0
  0
LINE
  5
266
100
AcDbEntity
  8
0
 62
     0
100
AcDbLine
 10
931.537689
 20
232.222501
 30
0.0
 11
930.29243
 21
233.46776
 31
0.0
  0
LINE
  5
267
100
AcDbEntity
  8
0
 62
     0
100
AcDbLine
 10
923.933331
 20
239.826859
 30
0.0
 11
922.683331
 21
241.076859
 31
0.0
  0
LINE
  5
268
100
AcDbEntity
  8
0
 62
     0
100
AcDbLine
 10
931.537689
 20
232.752831
 30
0.0
 11
930.292034
 21
233.998486
 31
0.0
  0
LINE
  5
269
100
AcDbEntity
  8
0
 62
     0
100
AcDbLine
 10
924.463661
 20
239.826859
 30
0.0
 11
923.213661
 21
241.076859
 31
0.0
  0
LINE
  5
26A
100
AcDbEntity
  8
0
 62
     0
100
AcDbLine
 10
931.537689
 20
233.283161
 30
0.0
 11
930.291639
 21
234.529212
 31
0.0
  0
LINE
  5
26B
100
AcDbEntity
  8
0
 62
     0
100
AcDbLine
 10
924.993991
 20
239.826859
 30
0.0
 11
923.743991
 21
241.076859
 31
0.0
  0
LINE
  5
26C
100
AcDbEntity
  8
0
 62
     0
100
AcDbLine
 10
931.537689
 20
233.813491
 30
0.0
 11
930.291243
 21
235.059937
 31
0.0
  0
LINE
  5
26D
100
AcDbEntity
  8
0
 62
     0
100
AcDbLine
 10
925.524321
 20
239.826859
 30
0.0
 11
924.274321
 21
241.076859
 31
0.0
  0
LINE
  5
26E
100
AcDbEntity
  8
0
 62
     0
100
AcDbLine
 10
931.537689
 20
234.343821
 30
0.0
 11
930.290847
 21
235.590663
 31
0.0
  0
LINE
  5
26F
100
AcDbEntity
  8
0
 62
     0
100
AcDbLine
 10
926.054651
 20
239.826859
 30
0.0
 11
924.804651
 21
241.076859
 31
0.0
  0
LINE
  5
270
100
AcDbEntity
  8
0
 62
     0
100
AcDbLine
 10
931.537689
 20
234.874151
 30
0.0
 11
930.290451
 21
236.121389
 31
0.0
  0
LINE
  5
271
100
AcDbEntity
  8
0
 62
     0
100
AcDbLine
 10
926.584982
 20
239.826859
 30
0.0
 11
925.334982
 21
241.076859
 31
0.0
  0
LINE
  5
272
100
AcDbEntity
  8
0
 62
     0
100
AcDbLine
 10
931.537689
 20
235.404481
 30
0.0
 11
930.290056
 21
236.652115
 31
0.0
  0
LINE
  5
273
100
AcDbEntity
  8
0
 62
     0
100
AcDbLine
 10
927.115312
 20
239.826859
 30
0.0
 11
925.865312
 21
241.076859
 31
0.0
  0
LINE
  5
274
100
AcDbEntity
  8
0
 62
     0
100
AcDbLine
 10
931.537689
 20
235.934811
 30
0.0
 11
930.28966
 21
237.18284
 31
0.0
  0
LINE
  5
275
100
AcDbEntity
  8
0
 62
     0
100
AcDbLine
 10
927.645642
 20
239.826859
 30
0.0
 11
926.395642
 21
241.076859
 31
0.0
  0
LINE
  5
276
100
AcDbEntity
  8
0
 62
     0
100
AcDbLine
 10
931.537689
 20
236.465142
 30
0.0
 11
930.289264
 21
237.713566
 31
0.0
  0
LINE
  5
277
100
AcDbEntity
  8
0
 62
     0
100
AcDbLine
 10
928.175972
 20
239.826859
 30
0.0
 11
926.925972
 21
241.076859
 31
0.0
  0
LINE
  5
278
100
AcDbEntity
  8
0
 62
     0
100
AcDbLine
 10
931.537689
 20
236.995472
 30
0.0
 11
930.288869
 21
238.244292
 31
0.0
  0
LINE
  5
279
100
AcDbEntity
  8
0
 62
     0
100
AcDbLine
 10
928.706302
 20
239.826859
 30
0.0
 11
927.456302
 21
241.076859
 31
0.0
  0
LINE
  5
27A
100
AcDbEntity
  8
0
 62
     0
100
AcDbLine
 10
931.537689
 20
237.525802
 30
0.0
 11
930.288473
 21
238.775018
 31
0.0
  0
LINE
  5
27B
100
AcDbEntity
  8
0
 62
     0
100
AcDbLine
 10
929.236632
 20
239.826859
 30
0.0
 11
927.986632
 21
241.076859
 31
0.0
  0
LINE
  5
27C
100
AcDbEntity
  8
0
 62
     0
100
AcDbLine
 10
931.537689
 20
238.056132
 30
0.0
 11
930.288077
 21
239.305743
 31
0.0
  0
LINE
  5
27D
100
AcDbEntity
  8
0
 62
     0
100
AcDbLine
 10
929.766962
 20
239.826859
 30
0.0
 11
928.516962
 21
241.076859
 31
0.0
  0
LINE
  5
27E
100
AcDbEntity
  8
0
 62
     0
100
AcDbLine
 10
931.537689
 20
238.586462
 30
0.0
 11
929.047292
 21
241.076859
 31
0.0
  0
LINE
  5
27F
100
AcDbEntity
  8
0
 62
     0
100
AcDbLine
 10
931.537689
 20
239.116792
 30
0.0
 11
929.577622
 21
241.076859
 31
0.0
  0
LINE
  5
280
100
AcDbEntity
  8
0
 62
     0
100
AcDbLine
 10
931.537689
 20
239.647122
 30
0.0
 11
930.107952
 21
241.076859
 31
0.0
  0
LINE
  5
281
100
AcDbEntity
  8
0
 62
     0
100
AcDbLine
 10
931.532028
 20
240.183113
 30
0.0
 11
930.643943
 21
241.071198
 31
0.0
  0
ENDBLK
  5
283
100
AcDbEntity
  8
0
100
AcDbBlockEnd
  0
BLOCK
  5
100
100
AcDbEntity
  8
0
100
AcDbBlockBegin
  2
*X1
 70
     1
 10
0.0
 20
0.0
 30
0.0
  3
*X1
  1

  0
LINE
  5
E4
100
AcDbEntity
  8
0
 62
     0
100
AcDbLine
 10
21.940728
 20
23.531718
 30
0.0
 11
22.440728
 21
24.031718
 31
0.0
  0
LINE
  5
E5
100
AcDbEntity
  8
0
 62
     0
100
AcDbLine
 10
21.940728
 20
24.062048
 30
0.0
 11
22.440728
 21
24.562048
 31
0.0
  0
LINE
  5
E6
100
AcDbEntity
  8
0
 62
     0
100
AcDbLine
 10
24.082654
 20
26.203975
 30
0.0
 11
24.222328
 21
26.343648
 31
0.0
  0
LINE
  5
E7
100
AcDbEntity
  8
0
 62
     0
100
AcDbLine
 10
21.940728
 20
24.592379
 30
0.0
 11
22.440728
 21
25.092379
 31
0.0
  0
LINE
  5
E8
100
AcDbEntity
  8
0
 62
     0
100
AcDbLine
 10
23.552324
 20
26.203975
 30
0.0
 11
24.052324
 21
26.703975
 31
0.0
  0
LINE
  5
E9
100
AcDbEntity
  8
0
 62
     0
100
AcDbLine
 10
21.940728
 20
25.122709
 30
0.0
 11
22.440728
 21
25.622709
 31
0.0
  0
LINE
  5
EA
100
AcDbEntity
  8
0
 62
     0
100
AcDbLine
 10
23.021994
 20
26.203975
 30
0.0
 11
23.521994
 21
26.703975
 31
0.0
  0
LINE
  5
EB
100
AcDbEntity
  8
0
 62
     0
100
AcDbLine
 10
21.940728
 20
25.653039
 30
0.0
 11
22.440728
 21
26.153039
 31
0.0
  0
LINE
  5
EC
100
AcDbEntity
  8
0
 62
     0
100
AcDbLine
 10
22.491664
 20
26.203975
 30
0.0
 11
22.991664
 21
26.703975
 31
0.0
  0
LINE
  5
ED
100
AcDbEntity
  8
0
 62
     0
100
AcDbLine
 10
21.940728
 20
26.183369
 30
0.0
 11
22.461334
 21
26.703975
 31
0.0
  0
LINE
  5
EE
100
AcDbEntity
  8
0
 62
     0
100
AcDbLine
 10
22.193107
 20
23.253767
 30
0.0
 11
22.440728
 21
23.501388
 31
0.0
  0
LINE
  5
EF
100
AcDbEntity
  8
0
 62
     0
100
AcDbLine
 10
22.440728
 20
24.395184
 30
0.0
 11
22.008699
 21
24.395184
 31
0.0
  0
LINE
  5
F0
100
AcDbEntity
  8
0
 62
     0
100
AcDbLine
 10
22.440728
 20
23.334524
 30
0.0
 11
22.008699
 21
23.334524
 31
0.0
  0
LINE
  5
F1
100
AcDbEntity
  8
0
 62
     0
100
AcDbLine
 10
22.440728
 20
25.455844
 30
0.0
 11
22.008699
 21
25.455844
 31
0.0
  0
LINE
  5
F2
100
AcDbEntity
  8
0
 62
     0
100
AcDbLine
 10
24.222328
 20
26.516504
 30
0.0
 11
24.130019
 21
26.516504
 31
0.0
  0
LINE
  5
F3
100
AcDbEntity
  8
0
 62
     0
100
AcDbLine
 10
23.599689
 20
26.516504
 30
0.0
 11
23.069359
 21
26.516504
 31
0.0
  0
LINE
  5
F4
100
AcDbEntity
  8
0
 62
     0
100
AcDbLine
 10
22.539029
 20
26.516504
 30
0.0
 11
22.008699
 21
26.516504
 31
0.0
  0
LINE
  5
F5
100
AcDbEntity
  8
0
 62
     0
100
AcDbLine
 10
22.440728
 20
24.461475
 30
0.0
 11
22.07499
 21
24.461475
 31
0.0
  0
LINE
  5
F6
100
AcDbEntity
  8
0
 62
     0
100
AcDbLine
 10
22.440728
 20
23.400815
 30
0.0
 11
22.07499
 21
23.400815
 31
0.0
  0
LINE
  5
F7
100
AcDbEntity
  8
0
 62
     0
100
AcDbLine
 10
22.440728
 20
25.522135
 30
0.0
 11
22.07499
 21
25.522135
 31
0.0
  0
LINE
  5
F8
100
AcDbEntity
  8
0
 62
     0
100
AcDbLine
 10
24.222328
 20
26.582796
 30
0.0
 11
24.19631
 21
26.582796
 31
0.0
  0
LINE
  5
F9
100
AcDbEntity
  8
0
 62
     0
100
AcDbLine
 10
23.66598
 20
26.582796
 30
0.0
 11
23.13565
 21
26.582796
 31
0.0
  0
LINE
  5
FA
100
AcDbEntity
  8
0
 62
     0
100
AcDbLine
 10
22.60532
 20
26.582796
 30
0.0
 11
22.07499
 21
26.582796
 31
0.0
  0
LINE
  5
FB
100
AcDbEntity
  8
0
 62
     0
100
AcDbLine
 10
22.440728
 20
24.527766
 30
0.0
 11
22.141281
 21
24.527766
 31
0.0
  0
LINE
  5
FC
100
AcDbEntity
  8
0
 62
     0
100
AcDbLine
 10
22.440728
 20
23.467106
 30
0.0
 11
22.141281
 21
23.467106
 31
0.0
  0
LINE
  5
FD
100
AcDbEntity
  8
0
 62
     0
100
AcDbLine
 10
22.440728
 20
25.588427
 30
0.0
 11
22.141281
 21
25.588427
 31
0.0
  0
LINE
  5
FE
100
AcDbEntity
  8
0
 62
     0
100
AcDbLine
 10
23.732271
 20
26.649087
 30
0.0
 11
23.201941
 21
26.649087
 31
0.0
  0
LINE
  5
FF
100
AcDbEntity
  8
0
 62
     0
100
AcDbLine
 10
22.671611
 20
26.649087
 30
0.0
 11
22.141281
 21
26.649087
 31
0.0
  0
ENDBLK
  5
101
100
AcDbEntity
  8
0
100
AcDbBlockEnd
  0
BLOCK
  5
11E
100
AcDbEntity
  8
0
100
AcDbBlockBegin
  2
*X2
 70
     1
 10
0.0
 20
0.0
 30
0.0
  3
*X2
  1

  0
LINE
  5
104
100
AcDbEntity
  8
0
 62
     0
100
AcDbLine
 10
14.975541
 20
25.582142
 30
0.0
 11
15.475541
 21
26.082142
 31
0.0
  0
LINE
  5
105
100
AcDbEntity
  8
0
 62
     0
100
AcDbLine
 10
14.975541
 20
26.112472
 30
0.0
 11
15.475541
 21
26.612472
 31
0.0
  0
LINE
  5
106
100
AcDbEntity
  8
0
 62
     0
100
AcDbLine
 10
14.536713
 20
26.203975
 30
0.0
 11
15.036713
 21
26.703975
 31
0.0
  0
LINE
  5
107
100
AcDbEntity
  8
0
 62
     0
100
AcDbLine
 10
14.006383
 20
26.203975
 30
0.0
 11
14.506383
 21
26.703975
 31
0.0
  0
LINE
  5
108
100
AcDbEntity
  8
0
 62
     0
100
AcDbLine
 10
13.476053
 20
26.203975
 30
0.0
 11
13.976053
 21
26.703975
 31
0.0
  0
LINE
  5
109
100
AcDbEntity
  8
0
 62
     0
100
AcDbLine
 10
13.193941
 20
26.452193
 30
0.0
 11
13.445723
 21
26.703975
 31
0.0
  0
LINE
  5
10A
100
AcDbEntity
  8
0
 62
     0
100
AcDbLine
 10
14.975541
 20
25.051812
 30
0.0
 11
15.475541
 21
25.551812
 31
0.0
  0
LINE
  5
10B
100
AcDbEntity
  8
0
 62
     0
100
AcDbLine
 10
14.975541
 20
24.521482
 30
0.0
 11
15.475541
 21
25.021482
 31
0.0
  0
LINE
  5
10C
100
AcDbEntity
  8
0
 62
     0
100
AcDbLine
 10
14.975541
 20
23.991152
 30
0.0
 11
15.475541
 21
24.491152
 31
0.0
  0
LINE
  5
10D
100
AcDbEntity
  8
0
 62
     0
100
AcDbLine
 10
14.975541
 20
23.460822
 30
0.0
 11
15.475541
 21
23.960822
 31
0.0
  0
LINE
  5
10E
100
AcDbEntity
  8
0
 62
     0
100
AcDbLine
 10
15.298816
 20
23.253767
 30
0.0
 11
15.475541
 21
23.430492
 31
0.0
  0
LINE
  5
10F
100
AcDbEntity
  8
0
 62
     0
100
AcDbLine
 10
15.114408
 20
24.395184
 30
0.0
 11
14.975541
 21
24.395184
 31
0.0
  0
LINE
  5
110
100
AcDbEntity
  8
0
 62
     0
100
AcDbLine
 10
15.114408
 20
23.334524
 30
0.0
 11
14.975541
 21
23.334524
 31
0.0
  0
LINE
  5
111
100
AcDbEntity
  8
0
 62
     0
100
AcDbLine
 10
15.114408
 20
25.455844
 30
0.0
 11
14.975541
 21
25.455844
 31
0.0
  0
LINE
  5
112
100
AcDbEntity
  8
0
 62
     0
100
AcDbLine
 10
15.114408
 20
26.516504
 30
0.0
 11
14.584077
 21
26.516504
 31
0.0
  0
LINE
  5
113
100
AcDbEntity
  8
0
 62
     0
100
AcDbLine
 10
14.053747
 20
26.516504
 30
0.0
 11
13.523417
 21
26.516504
 31
0.0
  0
LINE
  5
114
100
AcDbEntity
  8
0
 62
     0
100
AcDbLine
 10
15.180699
 20
24.461475
 30
0.0
 11
14.975541
 21
24.461475
 31
0.0
  0
LINE
  5
115
100
AcDbEntity
  8
0
 62
     0
100
AcDbLine
 10
15.180699
 20
23.400815
 30
0.0
 11
14.975541
 21
23.400815
 31
0.0
  0
LINE
  5
116
100
AcDbEntity
  8
0
 62
     0
100
AcDbLine
 10
15.180699
 20
25.522135
 30
0.0
 11
14.975541
 21
25.522135
 31
0.0
  0
LINE
  5
117
100
AcDbEntity
  8
0
 62
     0
100
AcDbLine
 10
15.180699
 20
26.582796
 30
0.0
 11
14.650369
 21
26.582796
 31
0.0
  0
LINE
  5
118
100
AcDbEntity
  8
0
 62
     0
100
AcDbLine
 10
14.120039
 20
26.582796
 30
0.0
 11
13.589709
 21
26.582796
 31
0.0
  0
LINE
  5
119
100
AcDbEntity
  8
0
 62
     0
100
AcDbLine
 10
15.24699
 20
24.527766
 30
0.0
 11
14.975541
 21
24.527766
 31
0.0
  0
LINE
  5
11A
100
AcDbEntity
  8
0
 62
     0
100
AcDbLine
 10
15.24699
 20
23.467106
 30
0.0
 11
14.975541
 21
23.467106
 31
0.0
  0
LINE
  5
11B
100
AcDbEntity
  8
0
 62
     0
100
AcDbLine
 10
15.24699
 20
25.588427
 30
0.0
 11
14.975541
 21
25.588427
 31
0.0
  0
LINE
  5
11C
100
AcDbEntity
  8
0
 62
     0
100
AcDbLine
 10
15.24699
 20
26.649087
 30
0.0
 11
14.71666
 21
26.649087
 31
0.0
  0
LINE
  5
11D
100
AcDbEntity
  8
0
 62
     0
100
AcDbLine
 10
14.18633
 20
26.649087
 30
0.0
 11
13.656
 21
26.649087
 31
0.0
  0
ENDBLK
  5
11F
100
AcDbEntity
  8
0
100
AcDbBlockEnd
  0
BLOCK
  5
65D
100
AcDbEntity
  8
0
100
AcDbBlockBegin
  2
*X3
 70
     1
 10
0.0
 20
0.0
 30
0.0
  3
*X3
  1

  0
LINE
  5
5F5
100
AcDbEntity
  8
0
 62
     0
100
AcDbLine
 10
44.933989
 20
355.177089
 30
0.0
 11
47.918517
 21
358.161617
 31
0.0
  0
LINE
  5
5F6
100
AcDbEntity
  8
0
 62
     0
100
AcDbLine
 10
44.024451
 20
355.151435
 30
0.0
 11
47.034634
 21
358.161617
 31
0.0
  0
LINE
  5
5F7
100
AcDbEntity
  8
0
 62
     0
100
AcDbLine
 10
43.166222
 20
355.177089
 30
0.0
 11
46.15075
 21
358.161617
 31
0.0
  0
LINE
  5
5F8
100
AcDbEntity
  8
0
 62
     0
100
AcDbLine
 10
42.282338
 20
355.177089
 30
0.0
 11
45.266867
 21
358.161617
 31
0.0
  0
LINE
  5
5F9
100
AcDbEntity
  8
0
 62
     0
100
AcDbLine
 10
41.398455
 20
355.177089
 30
0.0
 11
44.382983
 21
358.161617
 31
0.0
  0
LINE
  5
5FA
100
AcDbEntity
  8
0
 62
     0
100
AcDbLine
 10
40.514571
 20
355.177089
 30
0.0
 11
43.4991
 21
358.161617
 31
0.0
  0
LINE
  5
5FB
100
AcDbEntity
  8
0
 62
     0
100
AcDbLine
 10
39.630688
 20
355.177089
 30
0.0
 11
42.615216
 21
358.161617
 31
0.0
  0
LINE
  5
5FC
100
AcDbEntity
  8
0
 62
     0
100
AcDbLine
 10
38.193821
 20
354.624105
 30
0.0
 11
41.731333
 21
358.161617
 31
0.0
  0
LINE
  5
5FD
100
AcDbEntity
  8
0
 62
     0
100
AcDbLine
 10
35.362921
 20
352.677089
 30
0.0
 11
40.847449
 21
358.161617
 31
0.0
  0
LINE
  5
5FE
100
AcDbEntity
  8
0
 62
     0
100
AcDbLine
 10
34.479038
 20
352.677089
 30
0.0
 11
39.963566
 21
358.161617
 31
0.0
  0
LINE
  5
5FF
100
AcDbEntity
  8
0
 62
     0
100
AcDbLine
 10
33.595154
 20
352.677089
 30
0.0
 11
39.079682
 21
358.161617
 31
0.0
  0
LINE
  5
600
100
AcDbEntity
  8
0
 62
     0
100
AcDbLine
 10
32.711271
 20
352.677089
 30
0.0
 11
38.195799
 21
358.161617
 31
0.0
  0
LINE
  5
601
100
AcDbEntity
  8
0
 62
     0
100
AcDbLine
 10
31.827387
 20
352.677089
 30
0.0
 11
37.311915
 21
358.161617
 31
0.0
  0
LINE
  5
602
100
AcDbEntity
  8
0
 62
     0
100
AcDbLine
 10
30.943504
 20
352.677089
 30
0.0
 11
36.428032
 21
358.161617
 31
0.0
  0
LINE
  5
603
100
AcDbEntity
  8
0
 62
     0
100
AcDbLine
 10
30.05962
 20
352.677089
 30
0.0
 11
35.544148
 21
358.161617
 31
0.0
  0
LINE
  5
604
100
AcDbEntity
  8
0
 62
     0
100
AcDbLine
 10
29.175737
 20
352.677089
 30
0.0
 11
34.660265
 21
358.161617
 31
0.0
  0
LINE
  5
605
100
AcDbEntity
  8
0
 62
     0
100
AcDbLine
 10
28.291853
 20
352.677089
 30
0.0
 11
33.776381
 21
358.161617
 31
0.0
  0
LINE
  5
606
100
AcDbEntity
  8
0
 62
     0
100
AcDbLine
 10
27.566863
 20
352.835983
 30
0.0
 11
32.892498
 21
358.161617
 31
0.0
  0
LINE
  5
607
100
AcDbEntity
  8
0
 62
     0
100
AcDbLine
 10
27.160076
 20
353.313079
 30
0.0
 11
27.924086
 21
354.077089
 31
0.0
  0
LINE
  5
608
100
AcDbEntity
  8
0
 62
     0
100
AcDbLine
 10
28.464355
 20
354.617358
 30
0.0
 11
32.008614
 21
358.161617
 31
0.0
  0
LINE
  5
609
100
AcDbEntity
  8
0
 62
     0
100
AcDbLine
 10
28.464355
 20
355.501241
 30
0.0
 11
31.124731
 21
358.161617
 31
0.0
  0
LINE
  5
60A
100
AcDbEntity
  8
0
 62
     0
100
AcDbLine
 10
28.464355
 20
356.385125
 30
0.0
 11
30.464355
 21
358.385125
 31
0.0
  0
LINE
  5
60B
100
AcDbEntity
  8
0
 62
     0
100
AcDbLine
 10
28.464355
 20
357.269008
 30
0.0
 11
30.464355
 21
359.269008
 31
0.0
  0
LINE
  5
60C
100
AcDbEntity
  8
0
 62
     0
100
AcDbLine
 10
28.464355
 20
358.152892
 30
0.0
 11
30.464355
 21
360.152892
 31
0.0
  0
LINE
  5
60D
100
AcDbEntity
  8
0
 62
     0
100
AcDbLine
 10
28.464355
 20
359.036775
 30
0.0
 11
30.464355
 21
361.036775
 31
0.0
  0
LINE
  5
60E
100
AcDbEntity
  8
0
 62
     0
100
AcDbLine
 10
28.464355
 20
359.920659
 30
0.0
 11
30.464355
 21
361.920659
 31
0.0
  0
LINE
  5
60F
100
AcDbEntity
  8
0
 62
     0
100
AcDbLine
 10
20.336902
 20
352.677089
 30
0.0
 11
21.619833
 21
353.960021
 31
0.0
  0
LINE
  5
610
100
AcDbEntity
  8
0
 62
     0
100
AcDbLine
 10
28.464355
 20
360.804542
 30
0.0
 11
30.37686
 21
362.717047
 31
0.0
  0
LINE
  5
611
100
AcDbEntity
  8
0
 62
     0
100
AcDbLine
 10
19.546631
 20
352.770701
 30
0.0
 11
20.853018
 21
354.077089
 31
0.0
  0
LINE
  5
612
100
AcDbEntity
  8
0
 62
     0
100
AcDbLine
 10
28.155036
 20
361.379107
 30
0.0
 11
29.955173
 21
363.179243
 31
0.0
  0
LINE
  5
613
100
AcDbEntity
  8
0
 62
     0
100
AcDbLine
 10
19.400953
 20
353.508907
 30
0.0
 11
20.273311
 21
354.381265
 31
0.0
  0
LINE
  5
614
100
AcDbEntity
  8
0
 62
     0
100
AcDbLine
 10
27.305723
 20
361.413677
 30
0.0
 11
29.200027
 21
363.307981
 31
0.0
  0
LINE
  5
615
100
AcDbEntity
  8
0
 62
     0
100
AcDbLine
 10
19.00787
 20
353.999707
 30
0.0
 11
20.266793
 21
355.25863
 31
0.0
  0
LINE
  5
616
100
AcDbEntity
  8
0
 62
     0
100
AcDbLine
 10
26.448898
 20
361.440735
 30
0.0
 11
28.316143
 21
363.307981
 31
0.0
  0
LINE
  5
617
100
AcDbEntity
  8
0
 62
     0
100
AcDbLine
 10
18.964355
 20
354.840076
 30
0.0
 11
20.272642
 21
356.148363
 31
0.0
  0
LINE
  5
618
100
AcDbEntity
  8
0
 62
     0
100
AcDbLine
 10
25.592072
 20
361.467793
 30
0.0
 11
27.43226
 21
363.307981
 31
0.0
  0
LINE
  5
619
100
AcDbEntity
  8
0
 62
     0
100
AcDbLine
 10
18.964355
 20
355.72396
 30
0.0
 11
20.278492
 21
357.038096
 31
0.0
  0
LINE
  5
61A
100
AcDbEntity
  8
0
 62
     0
100
AcDbLine
 10
24.735246
 20
361.49485
 30
0.0
 11
26.548376
 21
363.307981
 31
0.0
  0
LINE
  5
61B
100
AcDbEntity
  8
0
 62
     0
100
AcDbLine
 10
18.964355
 20
356.607843
 30
0.0
 11
20.284341
 21
357.927829
 31
0.0
  0
LINE
  5
61C
100
AcDbEntity
  8
0
 62
     0
100
AcDbLine
 10
23.87842
 20
361.521908
 30
0.0
 11
25.664493
 21
363.307981
 31
0.0
  0
LINE
  5
61D
100
AcDbEntity
  8
0
 62
     0
100
AcDbLine
 10
18.964355
 20
357.491727
 30
0.0
 11
20.290191
 21
358.817562
 31
0.0
  0
LINE
  5
61E
100
AcDbEntity
  8
0
 62
     0
100
AcDbLine
 10
23.021594
 20
361.548966
 30
0.0
 11
24.780609
 21
363.307981
 31
0.0
  0
LINE
  5
61F
100
AcDbEntity
  8
0
 62
     0
100
AcDbLine
 10
18.964355
 20
358.37561
 30
0.0
 11
20.29604
 21
359.707295
 31
0.0
  0
LINE
  5
620
100
AcDbEntity
  8
0
 62
     0
100
AcDbLine
 10
22.164768
 20
361.576023
 30
0.0
 11
23.896726
 21
363.307981
 31
0.0
  0
LINE
  5
621
100
AcDbEntity
  8
0
 62
     0
100
AcDbLine
 10
18.964355
 20
359.259494
 30
0.0
 11
20.30189
 21
360.597028
 31
0.0
  0
LINE
  5
622
100
AcDbEntity
  8
0
 62
     0
100
AcDbLine
 10
21.307943
 20
361.603081
 30
0.0
 11
23.012842
 21
363.307981
 31
0.0
  0
LINE
  5
623
100
AcDbEntity
  8
0
 62
     0
100
AcDbLine
 10
18.964355
 20
360.143377
 30
0.0
 11
22.128959
 21
363.307981
 31
0.0
  0
LINE
  5
624
100
AcDbEntity
  8
0
 62
     0
100
AcDbLine
 10
19.264976
 20
361.327882
 30
0.0
 11
21.245076
 21
363.307981
 31
0.0
  0
LINE
  5
625
100
AcDbEntity
  8
0
 62
     0
100
AcDbLine
 10
19.554257
 20
362.501046
 30
0.0
 11
20.358428
 21
363.305217
 31
0.0
  0
LINE
  5
626
100
AcDbEntity
  8
0
 62
     0
100
AcDbLine
 10
45.817872
 20
355.177089
 30
0.0
 11
48.8024
 21
358.161617
 31
0.0
  0
LINE
  5
627
100
AcDbEntity
  8
0
 62
     0
100
AcDbLine
 10
46.701756
 20
355.177089
 30
0.0
 11
49.686284
 21
358.161617
 31
0.0
  0
LINE
  5
628
100
AcDbEntity
  8
0
 62
     0
100
AcDbLine
 10
47.585639
 20
355.177089
 30
0.0
 11
50.570167
 21
358.161617
 31
0.0
  0
LINE
  5
629
100
AcDbEntity
  8
0
 62
     0
100
AcDbLine
 10
48.469523
 20
355.177089
 30
0.0
 11
51.454051
 21
358.161617
 31
0.0
  0
LINE
  5
62A
100
AcDbEntity
  8
0
 62
     0
100
AcDbLine
 10
49.353406
 20
355.177089
 30
0.0
 11
52.337934
 21
358.161617
 31
0.0
  0
LINE
  5
62B
100
AcDbEntity
  8
0
 62
     0
100
AcDbLine
 10
50.23729
 20
355.177089
 30
0.0
 11
53.221818
 21
358.161617
 31
0.0
  0
LINE
  5
62C
100
AcDbEntity
  8
0
 62
     0
100
AcDbLine
 10
51.095519
 20
355.151435
 30
0.0
 11
54.105701
 21
358.161617
 31
0.0
  0
LINE
  5
62D
100
AcDbEntity
  8
0
 62
     0
100
AcDbLine
 10
52.005057
 20
355.177089
 30
0.0
 11
54.989585
 21
358.161617
 31
0.0
  0
LINE
  5
62E
100
AcDbEntity
  8
0
 62
     0
100
AcDbLine
 10
52.88894
 20
355.177089
 30
0.0
 11
55.873468
 21
358.161617
 31
0.0
  0
LINE
  5
62F
100
AcDbEntity
  8
0
 62
     0
100
AcDbLine
 10
53.772824
 20
355.177089
 30
0.0
 11
56.757352
 21
358.161617
 31
0.0
  0
LINE
  5
630
100
AcDbEntity
  8
0
 62
     0
100
AcDbLine
 10
54.656707
 20
355.177089
 30
0.0
 11
57.641235
 21
358.161617
 31
0.0
  0
LINE
  5
631
100
AcDbEntity
  8
0
 62
     0
100
AcDbLine
 10
55.540591
 20
355.177089
 30
0.0
 11
58.525119
 21
358.161617
 31
0.0
  0
LINE
  5
632
100
AcDbEntity
  8
0
 62
     0
100
AcDbLine
 10
56.389469
 20
355.142084
 30
0.0
 11
59.409002
 21
358.161617
 31
0.0
  0
LINE
  5
633
100
AcDbEntity
  8
0
 62
     0
100
AcDbLine
 10
56.896038
 20
354.76477
 30
0.0
 11
60.292886
 21
358.161617
 31
0.0
  0
LINE
  5
634
100
AcDbEntity
  8
0
 62
     0
100
AcDbLine
 10
64.811368
 20
362.680099
 30
0.0
 11
65.461345
 21
363.330076
 31
0.0
  0
LINE
  5
635
100
AcDbEntity
  8
0
 62
     0
100
AcDbLine
 10
57.402608
 20
354.387456
 30
0.0
 11
61.176769
 21
358.161617
 31
0.0
  0
LINE
  5
636
100
AcDbEntity
  8
0
 62
     0
100
AcDbLine
 10
64.764355
 20
361.749203
 30
0.0
 11
66.392241
 21
363.377089
 31
0.0
  0
LINE
  5
637
100
AcDbEntity
  8
0
 62
     0
100
AcDbLine
 10
57.909177
 20
354.010142
 30
0.0
 11
62.060653
 21
358.161617
 31
0.0
  0
LINE
  5
638
100
AcDbEntity
  8
0
 62
     0
100
AcDbLine
 10
64.764355
 20
360.86532
 30
0.0
 11
67.276124
 21
363.377089
 31
0.0
  0
LINE
  5
639
100
AcDbEntity
  8
0
 62
     0
100
AcDbLine
 10
58.415746
 20
353.632827
 30
0.0
 11
62.944536
 21
358.161617
 31
0.0
  0
LINE
  5
63A
100
AcDbEntity
  8
0
 62
     0
100
AcDbLine
 10
64.764355
 20
359.981436
 30
0.0
 11
68.160008
 21
363.377089
 31
0.0
  0
LINE
  5
63B
100
AcDbEntity
  8
0
 62
     0
100
AcDbLine
 10
58.922316
 20
353.255513
 30
0.0
 11
63.82842
 21
358.161617
 31
0.0
  0
LINE
  5
63C
100
AcDbEntity
  8
0
 62
     0
100
AcDbLine
 10
67.034742
 20
361.36794
 30
0.0
 11
69.043891
 21
363.377089
 31
0.0
  0
LINE
  5
63D
100
AcDbEntity
  8
0
 62
     0
100
AcDbLine
 10
64.764355
 20
359.097553
 30
0.0
 11
66.785937
 21
361.119135
 31
0.0
  0
LINE
  5
63E
100
AcDbEntity
  8
0
 62
     0
100
AcDbLine
 10
59.428885
 20
352.878199
 30
0.0
 11
64.712303
 21
358.161617
 31
0.0
  0
LINE
  5
63F
100
AcDbEntity
  8
0
 62
     0
100
AcDbLine
 10
67.965712
 20
361.415027
 30
0.0
 11
69.927775
 21
363.377089
 31
0.0
  0
LINE
  5
640
100
AcDbEntity
  8
0
 62
     0
100
AcDbLine
 10
64.764355
 20
358.213669
 30
0.0
 11
66.764355
 21
360.213669
 31
0.0
  0
LINE
  5
641
100
AcDbEntity
  8
0
 62
     0
100
AcDbLine
 10
60.111658
 20
352.677089
 30
0.0
 11
66.764355
 21
359.329786
 31
0.0
  0
LINE
  5
642
100
AcDbEntity
  8
0
 62
     0
100
AcDbLine
 10
68.878418
 20
361.443849
 30
0.0
 11
70.811658
 21
363.377089
 31
0.0
  0
LINE
  5
643
100
AcDbEntity
  8
0
 62
     0
100
AcDbLine
 10
60.995542
 20
352.677089
 30
0.0
 11
66.764355
 21
358.445902
 31
0.0
  0
LINE
  5
644
100
AcDbEntity
  8
0
 62
     0
100
AcDbLine
 10
69.791124
 20
361.472671
 30
0.0
 11
71.695542
 21
363.377089
 31
0.0
  0
LINE
  5
645
100
AcDbEntity
  8
0
 62
     0
100
AcDbLine
 10
61.879425
 20
352.677089
 30
0.0
 11
66.764355
 21
357.562019
 31
0.0
  0
LINE
  5
646
100
AcDbEntity
  8
0
 62
     0
100
AcDbLine
 10
70.70383
 20
361.501494
 30
0.0
 11
72.579425
 21
363.377089
 31
0.0
  0
LINE
  5
647
100
AcDbEntity
  8
0
 62
     0
100
AcDbLine
 10
62.763309
 20
352.677089
 30
0.0
 11
66.764355
 21
356.678135
 31
0.0
  0
LINE
  5
648
100
AcDbEntity
  8
0
 62
     0
100
AcDbLine
 10
71.616536
 20
361.530316
 30
0.0
 11
73.463309
 21
363.377089
 31
0.0
  0
LINE
  5
649
100
AcDbEntity
  8
0
 62
     0
100
AcDbLine
 10
63.647192
 20
352.677089
 30
0.0
 11
66.764355
 21
355.794252
 31
0.0
  0
LINE
  5
64A
100
AcDbEntity
  8
0
 62
     0
100
AcDbLine
 10
72.529241
 20
361.559138
 30
0.0
 11
74.347192
 21
363.377089
 31
0.0
  0
LINE
  5
64B
100
AcDbEntity
  8
0
 62
     0
100
AcDbLine
 10
64.531076
 20
352.677089
 30
0.0
 11
66.764355
 21
354.910368
 31
0.0
  0
LINE
  5
64C
100
AcDbEntity
  8
0
 62
     0
100
AcDbLine
 10
73.441947
 20
361.58796
 30
0.0
 11
75.161772
 21
363.307786
 31
0.0
  0
LINE
  5
64D
100
AcDbEntity
  8
0
 62
     0
100
AcDbLine
 10
65.414959
 20
352.677089
 30
0.0
 11
66.907948
 21
354.170078
 31
0.0
  0
LINE
  5
64E
100
AcDbEntity
  8
0
 62
     0
100
AcDbLine
 10
74.354653
 20
361.616783
 30
0.0
 11
75.601971
 21
362.864101
 31
0.0
  0
LINE
  5
64F
100
AcDbEntity
  8
0
 62
     0
100
AcDbLine
 10
66.298843
 20
352.677089
 30
0.0
 11
67.698843
 21
354.077089
 31
0.0
  0
LINE
  5
650
100
AcDbEntity
  8
0
 62
     0
100
AcDbLine
 10
74.916089
 20
361.294335
 30
0.0
 11
75.776809
 21
362.155055
 31
0.0
  0
LINE
  5
651
100
AcDbEntity
  8
0
 62
     0
100
AcDbLine
 10
67.183299
 20
352.677662
 30
0.0
 11
68.233805
 21
353.728168
 31
0.0
  0
LINE
  5
652
100
AcDbEntity
  8
0
 62
     0
100
AcDbLine
 10
74.927969
 20
360.422332
 30
0.0
 11
75.951647
 21
361.44601
 31
0.0
  0
LINE
  5
653
100
AcDbEntity
  8
0
 62
     0
100
AcDbLine
 10
74.933742
 20
359.544222
 30
0.0
 11
76.126484
 21
360.736964
 31
0.0
  0
LINE
  5
654
100
AcDbEntity
  8
0
 62
     0
100
AcDbLine
 10
74.939515
 20
358.666111
 30
0.0
 11
76.264355
 21
359.990951
 31
0.0
  0
LINE
  5
655
100
AcDbEntity
  8
0
 62
     0
100
AcDbLine
 10
74.945289
 20
357.788001
 30
0.0
 11
76.264355
 21
359.107068
 31
0.0
  0
LINE
  5
656
100
AcDbEntity
  8
0
 62
     0
100
AcDbLine
 10
74.951062
 20
356.909891
 30
0.0
 11
76.264355
 21
358.223184
 31
0.0
  0
LINE
  5
657
100
AcDbEntity
  8
0
 62
     0
100
AcDbLine
 10
74.956835
 20
356.03178
 30
0.0
 11
76.264355
 21
357.339301
 31
0.0
  0
LINE
  5
658
100
AcDbEntity
  8
0
 62
     0
100
AcDbLine
 10
73.491671
 20
353.682733
 30
0.0
 11
73.885987
 21
354.077049
 31
0.0
  0
LINE
  5
659
100
AcDbEntity
  8
0
 62
     0
100
AcDbLine
 10
74.962608
 20
355.15367
 30
0.0
 11
76.264355
 21
356.455417
 31
0.0
  0
LINE
  5
65A
100
AcDbEntity
  8
0
 62
     0
100
AcDbLine
 10
73.80417
 20
353.111348
 30
0.0
 11
76.264355
 21
355.571534
 31
0.0
  0
LINE
  5
65B
100
AcDbEntity
  8
0
 62
     0
100
AcDbLine
 10
74.298225
 20
352.72152
 30
0.0
 11
76.264355
 21
354.68765
 31
0.0
  0
LINE
  5
65C
100
AcDbEntity
  8
0
 62
     0
100
AcDbLine
 10
75.137677
 20
352.677089
 30
0.0
 11
75.774874
 21
353.314285
 31
0.0
  0
ENDBLK
  5
65E
100
AcDbEntity
  8
0
100
AcDbBlockEnd
  0
BLOCK
  5
1DC
100
AcDbEntity
  8
0
100
AcDbBlockBegin
  2
SKRUV
 70
     0
 10
0.0
 20
0.0
 30
0.0
  3
SKRUV
  1

  0
LWPOLYLINE
  5
144
100
AcDbEntity
  8
16
100
AcDbPolyline
 90
       27
 70
     0
 43
0.0
 10
-2.98436
 20
-14.452071
 10
-2.053408
 20
-14.725526
 10
-2.053408
 20
-16.534643
 10
-2.98436
 20
-17.011188
 10
-2.053408
 20
-17.284643
 10
-0.448899
 20
-16.815884
 10
2.212478
 20
-16.221452
 10
3.14343
 20
-15.947998
 10
2.212478
 20
-15.471452
 10
2.212478
 20
-13.662336
 10
3.14343
 20
-13.388881
 10
-0.690279
 20
-13.920676
 10
-2.98436
 20
-14.452071
 10
-2.053408
 20
-13.975526
 10
-2.053408
 20
-12.346372
 10
-2.98436
 20
-12.072917
 10
-0.690279
 20
-11.541522
 10
3.14343
 20
-11.009727
 10
2.212478
 20
-10.533181
 10
-0.448899
 20
-11.127613
 10
-2.053408
 20
-11.596372
 10
-2.053408
 20
-9.967218
 10
-2.98436
 20
-9.693763
 10
-0.690279
 20
-9.162368
 10
3.14343
 20
-8.630573
 10
2.212478
 20
-8.904027
 10
2.212478
 20
-10.533181
  0
LWPOLYLINE
  5
161
100
AcDbEntity
  8
16
100
AcDbPolyline
 90
        2
 70
     0
 43
0.0
 10
2.025264
 20
-22.279038
 10
2.411521
 20
-21.106204
  0
LWPOLYLINE
  5
165
100
AcDbEntity
  8
16
100
AcDbPolyline
 90
        3
 70
     0
 43
0.0
 10
-2.090515
 20
-22.178106
 10
-0.96267
 20
-22.937412
 10
1.988157
 20
-22.234231
  0
LWPOLYLINE
  5
16A
100
AcDbEntity
  8
16
100
AcDbPolyline
 90
       14
 70
     0
 43
0.0
 10
-2.053408
 20
-21.472914
 10
-2.053408
 20
-19.843759
 10
-0.448899
 20
-19.375
 10
2.212478
 20
-18.780569
 10
2.212478
 20
-20.409723
 10
-0.448899
 20
-21.004155
 10
-2.053408
 20
-21.472914
 10
-2.98436
 20
-21.949459
 10
-2.053408
 20
-22.222914
 10
-0.448899
 20
-21.754155
 10
2.212478
 20
-21.159723
 10
3.14343
 20
-20.886269
 10
-0.690279
 20
-21.418063
 10
-2.98436
 20
-21.949459
  0
LWPOLYLINE
  5
17A
100
AcDbEntity
  8
16
100
AcDbPolyline
 90
        5
 70
     0
 43
0.0
 10
2.212478
 20
-16.221452
 10
2.212478
 20
-18.030569
 10
-0.448899
 20
-18.625
 10
-2.053408
 20
-19.093759
 10
-2.053408
 20
-17.284643
  0
LWPOLYLINE
  5
181
100
AcDbEntity
  8
16
100
AcDbPolyline
 90
        3
 70
     0
 43
0.0
 10
2.212478
 20
-15.471452
 10
-0.448899
 20
-16.065884
 10
-2.053408
 20
-16.534643
  0
LINE
  5
186
100
AcDbEntity
  8
16
100
AcDbLine
 10
3.14343
 20
-20.886269
 30
0.0
 11
2.212478
 21
-20.409723
 31
0.0
  0
LINE
  5
187
100
AcDbEntity
  8
16
100
AcDbLine
 10
-2.98436
 20
-19.570305
 30
0.0
 11
-2.053408
 21
-19.843759
 31
0.0
  0
LINE
  5
188
100
AcDbEntity
  8
16
100
AcDbLine
 10
-2.98436
 20
-19.570305
 30
0.0
 11
-0.690279
 21
-19.038909
 31
0.0
  0
LINE
  5
189
100
AcDbEntity
  8
16
100
AcDbLine
 10
-2.98436
 20
-19.570305
 30
0.0
 11
-2.053408
 21
-19.093759
 31
0.0
  0
LINE
  5
18A
100
AcDbEntity
  8
16
100
AcDbLine
 10
3.14343
 20
-18.507114
 30
0.0
 11
-0.690279
 21
-19.038909
 31
0.0
  0
LINE
  5
18B
100
AcDbEntity
  8
16
100
AcDbLine
 10
3.14343
 20
-18.507114
 30
0.0
 11
2.212478
 21
-18.780569
 31
0.0
  0
LINE
  5
18C
100
AcDbEntity
  8
16
100
AcDbLine
 10
3.14343
 20
-18.507114
 30
0.0
 11
2.212478
 21
-18.030569
 31
0.0
  0
LINE
  5
18D
100
AcDbEntity
  8
16
100
AcDbLine
 10
-2.98436
 20
-17.011188
 30
0.0
 11
-0.690279
 21
-16.479792
 31
0.0
  0
LINE
  5
18E
100
AcDbEntity
  8
16
100
AcDbLine
 10
3.14343
 20
-15.947998
 30
0.0
 11
-0.690279
 21
-16.479792
 31
0.0
  0
ARC
  5
18F
100
AcDbEntity
  8
16
100
AcDbCircle
 10
-0.07176
 20
-2.941075
 30
0.0
 40
6.555737
100
AcDbArc
 50
45.516388
 51
82.00151
  0
LINE
  5
190
100
AcDbEntity
  8
16
100
AcDbLine
 10
4.521879
 20
-0.015435
 30
0.0
 11
-4.533912
 21
-0.015435
 31
0.0
  0
LWPOLYLINE
  5
191
100
AcDbEntity
  8
16
100
AcDbPolyline
 90
        5
 70
     0
 43
0.0
 10
-2.98436
 20
-7.314609
 10
-2.053408
 20
-6.838064
 10
-2.053408
 20
-5.20891
 10
-2.98436
 20
-4.935455
 10
-2.053408
 20
-4.45891
  0
LWPOLYLINE
  5
198
100
AcDbEntity
  8
16
100
AcDbPolyline
 90
        5
 70
     0
 43
0.0
 10
-2.053408
 20
-2.829755
 10
-2.053408
 20
-4.45891
 10
-0.448899
 20
-3.990151
 10
2.212478
 20
-3.395719
 10
2.212478
 20
-1.766565
  0
LWPOLYLINE
  5
19F
100
AcDbEntity
  8
16
100
AcDbPolyline
 90
        4
 70
     0
 43
0.0
 10
-2.053408
 20
-7.588064
 10
-2.053408
 20
-9.217218
 10
-0.448899
 20
-8.748459
 10
2.212478
 20
-8.154027
  0
LWPOLYLINE
  5
1A5
100
AcDbEntity
  8
16
100
AcDbPolyline
 90
        9
 70
     0
 43
0.0
 10
3.14343
 20
-8.630573
 10
2.212478
 20
-8.154027
 10
2.212478
 20
-6.524873
 10
-0.448899
 20
-7.119305
 10
-2.053408
 20
-7.588064
 10
-2.98436
 20
-7.314609
 10
-0.690279
 20
-6.783213
 10
3.14343
 20
-6.251419
 10
2.212478
 20
-6.524873
  0
LWPOLYLINE
  5
1B0
100
AcDbEntity
  8
16
100
AcDbPolyline
 90
        9
 70
     0
 43
0.0
 10
2.212478
 20
-0.015435
 10
2.212478
 20
-1.016565
 10
3.14343
 20
-1.49311
 10
2.212478
 20
-1.766565
 10
-0.448899
 20
-2.360996
 10
-2.053408
 20
-2.829755
 10
-2.98436
 20
-2.556301
 10
-2.053408
 20
-2.079755
 10
-2.053408
 20
-0.015435
  0
LINE
  5
1BB
100
AcDbEntity
  8
16
100
AcDbLine
 10
-2.98436
 20
-12.072917
 30
0.0
 11
-2.053408
 21
-11.596372
 31
0.0
  0
LINE
  5
1BC
100
AcDbEntity
  8
16
100
AcDbLine
 10
-2.053408
 20
-12.346372
 30
0.0
 11
-0.448899
 21
-11.877613
 31
0.0
  0
LINE
  5
1BD
100
AcDbEntity
  8
16
100
AcDbLine
 10
-2.053408
 20
-13.975526
 30
0.0
 11
-0.448899
 21
-13.506767
 31
0.0
  0
LINE
  5
1BE
100
AcDbEntity
  8
16
100
AcDbLine
 10
-2.053408
 20
-14.725526
 30
0.0
 11
-0.448899
 21
-14.256767
 31
0.0
  0
LINE
  5
1BF
100
AcDbEntity
  8
16
100
AcDbLine
 10
3.14343
 20
-13.388881
 30
0.0
 11
2.212478
 21
-12.912336
 31
0.0
  0
LINE
  5
1C0
100
AcDbEntity
  8
16
100
AcDbLine
 10
3.14343
 20
-11.009727
 30
0.0
 11
2.212478
 21
-11.283181
 31
0.0
  0
LINE
  5
1C1
100
AcDbEntity
  8
16
100
AcDbLine
 10
2.212478
 20
-12.912336
 30
0.0
 11
2.212478
 21
-11.283181
 31
0.0
  0
LINE
  5
1C2
100
AcDbEntity
  8
16
100
AcDbLine
 10
2.212478
 20
-13.662336
 30
0.0
 11
-0.448899
 21
-14.256767
 31
0.0
  0
LINE
  5
1C3
100
AcDbEntity
  8
16
100
AcDbLine
 10
2.212478
 20
-12.912336
 30
0.0
 11
-0.448899
 21
-13.506767
 31
0.0
  0
LINE
  5
1C4
100
AcDbEntity
  8
16
100
AcDbLine
 10
2.212478
 20
-11.283181
 30
0.0
 11
-0.448899
 21
-11.877613
 31
0.0
  0
LINE
  5
1C5
100
AcDbEntity
  8
16
100
AcDbLine
 10
2.212478
 20
-1.016565
 30
0.0
 11
-0.448899
 21
-1.610996
 31
0.0
  0
LINE
  5
1C6
100
AcDbEntity
  8
16
100
AcDbLine
 10
0.821667
 20
1.833429
 30
0.0
 11
0.840451
 21
3.550886
 31
0.0
  0
LINE
  5
1C7
100
AcDbEntity
  8
16
100
AcDbLine
 10
2.212478
 20
-5.774873
 30
0.0
 11
-0.448899
 21
-6.369305
 31
0.0
  0
LINE
  5
1C8
100
AcDbEntity
  8
16
100
AcDbLine
 10
2.212478
 20
-5.774873
 30
0.0
 11
2.212478
 21
-4.145719
 31
0.0
  0
LINE
  5
1C9
100
AcDbEntity
  8
16
100
AcDbLine
 10
2.212478
 20
-4.145719
 30
0.0
 11
-0.448899
 21
-4.740151
 31
0.0
  0
LINE
  5
1CA
100
AcDbEntity
  8
16
100
AcDbLine
 10
2.212478
 20
-8.904027
 30
0.0
 11
-0.448899
 21
-9.498459
 31
0.0
  0
LINE
  5
1CB
100
AcDbEntity
  8
16
100
AcDbLine
 10
3.14343
 20
-3.872265
 30
0.0
 11
2.212478
 21
-3.395719
 31
0.0
  0
LINE
  5
1CC
100
AcDbEntity
  8
16
100
AcDbLine
 10
3.14343
 20
-6.251419
 30
0.0
 11
2.212478
 21
-5.774873
 31
0.0
  0
LINE
  5
1CD
100
AcDbEntity
  8
16
100
AcDbLine
 10
3.14343
 20
-3.872265
 30
0.0
 11
2.212478
 21
-4.145719
 31
0.0
  0
LINE
  5
1CE
100
AcDbEntity
  8
16
100
AcDbLine
 10
-2.98436
 20
-2.556301
 30
0.0
 11
-0.690279
 21
-2.024905
 31
0.0
  0
LINE
  5
1CF
100
AcDbEntity
  8
16
100
AcDbLine
 10
-1.046902
 20
3.493256
 30
0.0
 11
-1.028441
 21
1.833429
 31
0.0
  0
LINE
  5
1D0
100
AcDbEntity
  8
16
100
AcDbLine
 10
-4.533912
 20
-0.015435
 30
0.0
 11
-4.533912
 21
1.736121
 31
0.0
  0
ARC
  5
1D1
100
AcDbEntity
  8
16
100
AcDbCircle
 10
-0.006016
 20
-2.850514
 30
0.0
 40
6.44508
100
AcDbArc
 50
99.318058
 51
134.630751
  0
LINE
  5
1D2
100
AcDbEntity
  8
16
100
AcDbLine
 10
-2.98436
 20
-4.935455
 30
0.0
 11
-0.690279
 21
-4.404059
 31
0.0
  0
LINE
  5
1D3
100
AcDbEntity
  8
16
100
AcDbLine
 10
-2.98436
 20
-9.693763
 30
0.0
 11
-2.053408
 21
-9.217218
 31
0.0
  0
LINE
  5
1D4
100
AcDbEntity
  8
16
100
AcDbLine
 10
-2.053408
 20
-5.20891
 30
0.0
 11
-0.448899
 21
-4.740151
 31
0.0
  0
LINE
  5
1D5
100
AcDbEntity
  8
16
100
AcDbLine
 10
-2.053408
 20
-6.838064
 30
0.0
 11
-0.448899
 21
-6.369305
 31
0.0
  0
LINE
  5
1D6
100
AcDbEntity
  8
16
100
AcDbLine
 10
-2.053408
 20
-2.079755
 30
0.0
 11
-0.448899
 21
-1.610996
 31
0.0
  0
LINE
  5
1D7
100
AcDbEntity
  8
16
100
AcDbLine
 10
-2.053408
 20
-9.967218
 30
0.0
 11
-0.448899
 21
-9.498459
 31
0.0
  0
LINE
  5
1D8
100
AcDbEntity
  8
16
100
AcDbLine
 10
3.14343
 20
-1.49311
 30
0.0
 11
-0.690279
 21
-2.024905
 31
0.0
  0
LINE
  5
1D9
100
AcDbEntity
  8
16
100
AcDbLine
 10
3.14343
 20
-3.872265
 30
0.0
 11
-0.690279
 21
-4.404059
 31
0.0
  0
LINE
  5
1DA
100
AcDbEntity
  8
16
100
AcDbLine
 10
-1.028441
 20
1.833429
 30
0.0
 11
0.821667
 21
1.833429
 31
0.0
  0
LINE
  5
1DB
100
AcDbEntity
  8
16
100
AcDbLine
 10
4.521879
 20
-0.015435
 30
0.0
 11
4.521879
 21
1.736121
 31
0.0
  0
ENDBLK
  5
1DD
100
AcDbEntity
  8
0
100
AcDbBlockEnd
  0
BLOCK
  5
1DE
100
AcDbEntity
  8
0
100
AcDbBlockBegin
  2
SP60000_SKRUV
 70
     0
 10
0.0
 20
0.0
 30
0.0
  3
SP60000_SKRUV
  1

  0
INSERT
  5
142
100
AcDbEntity
  8
GLASFOGNINGAR
100
AcDbBlockReference
  2
SKRUV
 10
30.571798
 20
43.195546
 30
0.0
  0
ENDBLK
  5
1DF
100
AcDbEntity
  8
0
100
AcDbBlockEnd
  0
BLOCK
  5
595
100
AcDbEntity
  8
0
100
AcDbBlockBegin
  2
*X6
 70
     1
 10
0.0
 20
0.0
 30
0.0
  3
*X6
  1

  0
LINE
  5
58B
100
AcDbEntity
  8
0
 62
     0
100
AcDbLine
 10
585.684458
 20
97.380693
 30
0.0
 11
583.684458
 21
99.380693
 31
0.0
  0
LINE
  5
58C
100
AcDbEntity
  8
0
 62
     0
100
AcDbLine
 10
585.684458
 20
95.966479
 30
0.0
 11
583.684458
 21
97.966479
 31
0.0
  0
LINE
  5
58D
100
AcDbEntity
  8
0
 62
     0
100
AcDbLine
 10
585.684458
 20
94.552266
 30
0.0
 11
583.684458
 21
96.552266
 31
0.0
  0
LINE
  5
58E
100
AcDbEntity
  8
0
 62
     0
100
AcDbLine
 10
585.684458
 20
93.138052
 30
0.0
 11
583.684458
 21
95.138052
 31
0.0
  0
LINE
  5
58F
100
AcDbEntity
  8
0
 62
     0
100
AcDbLine
 10
585.363126
 20
92.04517
 30
0.0
 11
583.684458
 21
93.723838
 31
0.0
  0
LINE
  5
590
100
AcDbEntity
  8
0
 62
     0
100
AcDbLine
 10
585.684458
 20
98.794906
 30
0.0
 11
583.684458
 21
100.794906
 31
0.0
  0
LINE
  5
591
100
AcDbEntity
  8
0
 62
     0
100
AcDbLine
 10
585.684458
 20
100.20912
 30
0.0
 11
583.684458
 21
102.20912
 31
0.0
  0
LINE
  5
592
100
AcDbEntity
  8
0
 62
     0
100
AcDbLine
 10
585.684458
 20
101.623333
 30
0.0
 11
583.684458
 21
103.623333
 31
0.0
  0
LINE
  5
593
100
AcDbEntity
  8
0
 62
     0
100
AcDbLine
 10
585.684458
 20
103.037547
 30
0.0
 11
583.684458
 21
105.037547
 31
0.0
  0
LINE
  5
594
100
AcDbEntity
  8
0
 62
     0
100
AcDbLine
 10
585.684458
 20
104.451761
 30
0.0
 11
584.817371
 21
105.318847
 31
0.0
  0
ENDBLK
  5
596
100
AcDbEntity
  8
0
100
AcDbBlockEnd
  0
BLOCK
  5
59F
100
AcDbEntity
  8
0
100
AcDbBlockBegin
  2
NIT
 70
     0
 10
0.0
 20
0.0
 30
0.0
  3
NIT
  1

  0
INSERT
  5
589
100
AcDbEntity
  8
HATCH
100
AcDbBlockReference
  2
*X6
 10
-573.488167
 20
-111.320198
 30
0.0
1001
ACAD
1000
HATCH
1002
{
1070
    16
1000
ANSI31
1040
8.0
1040
1.570796
1002
}
  0
LWPOLYLINE
  5
597
100
AcDbEntity
  8
16
100
AcDbPolyline
 90
        6
 70
     1
 43
0.0
 10
10.196291
 20
-18.779636
 10
10.196291
 20
-6.001351
 10
12.196291
 20
-6.001351
 10
12.196291
 20
-18.779636
 10
11.86822
 20
-19.285417
 10
10.496231
 20
-19.285417
  0
ENDBLK
  5
5A0
100
AcDbEntity
  8
0
100
AcDbBlockEnd
  0
BLOCK
  5
434
100
AcDbEntity
  8
0
100
AcDbBlockBegin
  2
*X8
 70
     1
 10
0.0
 20
0.0
 30
0.0
  3
*X8
  1

  0
LINE
  5
33F
100
AcDbEntity
  8
0
 62
     0
100
AcDbLine
 10
1094.116343
 20
325.137718
 30
0.0
 11
1097.116343
 21
328.137718
 31
0.0
  0
LINE
  5
340
100
AcDbEntity
  8
0
 62
     0
100
AcDbLine
 10
1092.790518
 20
325.137718
 30
0.0
 11
1095.790518
 21
328.137718
 31
0.0
  0
LINE
  5
341
100
AcDbEntity
  8
0
 62
     0
100
AcDbLine
 10
1091.464692
 20
325.137718
 30
0.0
 11
1094.464692
 21
328.137718
 31
0.0
  0
LINE
  5
342
100
AcDbEntity
  8
0
 62
     0
100
AcDbLine
 10
1090.138867
 20
325.137718
 30
0.0
 11
1093.138867
 21
328.137718
 31
0.0
  0
LINE
  5
343
100
AcDbEntity
  8
0
 62
     0
100
AcDbLine
 10
1088.813042
 20
325.137718
 30
0.0
 11
1091.813042
 21
328.137718
 31
0.0
  0
LINE
  5
344
100
AcDbEntity
  8
0
 62
     0
100
AcDbLine
 10
1087.487217
 20
325.137718
 30
0.0
 11
1090.487217
 21
328.137718
 31
0.0
  0
LINE
  5
345
100
AcDbEntity
  8
0
 62
     0
100
AcDbLine
 10
1086.161392
 20
325.137718
 30
0.0
 11
1089.693056
 21
328.669383
 31
0.0
  0
LINE
  5
346
100
AcDbEntity
  8
0
 62
     0
100
AcDbLine
 10
1084.835566
 20
325.137718
 30
0.0
 11
1089.693056
 21
329.995208
 31
0.0
  0
LINE
  5
347
100
AcDbEntity
  8
0
 62
     0
100
AcDbLine
 10
1083.509741
 20
325.137718
 30
0.0
 11
1089.693056
 21
331.321034
 31
0.0
  0
LINE
  5
348
100
AcDbEntity
  8
0
 62
     0
100
AcDbLine
 10
1082.183916
 20
325.137718
 30
0.0
 11
1089.183916
 21
332.137718
 31
0.0
  0
LINE
  5
349
100
AcDbEntity
  8
0
 62
     0
100
AcDbLine
 10
1080.858091
 20
325.137718
 30
0.0
 11
1088.890821
 21
333.170448
 31
0.0
  0
LINE
  5
34A
100
AcDbEntity
  8
0
 62
     0
100
AcDbLine
 10
1079.532266
 20
325.137718
 30
0.0
 11
1088.235826
 21
333.841279
 31
0.0
  0
LINE
  5
34B
100
AcDbEntity
  8
0
 62
     0
100
AcDbLine
 10
1078.20644
 20
325.137718
 30
0.0
 11
1085.20644
 21
332.137718
 31
0.0
  0
LINE
  5
34C
100
AcDbEntity
  8
0
 62
     0
100
AcDbLine
 10
1075.692417
 20
323.94952
 30
0.0
 11
1084.623449
 21
332.880552
 31
0.0
  0
LINE
  5
34D
100
AcDbEntity
  8
0
 62
     0
100
AcDbLine
 10
1075.193056
 20
324.775985
 30
0.0
 11
1084.425722
 21
334.00865
 31
0.0
  0
LINE
  5
34E
100
AcDbEntity
  8
0
 62
     0
100
AcDbLine
 10
1075.193056
 20
326.10181
 30
0.0
 11
1081.288786
 21
332.197539
 31
0.0
  0
LINE
  5
34F
100
AcDbEntity
  8
0
 62
     0
100
AcDbLine
 10
1075.193056
 20
327.427635
 30
0.0
 11
1080.59268
 21
332.827259
 31
0.0
  0
LINE
  5
350
100
AcDbEntity
  8
0
 62
     0
100
AcDbLine
 10
1075.193056
 20
328.753461
 30
0.0
 11
1080.479015
 21
334.039419
 31
0.0
  0
LINE
  5
351
100
AcDbEntity
  8
0
 62
     0
100
AcDbLine
 10
1075.193056
 20
330.079286
 30
0.0
 11
1077.342079
 21
332.228308
 31
0.0
  0
LINE
  5
352
100
AcDbEntity
  8
0
 62
     0
100
AcDbLine
 10
1075.193056
 20
331.405111
 30
0.0
 11
1076.306848
 21
332.518902
 31
0.0
  0
LINE
  5
353
100
AcDbEntity
  8
0
 62
     0
100
AcDbLine
 10
1075.193056
 20
332.730936
 30
0.0
 11
1075.595836
 21
333.133716
 31
0.0
  0
LINE
  5
354
100
AcDbEntity
  8
0
 62
     0
100
AcDbLine
 10
1095.442168
 20
325.137718
 30
0.0
 11
1098.442168
 21
328.137718
 31
0.0
  0
LINE
  5
355
100
AcDbEntity
  8
0
 62
     0
100
AcDbLine
 10
1096.735733
 20
325.105458
 30
0.0
 11
1099.407488
 21
327.777213
 31
0.0
  0
LINE
  5
356
100
AcDbEntity
  8
0
 62
     0
100
AcDbLine
 10
1097.727119
 20
324.771019
 30
0.0
 11
1100.083417
 21
327.127316
 31
0.0
  0
LINE
  5
357
100
AcDbEntity
  8
0
 62
     0
100
AcDbLine
 10
1098.511646
 20
324.229721
 30
0.0
 11
1100.54148
 21
326.259555
 31
0.0
  0
LINE
  5
358
100
AcDbEntity
  8
0
 62
     0
100
AcDbLine
 10
1099.119838
 20
323.512088
 30
0.0
 11
1100.692905
 21
325.085154
 31
0.0
  0
LINE
  5
359
100
AcDbEntity
  8
0
 62
     0
100
AcDbLine
 10
1099.538831
 20
322.605255
 30
0.0
 11
1100.692905
 21
323.759329
 31
0.0
  0
LINE
  5
35A
100
AcDbEntity
  8
0
 62
     0
100
AcDbLine
 10
1099.690482
 20
321.431081
 30
0.0
 11
1100.692905
 21
322.433504
 31
0.0
  0
LINE
  5
35B
100
AcDbEntity
  8
0
 62
     0
100
AcDbLine
 10
1099.33356
 20
319.748334
 30
0.0
 11
1100.667713
 21
321.082487
 31
0.0
  0
LINE
  5
35C
100
AcDbEntity
  8
0
 62
     0
100
AcDbLine
 10
1098.84821
 20
317.937159
 30
0.0
 11
1100.261996
 21
319.350945
 31
0.0
  0
LINE
  5
35D
100
AcDbEntity
  8
0
 62
     0
100
AcDbLine
 10
1098.364955
 20
316.128078
 30
0.0
 11
1099.775782
 21
317.538905
 31
0.0
  0
LINE
  5
35E
100
AcDbEntity
  8
0
 62
     0
100
AcDbLine
 10
1098.517323
 20
314.954621
 30
0.0
 11
1099.322132
 21
315.75943
 31
0.0
  0
LINE
  5
35F
100
AcDbEntity
  8
0
 62
     0
100
AcDbLine
 10
1099.107182
 20
314.218655
 30
0.0
 11
1100.059992
 21
315.171465
 31
0.0
  0
LINE
  5
360
100
AcDbEntity
  8
0
 62
     0
100
AcDbLine
 10
1099.764976
 20
313.550624
 30
0.0
 11
1101.385817
 21
315.171465
 31
0.0
  0
LINE
  5
361
100
AcDbEntity
  8
0
 62
     0
100
AcDbLine
 10
1100.42277
 20
312.882592
 30
0.0
 11
1102.496779
 21
314.956601
 31
0.0
  0
LINE
  5
362
100
AcDbEntity
  8
0
 62
     0
100
AcDbLine
 10
1101.080564
 20
312.214561
 30
0.0
 11
1103.037468
 21
314.171465
 31
0.0
  0
LINE
  5
363
100
AcDbEntity
  8
0
 62
     0
100
AcDbLine
 10
1101.738357
 20
311.546529
 30
0.0
 11
1104.363293
 21
314.171465
 31
0.0
  0
LINE
  5
364
100
AcDbEntity
  8
0
 62
     0
100
AcDbLine
 10
1102.396151
 20
310.878498
 30
0.0
 11
1104.9542
 21
313.436547
 31
0.0
  0
LINE
  5
365
100
AcDbEntity
  8
0
 62
     0
100
AcDbLine
 10
1103.053945
 20
310.210467
 30
0.0
 11
1104.9542
 21
312.110721
 31
0.0
  0
LINE
  5
366
100
AcDbEntity
  8
0
 62
     0
100
AcDbLine
 10
1103.723825
 20
309.554522
 30
0.0
 11
1104.9542
 21
310.784896
 31
0.0
  0
LINE
  5
367
100
AcDbEntity
  8
0
 62
     0
100
AcDbLine
 10
1104.650044
 20
309.154915
 30
0.0
 11
1104.9542
 21
309.459071
 31
0.0
  0
LINE
  5
368
100
AcDbEntity
  8
0
 62
     0
100
AcDbLine
 10
1093.805802
 20
325.49009
 30
0.0
 11
1093.805802
 21
325.49009
 31
0.0
  0
LINE
  5
369
100
AcDbEntity
  8
0
 62
     0
100
AcDbLine
 10
1094.468715
 20
326.153003
 30
0.0
 11
1094.468715
 21
326.153003
 31
0.0
  0
LINE
  5
36A
100
AcDbEntity
  8
0
 62
     0
100
AcDbLine
 10
1095.131627
 20
326.815915
 30
0.0
 11
1095.131627
 21
326.815915
 31
0.0
  0
LINE
  5
36B
100
AcDbEntity
  8
0
 62
     0
100
AcDbLine
 10
1095.79454
 20
327.478828
 30
0.0
 11
1095.79454
 21
327.478828
 31
0.0
  0
LINE
  5
36C
100
AcDbEntity
  8
0
 62
     0
100
AcDbLine
 10
1092.479977
 20
325.49009
 30
0.0
 11
1092.479977
 21
325.49009
 31
0.0
  0
LINE
  5
36D
100
AcDbEntity
  8
0
 62
     0
100
AcDbLine
 10
1093.14289
 20
326.153003
 30
0.0
 11
1093.14289
 21
326.153003
 31
0.0
  0
LINE
  5
36E
100
AcDbEntity
  8
0
 62
     0
100
AcDbLine
 10
1093.805802
 20
326.815915
 30
0.0
 11
1093.805802
 21
326.815915
 31
0.0
  0
LINE
  5
36F
100
AcDbEntity
  8
0
 62
     0
100
AcDbLine
 10
1094.468715
 20
327.478828
 30
0.0
 11
1094.468715
 21
327.478828
 31
0.0
  0
LINE
  5
370
100
AcDbEntity
  8
0
 62
     0
100
AcDbLine
 10
1091.154152
 20
325.49009
 30
0.0
 11
1091.154152
 21
325.49009
 31
0.0
  0
LINE
  5
371
100
AcDbEntity
  8
0
 62
     0
100
AcDbLine
 10
1091.817064
 20
326.153003
 30
0.0
 11
1091.817064
 21
326.153003
 31
0.0
  0
LINE
  5
372
100
AcDbEntity
  8
0
 62
     0
100
AcDbLine
 10
1092.479977
 20
326.815915
 30
0.0
 11
1092.479977
 21
326.815915
 31
0.0
  0
LINE
  5
373
100
AcDbEntity
  8
0
 62
     0
100
AcDbLine
 10
1093.14289
 20
327.478828
 30
0.0
 11
1093.14289
 21
327.478828
 31
0.0
  0
LINE
  5
374
100
AcDbEntity
  8
0
 62
     0
100
AcDbLine
 10
1089.828327
 20
325.49009
 30
0.0
 11
1089.828327
 21
325.49009
 31
0.0
  0
LINE
  5
375
100
AcDbEntity
  8
0
 62
     0
100
AcDbLine
 10
1090.491239
 20
326.153003
 30
0.0
 11
1090.491239
 21
326.153003
 31
0.0
  0
LINE
  5
376
100
AcDbEntity
  8
0
 62
     0
100
AcDbLine
 10
1091.154152
 20
326.815915
 30
0.0
 11
1091.154152
 21
326.815915
 31
0.0
  0
LINE
  5
377
100
AcDbEntity
  8
0
 62
     0
100
AcDbLine
 10
1091.817064
 20
327.478828
 30
0.0
 11
1091.817064
 21
327.478828
 31
0.0
  0
LINE
  5
378
100
AcDbEntity
  8
0
 62
     0
100
AcDbLine
 10
1088.502501
 20
325.49009
 30
0.0
 11
1088.502501
 21
325.49009
 31
0.0
  0
LINE
  5
379
100
AcDbEntity
  8
0
 62
     0
100
AcDbLine
 10
1089.165414
 20
326.153003
 30
0.0
 11
1089.165414
 21
326.153003
 31
0.0
  0
LINE
  5
37A
100
AcDbEntity
  8
0
 62
     0
100
AcDbLine
 10
1089.828327
 20
326.815915
 30
0.0
 11
1089.828327
 21
326.815915
 31
0.0
  0
LINE
  5
37B
100
AcDbEntity
  8
0
 62
     0
100
AcDbLine
 10
1090.491239
 20
327.478828
 30
0.0
 11
1090.491239
 21
327.478828
 31
0.0
  0
LINE
  5
37C
100
AcDbEntity
  8
0
 62
     0
100
AcDbLine
 10
1087.176676
 20
325.49009
 30
0.0
 11
1087.176676
 21
325.49009
 31
0.0
  0
LINE
  5
37D
100
AcDbEntity
  8
0
 62
     0
100
AcDbLine
 10
1087.839589
 20
326.153003
 30
0.0
 11
1087.839589
 21
326.153003
 31
0.0
  0
LINE
  5
37E
100
AcDbEntity
  8
0
 62
     0
100
AcDbLine
 10
1088.502501
 20
326.815915
 30
0.0
 11
1088.502501
 21
326.815915
 31
0.0
  0
LINE
  5
37F
100
AcDbEntity
  8
0
 62
     0
100
AcDbLine
 10
1089.165414
 20
327.478828
 30
0.0
 11
1089.165414
 21
327.478828
 31
0.0
  0
LINE
  5
380
100
AcDbEntity
  8
0
 62
     0
100
AcDbLine
 10
1089.828327
 20
328.141741
 30
0.0
 11
1089.828327
 21
328.141741
 31
0.0
  0
LINE
  5
381
100
AcDbEntity
  8
0
 62
     0
100
AcDbLine
 10
1085.850851
 20
325.49009
 30
0.0
 11
1085.850851
 21
325.49009
 31
0.0
  0
LINE
  5
382
100
AcDbEntity
  8
0
 62
     0
100
AcDbLine
 10
1086.513763
 20
326.153003
 30
0.0
 11
1086.513763
 21
326.153003
 31
0.0
  0
LINE
  5
383
100
AcDbEntity
  8
0
 62
     0
100
AcDbLine
 10
1087.176676
 20
326.815915
 30
0.0
 11
1087.176676
 21
326.815915
 31
0.0
  0
LINE
  5
384
100
AcDbEntity
  8
0
 62
     0
100
AcDbLine
 10
1087.839589
 20
327.478828
 30
0.0
 11
1087.839589
 21
327.478828
 31
0.0
  0
LINE
  5
385
100
AcDbEntity
  8
0
 62
     0
100
AcDbLine
 10
1088.502501
 20
328.141741
 30
0.0
 11
1088.502501
 21
328.141741
 31
0.0
  0
LINE
  5
386
100
AcDbEntity
  8
0
 62
     0
100
AcDbLine
 10
1089.165414
 20
328.804653
 30
0.0
 11
1089.165414
 21
328.804653
 31
0.0
  0
LINE
  5
387
100
AcDbEntity
  8
0
 62
     0
100
AcDbLine
 10
1084.525026
 20
325.49009
 30
0.0
 11
1084.525026
 21
325.49009
 31
0.0
  0
LINE
  5
388
100
AcDbEntity
  8
0
 62
     0
100
AcDbLine
 10
1085.187938
 20
326.153003
 30
0.0
 11
1085.187938
 21
326.153003
 31
0.0
  0
LINE
  5
389
100
AcDbEntity
  8
0
 62
     0
100
AcDbLine
 10
1085.850851
 20
326.815915
 30
0.0
 11
1085.850851
 21
326.815915
 31
0.0
  0
LINE
  5
38A
100
AcDbEntity
  8
0
 62
     0
100
AcDbLine
 10
1086.513763
 20
327.478828
 30
0.0
 11
1086.513763
 21
327.478828
 31
0.0
  0
LINE
  5
38B
100
AcDbEntity
  8
0
 62
     0
100
AcDbLine
 10
1087.176676
 20
328.141741
 30
0.0
 11
1087.176676
 21
328.141741
 31
0.0
  0
LINE
  5
38C
100
AcDbEntity
  8
0
 62
     0
100
AcDbLine
 10
1087.839589
 20
328.804653
 30
0.0
 11
1087.839589
 21
328.804653
 31
0.0
  0
LINE
  5
38D
100
AcDbEntity
  8
0
 62
     0
100
AcDbLine
 10
1088.502501
 20
329.467566
 30
0.0
 11
1088.502501
 21
329.467566
 31
0.0
  0
LINE
  5
38E
100
AcDbEntity
  8
0
 62
     0
100
AcDbLine
 10
1089.165414
 20
330.130478
 30
0.0
 11
1089.165414
 21
330.130478
 31
0.0
  0
LINE
  5
38F
100
AcDbEntity
  8
0
 62
     0
100
AcDbLine
 10
1083.1992
 20
325.49009
 30
0.0
 11
1083.1992
 21
325.49009
 31
0.0
  0
LINE
  5
390
100
AcDbEntity
  8
0
 62
     0
100
AcDbLine
 10
1083.862113
 20
326.153003
 30
0.0
 11
1083.862113
 21
326.153003
 31
0.0
  0
LINE
  5
391
100
AcDbEntity
  8
0
 62
     0
100
AcDbLine
 10
1084.525026
 20
326.815915
 30
0.0
 11
1084.525026
 21
326.815915
 31
0.0
  0
LINE
  5
392
100
AcDbEntity
  8
0
 62
     0
100
AcDbLine
 10
1085.187938
 20
327.478828
 30
0.0
 11
1085.187938
 21
327.478828
 31
0.0
  0
LINE
  5
393
100
AcDbEntity
  8
0
 62
     0
100
AcDbLine
 10
1085.850851
 20
328.141741
 30
0.0
 11
1085.850851
 21
328.141741
 31
0.0
  0
LINE
  5
394
100
AcDbEntity
  8
0
 62
     0
100
AcDbLine
 10
1086.513763
 20
328.804653
 30
0.0
 11
1086.513763
 21
328.804653
 31
0.0
  0
LINE
  5
395
100
AcDbEntity
  8
0
 62
     0
100
AcDbLine
 10
1087.176676
 20
329.467566
 30
0.0
 11
1087.176676
 21
329.467566
 31
0.0
  0
LINE
  5
396
100
AcDbEntity
  8
0
 62
     0
100
AcDbLine
 10
1087.839589
 20
330.130478
 30
0.0
 11
1087.839589
 21
330.130478
 31
0.0
  0
LINE
  5
397
100
AcDbEntity
  8
0
 62
     0
100
AcDbLine
 10
1088.502501
 20
330.793391
 30
0.0
 11
1088.502501
 21
330.793391
 31
0.0
  0
LINE
  5
398
100
AcDbEntity
  8
0
 62
     0
100
AcDbLine
 10
1089.165414
 20
331.456304
 30
0.0
 11
1089.165414
 21
331.456304
 31
0.0
  0
LINE
  5
399
100
AcDbEntity
  8
0
 62
     0
100
AcDbLine
 10
1081.873375
 20
325.49009
 30
0.0
 11
1081.873375
 21
325.49009
 31
0.0
  0
LINE
  5
39A
100
AcDbEntity
  8
0
 62
     0
100
AcDbLine
 10
1082.536288
 20
326.153003
 30
0.0
 11
1082.536288
 21
326.153003
 31
0.0
  0
LINE
  5
39B
100
AcDbEntity
  8
0
 62
     0
100
AcDbLine
 10
1083.1992
 20
326.815915
 30
0.0
 11
1083.1992
 21
326.815915
 31
0.0
  0
LINE
  5
39C
100
AcDbEntity
  8
0
 62
     0
100
AcDbLine
 10
1083.862113
 20
327.478828
 30
0.0
 11
1083.862113
 21
327.478828
 31
0.0
  0
LINE
  5
39D
100
AcDbEntity
  8
0
 62
     0
100
AcDbLine
 10
1084.525026
 20
328.141741
 30
0.0
 11
1084.525026
 21
328.141741
 31
0.0
  0
LINE
  5
39E
100
AcDbEntity
  8
0
 62
     0
100
AcDbLine
 10
1085.187938
 20
328.804653
 30
0.0
 11
1085.187938
 21
328.804653
 31
0.0
  0
LINE
  5
39F
100
AcDbEntity
  8
0
 62
     0
100
AcDbLine
 10
1085.850851
 20
329.467566
 30
0.0
 11
1085.850851
 21
329.467566
 31
0.0
  0
LINE
  5
3A0
100
AcDbEntity
  8
0
 62
     0
100
AcDbLine
 10
1086.513763
 20
330.130478
 30
0.0
 11
1086.513763
 21
330.130478
 31
0.0
  0
LINE
  5
3A1
100
AcDbEntity
  8
0
 62
     0
100
AcDbLine
 10
1087.176676
 20
330.793391
 30
0.0
 11
1087.176676
 21
330.793391
 31
0.0
  0
LINE
  5
3A2
100
AcDbEntity
  8
0
 62
     0
100
AcDbLine
 10
1087.839589
 20
331.456304
 30
0.0
 11
1087.839589
 21
331.456304
 31
0.0
  0
LINE
  5
3A3
100
AcDbEntity
  8
0
 62
     0
100
AcDbLine
 10
1088.502501
 20
332.119216
 30
0.0
 11
1088.502501
 21
332.119216
 31
0.0
  0
LINE
  5
3A4
100
AcDbEntity
  8
0
 62
     0
100
AcDbLine
 10
1080.54755
 20
325.49009
 30
0.0
 11
1080.54755
 21
325.49009
 31
0.0
  0
LINE
  5
3A5
100
AcDbEntity
  8
0
 62
     0
100
AcDbLine
 10
1081.210463
 20
326.153003
 30
0.0
 11
1081.210463
 21
326.153003
 31
0.0
  0
LINE
  5
3A6
100
AcDbEntity
  8
0
 62
     0
100
AcDbLine
 10
1081.873375
 20
326.815915
 30
0.0
 11
1081.873375
 21
326.815915
 31
0.0
  0
LINE
  5
3A7
100
AcDbEntity
  8
0
 62
     0
100
AcDbLine
 10
1082.536288
 20
327.478828
 30
0.0
 11
1082.536288
 21
327.478828
 31
0.0
  0
LINE
  5
3A8
100
AcDbEntity
  8
0
 62
     0
100
AcDbLine
 10
1083.1992
 20
328.141741
 30
0.0
 11
1083.1992
 21
328.141741
 31
0.0
  0
LINE
  5
3A9
100
AcDbEntity
  8
0
 62
     0
100
AcDbLine
 10
1083.862113
 20
328.804653
 30
0.0
 11
1083.862113
 21
328.804653
 31
0.0
  0
LINE
  5
3AA
100
AcDbEntity
  8
0
 62
     0
100
AcDbLine
 10
1084.525026
 20
329.467566
 30
0.0
 11
1084.525026
 21
329.467566
 31
0.0
  0
LINE
  5
3AB
100
AcDbEntity
  8
0
 62
     0
100
AcDbLine
 10
1085.187938
 20
330.130478
 30
0.0
 11
1085.187938
 21
330.130478
 31
0.0
  0
LINE
  5
3AC
100
AcDbEntity
  8
0
 62
     0
100
AcDbLine
 10
1085.850851
 20
330.793391
 30
0.0
 11
1085.850851
 21
330.793391
 31
0.0
  0
LINE
  5
3AD
100
AcDbEntity
  8
0
 62
     0
100
AcDbLine
 10
1086.513763
 20
331.456304
 30
0.0
 11
1086.513763
 21
331.456304
 31
0.0
  0
LINE
  5
3AE
100
AcDbEntity
  8
0
 62
     0
100
AcDbLine
 10
1087.176676
 20
332.119216
 30
0.0
 11
1087.176676
 21
332.119216
 31
0.0
  0
LINE
  5
3AF
100
AcDbEntity
  8
0
 62
     0
100
AcDbLine
 10
1087.839589
 20
332.782129
 30
0.0
 11
1087.839589
 21
332.782129
 31
0.0
  0
LINE
  5
3B0
100
AcDbEntity
  8
0
 62
     0
100
AcDbLine
 10
1088.502501
 20
333.445042
 30
0.0
 11
1088.502501
 21
333.445042
 31
0.0
  0
LINE
  5
3B1
100
AcDbEntity
  8
0
 62
     0
100
AcDbLine
 10
1079.221725
 20
325.49009
 30
0.0
 11
1079.221725
 21
325.49009
 31
0.0
  0
LINE
  5
3B2
100
AcDbEntity
  8
0
 62
     0
100
AcDbLine
 10
1079.884637
 20
326.153003
 30
0.0
 11
1079.884637
 21
326.153003
 31
0.0
  0
LINE
  5
3B3
100
AcDbEntity
  8
0
 62
     0
100
AcDbLine
 10
1080.54755
 20
326.815915
 30
0.0
 11
1080.54755
 21
326.815915
 31
0.0
  0
LINE
  5
3B4
100
AcDbEntity
  8
0
 62
     0
100
AcDbLine
 10
1081.210463
 20
327.478828
 30
0.0
 11
1081.210463
 21
327.478828
 31
0.0
  0
LINE
  5
3B5
100
AcDbEntity
  8
0
 62
     0
100
AcDbLine
 10
1081.873375
 20
328.141741
 30
0.0
 11
1081.873375
 21
328.141741
 31
0.0
  0
LINE
  5
3B6
100
AcDbEntity
  8
0
 62
     0
100
AcDbLine
 10
1082.536288
 20
328.804653
 30
0.0
 11
1082.536288
 21
328.804653
 31
0.0
  0
LINE
  5
3B7
100
AcDbEntity
  8
0
 62
     0
100
AcDbLine
 10
1083.1992
 20
329.467566
 30
0.0
 11
1083.1992
 21
329.467566
 31
0.0
  0
LINE
  5
3B8
100
AcDbEntity
  8
0
 62
     0
100
AcDbLine
 10
1083.862113
 20
330.130478
 30
0.0
 11
1083.862113
 21
330.130478
 31
0.0
  0
LINE
  5
3B9
100
AcDbEntity
  8
0
 62
     0
100
AcDbLine
 10
1084.525026
 20
330.793391
 30
0.0
 11
1084.525026
 21
330.793391
 31
0.0
  0
LINE
  5
3BA
100
AcDbEntity
  8
0
 62
     0
100
AcDbLine
 10
1085.187938
 20
331.456304
 30
0.0
 11
1085.187938
 21
331.456304
 31
0.0
  0
LINE
  5
3BB
100
AcDbEntity
  8
0
 62
     0
100
AcDbLine
 10
1085.850851
 20
332.119216
 30
0.0
 11
1085.850851
 21
332.119216
 31
0.0
  0
LINE
  5
3BC
100
AcDbEntity
  8
0
 62
     0
100
AcDbLine
 10
1086.513763
 20
332.782129
 30
0.0
 11
1086.513763
 21
332.782129
 31
0.0
  0
LINE
  5
3BD
100
AcDbEntity
  8
0
 62
     0
100
AcDbLine
 10
1077.8959
 20
325.49009
 30
0.0
 11
1077.8959
 21
325.49009
 31
0.0
  0
LINE
  5
3BE
100
AcDbEntity
  8
0
 62
     0
100
AcDbLine
 10
1078.558812
 20
326.153003
 30
0.0
 11
1078.558812
 21
326.153003
 31
0.0
  0
LINE
  5
3BF
100
AcDbEntity
  8
0
 62
     0
100
AcDbLine
 10
1079.221725
 20
326.815915
 30
0.0
 11
1079.221725
 21
326.815915
 31
0.0
  0
LINE
  5
3C0
100
AcDbEntity
  8
0
 62
     0
100
AcDbLine
 10
1079.884637
 20
327.478828
 30
0.0
 11
1079.884637
 21
327.478828
 31
0.0
  0
LINE
  5
3C1
100
AcDbEntity
  8
0
 62
     0
100
AcDbLine
 10
1080.54755
 20
328.141741
 30
0.0
 11
1080.54755
 21
328.141741
 31
0.0
  0
LINE
  5
3C2
100
AcDbEntity
  8
0
 62
     0
100
AcDbLine
 10
1081.210463
 20
328.804653
 30
0.0
 11
1081.210463
 21
328.804653
 31
0.0
  0
LINE
  5
3C3
100
AcDbEntity
  8
0
 62
     0
100
AcDbLine
 10
1081.873375
 20
329.467566
 30
0.0
 11
1081.873375
 21
329.467566
 31
0.0
  0
LINE
  5
3C4
100
AcDbEntity
  8
0
 62
     0
100
AcDbLine
 10
1082.536288
 20
330.130478
 30
0.0
 11
1082.536288
 21
330.130478
 31
0.0
  0
LINE
  5
3C5
100
AcDbEntity
  8
0
 62
     0
100
AcDbLine
 10
1083.1992
 20
330.793391
 30
0.0
 11
1083.1992
 21
330.793391
 31
0.0
  0
LINE
  5
3C6
100
AcDbEntity
  8
0
 62
     0
100
AcDbLine
 10
1083.862113
 20
331.456304
 30
0.0
 11
1083.862113
 21
331.456304
 31
0.0
  0
LINE
  5
3C7
100
AcDbEntity
  8
0
 62
     0
100
AcDbLine
 10
1084.525026
 20
332.119216
 30
0.0
 11
1084.525026
 21
332.119216
 31
0.0
  0
LINE
  5
3C8
100
AcDbEntity
  8
0
 62
     0
100
AcDbLine
 10
1075.244249
 20
324.164265
 30
0.0
 11
1075.244249
 21
324.164265
 31
0.0
  0
LINE
  5
3C9
100
AcDbEntity
  8
0
 62
     0
100
AcDbLine
 10
1075.907162
 20
324.827178
 30
0.0
 11
1075.907162
 21
324.827178
 31
0.0
  0
LINE
  5
3CA
100
AcDbEntity
  8
0
 62
     0
100
AcDbLine
 10
1076.570074
 20
325.49009
 30
0.0
 11
1076.570074
 21
325.49009
 31
0.0
  0
LINE
  5
3CB
100
AcDbEntity
  8
0
 62
     0
100
AcDbLine
 10
1077.232987
 20
326.153003
 30
0.0
 11
1077.232987
 21
326.153003
 31
0.0
  0
LINE
  5
3CC
100
AcDbEntity
  8
0
 62
     0
100
AcDbLine
 10
1077.8959
 20
326.815915
 30
0.0
 11
1077.8959
 21
326.815915
 31
0.0
  0
LINE
  5
3CD
100
AcDbEntity
  8
0
 62
     0
100
AcDbLine
 10
1078.558812
 20
327.478828
 30
0.0
 11
1078.558812
 21
327.478828
 31
0.0
  0
LINE
  5
3CE
100
AcDbEntity
  8
0
 62
     0
100
AcDbLine
 10
1079.221725
 20
328.141741
 30
0.0
 11
1079.221725
 21
328.141741
 31
0.0
  0
LINE
  5
3CF
100
AcDbEntity
  8
0
 62
     0
100
AcDbLine
 10
1079.884637
 20
328.804653
 30
0.0
 11
1079.884637
 21
328.804653
 31
0.0
  0
LINE
  5
3D0
100
AcDbEntity
  8
0
 62
     0
100
AcDbLine
 10
1080.54755
 20
329.467566
 30
0.0
 11
1080.54755
 21
329.467566
 31
0.0
  0
LINE
  5
3D1
100
AcDbEntity
  8
0
 62
     0
100
AcDbLine
 10
1081.210463
 20
330.130478
 30
0.0
 11
1081.210463
 21
330.130478
 31
0.0
  0
LINE
  5
3D2
100
AcDbEntity
  8
0
 62
     0
100
AcDbLine
 10
1081.873375
 20
330.793391
 30
0.0
 11
1081.873375
 21
330.793391
 31
0.0
  0
LINE
  5
3D3
100
AcDbEntity
  8
0
 62
     0
100
AcDbLine
 10
1082.536288
 20
331.456304
 30
0.0
 11
1082.536288
 21
331.456304
 31
0.0
  0
LINE
  5
3D4
100
AcDbEntity
  8
0
 62
     0
100
AcDbLine
 10
1083.1992
 20
332.119216
 30
0.0
 11
1083.1992
 21
332.119216
 31
0.0
  0
LINE
  5
3D5
100
AcDbEntity
  8
0
 62
     0
100
AcDbLine
 10
1083.862113
 20
332.782129
 30
0.0
 11
1083.862113
 21
332.782129
 31
0.0
  0
LINE
  5
3D6
100
AcDbEntity
  8
0
 62
     0
100
AcDbLine
 10
1084.525026
 20
333.445042
 30
0.0
 11
1084.525026
 21
333.445042
 31
0.0
  0
LINE
  5
3D7
100
AcDbEntity
  8
0
 62
     0
100
AcDbLine
 10
1075.244249
 20
325.49009
 30
0.0
 11
1075.244249
 21
325.49009
 31
0.0
  0
LINE
  5
3D8
100
AcDbEntity
  8
0
 62
     0
100
AcDbLine
 10
1075.907162
 20
326.153003
 30
0.0
 11
1075.907162
 21
326.153003
 31
0.0
  0
LINE
  5
3D9
100
AcDbEntity
  8
0
 62
     0
100
AcDbLine
 10
1076.570074
 20
326.815915
 30
0.0
 11
1076.570074
 21
326.815915
 31
0.0
  0
LINE
  5
3DA
100
AcDbEntity
  8
0
 62
     0
100
AcDbLine
 10
1077.232987
 20
327.478828
 30
0.0
 11
1077.232987
 21
327.478828
 31
0.0
  0
LINE
  5
3DB
100
AcDbEntity
  8
0
 62
     0
100
AcDbLine
 10
1077.8959
 20
328.141741
 30
0.0
 11
1077.8959
 21
328.141741
 31
0.0
  0
LINE
  5
3DC
100
AcDbEntity
  8
0
 62
     0
100
AcDbLine
 10
1078.558812
 20
328.804653
 30
0.0
 11
1078.558812
 21
328.804653
 31
0.0
  0
LINE
  5
3DD
100
AcDbEntity
  8
0
 62
     0
100
AcDbLine
 10
1079.221725
 20
329.467566
 30
0.0
 11
1079.221725
 21
329.467566
 31
0.0
  0
LINE
  5
3DE
100
AcDbEntity
  8
0
 62
     0
100
AcDbLine
 10
1079.884637
 20
330.130478
 30
0.0
 11
1079.884637
 21
330.130478
 31
0.0
  0
LINE
  5
3DF
100
AcDbEntity
  8
0
 62
     0
100
AcDbLine
 10
1080.54755
 20
330.793391
 30
0.0
 11
1080.54755
 21
330.793391
 31
0.0
  0
LINE
  5
3E0
100
AcDbEntity
  8
0
 62
     0
100
AcDbLine
 10
1081.210463
 20
331.456304
 30
0.0
 11
1081.210463
 21
331.456304
 31
0.0
  0
LINE
  5
3E1
100
AcDbEntity
  8
0
 62
     0
100
AcDbLine
 10
1081.873375
 20
332.119216
 30
0.0
 11
1081.873375
 21
332.119216
 31
0.0
  0
LINE
  5
3E2
100
AcDbEntity
  8
0
 62
     0
100
AcDbLine
 10
1082.536288
 20
332.782129
 30
0.0
 11
1082.536288
 21
332.782129
 31
0.0
  0
LINE
  5
3E3
100
AcDbEntity
  8
0
 62
     0
100
AcDbLine
 10
1075.244249
 20
326.815915
 30
0.0
 11
1075.244249
 21
326.815915
 31
0.0
  0
LINE
  5
3E4
100
AcDbEntity
  8
0
 62
     0
100
AcDbLine
 10
1075.907162
 20
327.478828
 30
0.0
 11
1075.907162
 21
327.478828
 31
0.0
  0
LINE
  5
3E5
100
AcDbEntity
  8
0
 62
     0
100
AcDbLine
 10
1076.570074
 20
328.141741
 30
0.0
 11
1076.570074
 21
328.141741
 31
0.0
  0
LINE
  5
3E6
100
AcDbEntity
  8
0
 62
     0
100
AcDbLine
 10
1077.232987
 20
328.804653
 30
0.0
 11
1077.232987
 21
328.804653
 31
0.0
  0
LINE
  5
3E7
100
AcDbEntity
  8
0
 62
     0
100
AcDbLine
 10
1077.8959
 20
329.467566
 30
0.0
 11
1077.8959
 21
329.467566
 31
0.0
  0
LINE
  5
3E8
100
AcDbEntity
  8
0
 62
     0
100
AcDbLine
 10
1078.558812
 20
330.130478
 30
0.0
 11
1078.558812
 21
330.130478
 31
0.0
  0
LINE
  5
3E9
100
AcDbEntity
  8
0
 62
     0
100
AcDbLine
 10
1079.221725
 20
330.793391
 30
0.0
 11
1079.221725
 21
330.793391
 31
0.0
  0
LINE
  5
3EA
100
AcDbEntity
  8
0
 62
     0
100
AcDbLine
 10
1079.884637
 20
331.456304
 30
0.0
 11
1079.884637
 21
331.456304
 31
0.0
  0
LINE
  5
3EB
100
AcDbEntity
  8
0
 62
     0
100
AcDbLine
 10
1080.54755
 20
332.119216
 30
0.0
 11
1080.54755
 21
332.119216
 31
0.0
  0
LINE
  5
3EC
100
AcDbEntity
  8
0
 62
     0
100
AcDbLine
 10
1075.244249
 20
328.141741
 30
0.0
 11
1075.244249
 21
328.141741
 31
0.0
  0
LINE
  5
3ED
100
AcDbEntity
  8
0
 62
     0
100
AcDbLine
 10
1075.907162
 20
328.804653
 30
0.0
 11
1075.907162
 21
328.804653
 31
0.0
  0
LINE
  5
3EE
100
AcDbEntity
  8
0
 62
     0
100
AcDbLine
 10
1076.570074
 20
329.467566
 30
0.0
 11
1076.570074
 21
329.467566
 31
0.0
  0
LINE
  5
3EF
100
AcDbEntity
  8
0
 62
     0
100
AcDbLine
 10
1077.232987
 20
330.130478
 30
0.0
 11
1077.232987
 21
330.130478
 31
0.0
  0
LINE
  5
3F0
100
AcDbEntity
  8
0
 62
     0
100
AcDbLine
 10
1077.8959
 20
330.793391
 30
0.0
 11
1077.8959
 21
330.793391
 31
0.0
  0
LINE
  5
3F1
100
AcDbEntity
  8
0
 62
     0
100
AcDbLine
 10
1078.558812
 20
331.456304
 30
0.0
 11
1078.558812
 21
331.456304
 31
0.0
  0
LINE
  5
3F2
100
AcDbEntity
  8
0
 62
     0
100
AcDbLine
 10
1079.221725
 20
332.119216
 30
0.0
 11
1079.221725
 21
332.119216
 31
0.0
  0
LINE
  5
3F3
100
AcDbEntity
  8
0
 62
     0
100
AcDbLine
 10
1079.884637
 20
332.782129
 30
0.0
 11
1079.884637
 21
332.782129
 31
0.0
  0
LINE
  5
3F4
100
AcDbEntity
  8
0
 62
     0
100
AcDbLine
 10
1080.54755
 20
333.445042
 30
0.0
 11
1080.54755
 21
333.445042
 31
0.0
  0
LINE
  5
3F5
100
AcDbEntity
  8
0
 62
     0
100
AcDbLine
 10
1075.244249
 20
329.467566
 30
0.0
 11
1075.244249
 21
329.467566
 31
0.0
  0
LINE
  5
3F6
100
AcDbEntity
  8
0
 62
     0
100
AcDbLine
 10
1075.907162
 20
330.130478
 30
0.0
 11
1075.907162
 21
330.130478
 31
0.0
  0
LINE
  5
3F7
100
AcDbEntity
  8
0
 62
     0
100
AcDbLine
 10
1076.570074
 20
330.793391
 30
0.0
 11
1076.570074
 21
330.793391
 31
0.0
  0
LINE
  5
3F8
100
AcDbEntity
  8
0
 62
     0
100
AcDbLine
 10
1077.232987
 20
331.456304
 30
0.0
 11
1077.232987
 21
331.456304
 31
0.0
  0
LINE
  5
3F9
100
AcDbEntity
  8
0
 62
     0
100
AcDbLine
 10
1077.8959
 20
332.119216
 30
0.0
 11
1077.8959
 21
332.119216
 31
0.0
  0
LINE
  5
3FA
100
AcDbEntity
  8
0
 62
     0
100
AcDbLine
 10
1078.558812
 20
332.782129
 30
0.0
 11
1078.558812
 21
332.782129
 31
0.0
  0
LINE
  5
3FB
100
AcDbEntity
  8
0
 62
     0
100
AcDbLine
 10
1075.244249
 20
330.793391
 30
0.0
 11
1075.244249
 21
330.793391
 31
0.0
  0
LINE
  5
3FC
100
AcDbEntity
  8
0
 62
     0
100
AcDbLine
 10
1075.907162
 20
331.456304
 30
0.0
 11
1075.907162
 21
331.456304
 31
0.0
  0
LINE
  5
3FD
100
AcDbEntity
  8
0
 62
     0
100
AcDbLine
 10
1076.570074
 20
332.119216
 30
0.0
 11
1076.570074
 21
332.119216
 31
0.0
  0
LINE
  5
3FE
100
AcDbEntity
  8
0
 62
     0
100
AcDbLine
 10
1075.244249
 20
332.119216
 30
0.0
 11
1075.244249
 21
332.119216
 31
0.0
  0
LINE
  5
3FF
100
AcDbEntity
  8
0
 62
     0
100
AcDbLine
 10
1075.907162
 20
332.782129
 30
0.0
 11
1075.907162
 21
332.782129
 31
0.0
  0
LINE
  5
400
100
AcDbEntity
  8
0
 62
     0
100
AcDbLine
 10
1095.131627
 20
325.49009
 30
0.0
 11
1095.131627
 21
325.49009
 31
0.0
  0
LINE
  5
401
100
AcDbEntity
  8
0
 62
     0
100
AcDbLine
 10
1095.79454
 20
326.153003
 30
0.0
 11
1095.79454
 21
326.153003
 31
0.0
  0
LINE
  5
402
100
AcDbEntity
  8
0
 62
     0
100
AcDbLine
 10
1096.457453
 20
326.815915
 30
0.0
 11
1096.457453
 21
326.815915
 31
0.0
  0
LINE
  5
403
100
AcDbEntity
  8
0
 62
     0
100
AcDbLine
 10
1097.120365
 20
327.478828
 30
0.0
 11
1097.120365
 21
327.478828
 31
0.0
  0
LINE
  5
404
100
AcDbEntity
  8
0
 62
     0
100
AcDbLine
 10
1096.457453
 20
325.49009
 30
0.0
 11
1096.457453
 21
325.49009
 31
0.0
  0
LINE
  5
405
100
AcDbEntity
  8
0
 62
     0
100
AcDbLine
 10
1097.120365
 20
326.153003
 30
0.0
 11
1097.120365
 21
326.153003
 31
0.0
  0
LINE
  5
406
100
AcDbEntity
  8
0
 62
     0
100
AcDbLine
 10
1097.783278
 20
326.815915
 30
0.0
 11
1097.783278
 21
326.815915
 31
0.0
  0
LINE
  5
407
100
AcDbEntity
  8
0
 62
     0
100
AcDbLine
 10
1098.44619
 20
327.478828
 30
0.0
 11
1098.44619
 21
327.478828
 31
0.0
  0
LINE
  5
408
100
AcDbEntity
  8
0
 62
     0
100
AcDbLine
 10
1097.783278
 20
325.49009
 30
0.0
 11
1097.783278
 21
325.49009
 31
0.0
  0
LINE
  5
409
100
AcDbEntity
  8
0
 62
     0
100
AcDbLine
 10
1098.44619
 20
326.153003
 30
0.0
 11
1098.44619
 21
326.153003
 31
0.0
  0
LINE
  5
40A
100
AcDbEntity
  8
0
 62
     0
100
AcDbLine
 10
1099.109103
 20
326.815915
 30
0.0
 11
1099.109103
 21
326.815915
 31
0.0
  0
LINE
  5
40B
100
AcDbEntity
  8
0
 62
     0
100
AcDbLine
 10
1098.44619
 20
324.827178
 30
0.0
 11
1098.44619
 21
324.827178
 31
0.0
  0
LINE
  5
40C
100
AcDbEntity
  8
0
 62
     0
100
AcDbLine
 10
1099.109103
 20
325.49009
 30
0.0
 11
1099.109103
 21
325.49009
 31
0.0
  0
LINE
  5
40D
100
AcDbEntity
  8
0
 62
     0
100
AcDbLine
 10
1099.772016
 20
326.153003
 30
0.0
 11
1099.772016
 21
326.153003
 31
0.0
  0
LINE
  5
40E
100
AcDbEntity
  8
0
 62
     0
100
AcDbLine
 10
1099.109103
 20
324.164265
 30
0.0
 11
1099.109103
 21
324.164265
 31
0.0
  0
LINE
  5
40F
100
AcDbEntity
  8
0
 62
     0
100
AcDbLine
 10
1099.772016
 20
324.827178
 30
0.0
 11
1099.772016
 21
324.827178
 31
0.0
  0
LINE
  5
410
100
AcDbEntity
  8
0
 62
     0
100
AcDbLine
 10
1100.434928
 20
325.49009
 30
0.0
 11
1100.434928
 21
325.49009
 31
0.0
  0
LINE
  5
411
100
AcDbEntity
  8
0
 62
     0
100
AcDbLine
 10
1099.772016
 20
323.501352
 30
0.0
 11
1099.772016
 21
323.501352
 31
0.0
  0
LINE
  5
412
100
AcDbEntity
  8
0
 62
     0
100
AcDbLine
 10
1100.434928
 20
324.164265
 30
0.0
 11
1100.434928
 21
324.164265
 31
0.0
  0
LINE
  5
413
100
AcDbEntity
  8
0
 62
     0
100
AcDbLine
 10
1099.772016
 20
322.175527
 30
0.0
 11
1099.772016
 21
322.175527
 31
0.0
  0
LINE
  5
414
100
AcDbEntity
  8
0
 62
     0
100
AcDbLine
 10
1100.434928
 20
322.83844
 30
0.0
 11
1100.434928
 21
322.83844
 31
0.0
  0
LINE
  5
415
100
AcDbEntity
  8
0
 62
     0
100
AcDbLine
 10
1099.772016
 20
320.849702
 30
0.0
 11
1099.772016
 21
320.849702
 31
0.0
  0
LINE
  5
416
100
AcDbEntity
  8
0
 62
     0
100
AcDbLine
 10
1100.434928
 20
321.512615
 30
0.0
 11
1100.434928
 21
321.512615
 31
0.0
  0
LINE
  5
417
100
AcDbEntity
  8
0
 62
     0
100
AcDbLine
 10
1099.109103
 20
318.860964
 30
0.0
 11
1099.109103
 21
318.860964
 31
0.0
  0
LINE
  5
418
100
AcDbEntity
  8
0
 62
     0
100
AcDbLine
 10
1099.772016
 20
319.523877
 30
0.0
 11
1099.772016
 21
319.523877
 31
0.0
  0
LINE
  5
419
100
AcDbEntity
  8
0
 62
     0
100
AcDbLine
 10
1100.434928
 20
320.186789
 30
0.0
 11
1100.434928
 21
320.186789
 31
0.0
  0
LINE
  5
41A
100
AcDbEntity
  8
0
 62
     0
100
AcDbLine
 10
1099.109103
 20
317.535139
 30
0.0
 11
1099.109103
 21
317.535139
 31
0.0
  0
LINE
  5
41B
100
AcDbEntity
  8
0
 62
     0
100
AcDbLine
 10
1099.772016
 20
318.198052
 30
0.0
 11
1099.772016
 21
318.198052
 31
0.0
  0
LINE
  5
41C
100
AcDbEntity
  8
0
 62
     0
100
AcDbLine
 10
1098.44619
 20
315.546401
 30
0.0
 11
1098.44619
 21
315.546401
 31
0.0
  0
LINE
  5
41D
100
AcDbEntity
  8
0
 62
     0
100
AcDbLine
 10
1099.109103
 20
316.209314
 30
0.0
 11
1099.109103
 21
316.209314
 31
0.0
  0
LINE
  5
41E
100
AcDbEntity
  8
0
 62
     0
100
AcDbLine
 10
1099.109103
 20
314.883488
 30
0.0
 11
1099.109103
 21
314.883488
 31
0.0
  0
LINE
  5
41F
100
AcDbEntity
  8
0
 62
     0
100
AcDbLine
 10
1099.772016
 20
314.220576
 30
0.0
 11
1099.772016
 21
314.220576
 31
0.0
  0
LINE
  5
420
100
AcDbEntity
  8
0
 62
     0
100
AcDbLine
 10
1100.434928
 20
314.883488
 30
0.0
 11
1100.434928
 21
314.883488
 31
0.0
  0
LINE
  5
421
100
AcDbEntity
  8
0
 62
     0
100
AcDbLine
 10
1100.434928
 20
313.557663
 30
0.0
 11
1100.434928
 21
313.557663
 31
0.0
  0
LINE
  5
422
100
AcDbEntity
  8
0
 62
     0
100
AcDbLine
 10
1101.097841
 20
314.220576
 30
0.0
 11
1101.097841
 21
314.220576
 31
0.0
  0
LINE
  5
423
100
AcDbEntity
  8
0
 62
     0
100
AcDbLine
 10
1101.760753
 20
314.883488
 30
0.0
 11
1101.760753
 21
314.883488
 31
0.0
  0
LINE
  5
424
100
AcDbEntity
  8
0
 62
     0
100
AcDbLine
 10
1101.097841
 20
312.894751
 30
0.0
 11
1101.097841
 21
312.894751
 31
0.0
  0
LINE
  5
425
100
AcDbEntity
  8
0
 62
     0
100
AcDbLine
 10
1101.760753
 20
313.557663
 30
0.0
 11
1101.760753
 21
313.557663
 31
0.0
  0
LINE
  5
426
100
AcDbEntity
  8
0
 62
     0
100
AcDbLine
 10
1102.423666
 20
314.220576
 30
0.0
 11
1102.423666
 21
314.220576
 31
0.0
  0
LINE
  5
427
100
AcDbEntity
  8
0
 62
     0
100
AcDbLine
 10
1101.760753
 20
312.231838
 30
0.0
 11
1101.760753
 21
312.231838
 31
0.0
  0
LINE
  5
428
100
AcDbEntity
  8
0
 62
     0
100
AcDbLine
 10
1102.423666
 20
312.894751
 30
0.0
 11
1102.423666
 21
312.894751
 31
0.0
  0
LINE
  5
429
100
AcDbEntity
  8
0
 62
     0
100
AcDbLine
 10
1103.086579
 20
313.557663
 30
0.0
 11
1103.086579
 21
313.557663
 31
0.0
  0
LINE
  5
42A
100
AcDbEntity
  8
0
 62
     0
100
AcDbLine
 10
1102.423666
 20
311.568925
 30
0.0
 11
1102.423666
 21
311.568925
 31
0.0
  0
LINE
  5
42B
100
AcDbEntity
  8
0
 62
     0
100
AcDbLine
 10
1103.086579
 20
312.231838
 30
0.0
 11
1103.086579
 21
312.231838
 31
0.0
  0
LINE
  5
42C
100
AcDbEntity
  8
0
 62
     0
100
AcDbLine
 10
1103.749491
 20
312.894751
 30
0.0
 11
1103.749491
 21
312.894751
 31
0.0
  0
LINE
  5
42D
100
AcDbEntity
  8
0
 62
     0
100
AcDbLine
 10
1104.412404
 20
313.557663
 30
0.0
 11
1104.412404
 21
313.557663
 31
0.0
  0
LINE
  5
42E
100
AcDbEntity
  8
0
 62
     0
100
AcDbLine
 10
1103.086579
 20
310.906013
 30
0.0
 11
1103.086579
 21
310.906013
 31
0.0
  0
LINE
  5
42F
100
AcDbEntity
  8
0
 62
     0
100
AcDbLine
 10
1103.749491
 20
311.568925
 30
0.0
 11
1103.749491
 21
311.568925
 31
0.0
  0
LINE
  5
430
100
AcDbEntity
  8
0
 62
     0
100
AcDbLine
 10
1104.412404
 20
312.231838
 30
0.0
 11
1104.412404
 21
312.231838
 31
0.0
  0
LINE
  5
431
100
AcDbEntity
  8
0
 62
     0
100
AcDbLine
 10
1103.749491
 20
310.2431
 30
0.0
 11
1103.749491
 21
310.2431
 31
0.0
  0
LINE
  5
432
100
AcDbEntity
  8
0
 62
     0
100
AcDbLine
 10
1104.412404
 20
310.906013
 30
0.0
 11
1104.412404
 21
310.906013
 31
0.0
  0
LINE
  5
433
100
AcDbEntity
  8
0
 62
     0
100
AcDbLine
 10
1104.412404
 20
309.580188
 30
0.0
 11
1104.412404
 21
309.580188
 31
0.0
  0
ENDBLK
  5
435
100
AcDbEntity
  8
0
100
AcDbBlockEnd
  0
BLOCK
  5
4A5
100
AcDbEntity
  8
0
100
AcDbBlockBegin
  2
GLIST-66350
 70
     0
 10
0.0
 20
0.0
 30
0.0
  3
GLIST-66350
  1

  0
INSERT
  5
33C
100
AcDbEntity
  8
KON
100
AcDbBlockReference
  2
*X8
 10
-1074.845577
 20
-315.045061
 30
0.0
1001
ACAD
1000
HATCH
1002
{
1070
    16
1000
SACNCR
1040
10.0
1040
0.0
1002
}
  0
LWPOLYLINE
  5
436
100
AcDbEntity
  8
GLAS_MED_FOGNING
 62
     2
100
AcDbPolyline
 90
       36
 70
     0
 43
0.0
 10
21.097479
 20
10.092658
 10
3.097479
 20
10.092658
 42
0.240677
 10
1.071617
 20
9.057541
 42
-0.727407
 10
0.347479
 20
9.291922
 10
0.347479
 20
17.742658
 42
-0.668179
 10
0.944967
 20
17.990145
 10
1.783875
 20
17.151236
 42
0.198912
 10
1.925297
 20
17.092658
 10
2.286006
 20
17.092658
 42
0.131652
 10
2.386006
 20
17.119453
 10
5.722479
 20
19.045766
 42
-0.767327
 10
6.200588
 20
18.567658
 10
5.522202
 20
17.392658
 42
0.57735
 10
5.695407
 20
17.092658
 10
6.286006
 20
17.092658
 42
0.131652
 10
6.386006
 20
17.119453
 10
9.722479
 20
19.045766
 42
-0.767327
 10
10.200588
 20
18.567658
 10
9.522202
 20
17.392658
 42
0.57735
 10
9.695407
 20
17.092658
 10
10.386006
 20
17.092658
 42
0.131652
 10
10.486006
 20
17.119453
 10
13.822479
 20
19.045766
 42
-0.767327
 10
14.300588
 20
18.567658
 10
13.622202
 20
17.392658
 42
0.57735
 10
13.795407
 20
17.092658
 10
14.647479
 20
17.092658
 42
-0.414214
 10
14.847479
 20
16.892658
 10
14.847479
 20
13.292658
 42
0.414214
 10
15.047479
 20
13.092658
 10
23.869495
 20
13.092658
 42
-0.329179
 10
25.847328
 20
10.103113
 10
25.847328
 20
6.526244
 42
-0.06598
 10
25.690593
 20
5.327686
 10
24.526832
 20
0.990543
 42
0.389113
 10
24.846919
 20
0.12637
  0
INSERT
  5
45C
100
AcDbEntity
  8
KON
100
AcDbBlockReference
  2
*X8
 10
1135.062822
 20
-315.045061
 30
0.0
 41
-1.0
1001
ACAD
1000
HATCH
1002
{
1070
    16
1000
SACNCR
1040
10.0
1040
0.0
1002
}
  0
LWPOLYLINE
  5
45D
100
AcDbEntity
  8
GLAS_MED_FOGNING
 62
     2
100
AcDbPolyline
 90
       36
 70
     0
 43
0.0
 10
39.118776
 20
10.092658
 10
57.118776
 20
10.092658
 42
-0.240677
 10
59.144638
 20
9.057541
 42
0.727407
 10
59.868776
 20
9.291922
 10
59.868776
 20
17.742658
 42
0.668179
 10
59.271288
 20
17.990145
 10
58.432379
 20
17.151236
 42
-0.198912
 10
58.290958
 20
17.092658
 10
57.930249
 20
17.092658
 42
-0.131652
 10
57.830249
 20
17.119453
 10
54.493776
 20
19.045766
 42
0.767327
 10
54.015667
 20
18.567658
 10
54.694053
 20
17.392658
 42
-0.57735
 10
54.520848
 20
17.092658
 10
53.930249
 20
17.092658
 42
-0.131652
 10
53.830249
 20
17.119453
 10
50.493776
 20
19.045766
 42
0.767327
 10
50.015667
 20
18.567658
 10
50.694053
 20
17.392658
 42
-0.57735
 10
50.520848
 20
17.092658
 10
49.830249
 20
17.092658
 42
-0.131652
 10
49.730249
 20
17.119453
 10
46.393776
 20
19.045766
 42
0.767327
 10
45.915667
 20
18.567658
 10
46.594053
 20
17.392658
 42
-0.57735
 10
46.420848
 20
17.092658
 10
45.568776
 20
17.092658
 42
0.414214
 10
45.368776
 20
16.892658
 10
45.368776
 20
13.292658
 42
-0.414214
 10
45.168776
 20
13.092658
 10
36.34676
 20
13.092658
 42
0.329179
 10
34.368927
 20
10.103113
 10
34.368927
 20
6.526244
 42
0.06598
 10
34.525661
 20
5.327686
 10
35.689423
 20
0.990543
 42
-0.389113
 10
35.369336
 20
0.12637
  0
LINE
  5
483
100
AcDbEntity
  8
GLAS_MED_FOGNING
100
AcDbLine
 10
27.908127
 20
-0.773596
 30
0.0
 11
32.308127
 21
-0.773596
 31
0.0
  0
LWPOLYLINE
  5
484
100
AcDbEntity
  8
GLAS_MED_FOGNING
 62
     2
100
AcDbPolyline
 90
        2
 70
     0
 43
0.0
 10
27.508127
 20
0.126404
 10
24.846853
 20
0.126404
  0
LWPOLYLINE
  5
488
100
AcDbEntity
  8
GLAS_MED_FOGNING
 62
     2
100
AcDbPolyline
 90
        4
 70
     0
 43
0.0
 10
27.908127
 20
-0.773596
 10
27.608127
 20
0.026404
 42
0.414214
 10
27.508127
 20
0.126404
 42
-0.414214
 10
27.608127
 20
0.026404
  0
LWPOLYLINE
  5
48E
100
AcDbEntity
  8
GLAS_MED_FOGNING
 62
     2
100
AcDbPolyline
 90
        4
 70
     0
 43
0.0
 10
32.308127
 20
-0.773596
 10
32.608127
 20
0.026404
 42
-0.414214
 10
32.708127
 20
0.126404
 10
35.369402
 20
0.126404
  0
ARC
  5
494
100
AcDbEntity
  8
GLAS_MED_FOGNING
 62
     2
100
AcDbCircle
 10
32.708127
 20
0.026404
 30
0.0
 40
0.1
100
AcDbArc
 50
90.0
 51
180.0
  0
LWPOLYLINE
  5
495
100
AcDbEntity
  8
GLAS_MED_FOGNING
 62
     2
100
AcDbPolyline
 90
        6
 70
     0
 43
0.0
 10
28.693419
 20
-5.3282
 42
0.413794
 10
31.521846
 20
-5.3282
 10
36.243356
 20
-0.533206
 42
0.270753
 10
36.639935
 20
1.301231
 10
35.491587
 20
5.586505
 42
-0.493145
 10
38.96892
 20
10.118254
  0
LWPOLYLINE
  5
49D
100
AcDbEntity
  8
GLAS_MED_FOGNING
 62
     2
100
AcDbPolyline
 90
        6
 70
     0
 43
0.0
 10
31.522836
 20
-5.3282
 42
-0.413794
 10
28.694409
 20
-5.3282
 10
23.972899
 20
-0.533206
 42
-0.270753
 10
23.57632
 20
1.301231
 10
24.724668
 20
5.586505
 42
0.493145
 10
21.247335
 20
10.118254
  0
ENDBLK
  5
4A6
100
AcDbEntity
  8
0
100
AcDbBlockEnd
  0
BLOCK
  5
581
100
AcDbEntity
  8
0
100
AcDbBlockBegin
  2
*X10
 70
     1
 10
0.0
 20
0.0
 30
0.0
  3
*X10
  1

  0
LINE
  5
566
100
AcDbEntity
  8
0
 62
     0
100
AcDbLine
 10
525.267817
 20
148.75
 30
0.0
 11
528.517817
 21
148.75
 31
0.0
  0
LINE
  5
567
100
AcDbEntity
  8
0
 62
     0
100
AcDbLine
 10
525.267817
 20
150.5
 30
0.0
 11
528.555275
 21
150.5
 31
0.0
  0
LINE
  5
568
100
AcDbEntity
  8
0
 62
     0
100
AcDbLine
 10
525.267817
 20
152.25
 30
0.0
 11
528.517817
 21
152.25
 31
0.0
  0
LINE
  5
569
100
AcDbEntity
  8
0
 62
     0
100
AcDbLine
 10
525.267817
 20
154.0
 30
0.0
 11
528.555275
 21
154.0
 31
0.0
  0
LINE
  5
56A
100
AcDbEntity
  8
0
 62
     0
100
AcDbLine
 10
525.267817
 20
155.75
 30
0.0
 11
527.975504
 21
155.75
 31
0.0
  0
LINE
  5
56B
100
AcDbEntity
  8
0
 62
     0
100
AcDbLine
 10
525.267817
 20
147.0
 30
0.0
 11
528.517817
 21
147.0
 31
0.0
  0
LINE
  5
56C
100
AcDbEntity
  8
0
 62
     0
100
AcDbLine
 10
525.267817
 20
145.25
 30
0.0
 11
528.555275
 21
145.25
 31
0.0
  0
LINE
  5
56D
100
AcDbEntity
  8
0
 62
     0
100
AcDbLine
 10
525.267817
 20
143.5
 30
0.0
 11
528.517817
 21
143.5
 31
0.0
  0
LINE
  5
56E
100
AcDbEntity
  8
0
 62
     0
100
AcDbLine
 10
525.267817
 20
141.75
 30
0.0
 11
528.555275
 21
141.75
 31
0.0
  0
LINE
  5
56F
100
AcDbEntity
  8
0
 62
     0
100
AcDbLine
 10
525.267817
 20
147.21875
 30
0.0
 11
528.517817
 21
147.21875
 31
0.0
  0
LINE
  5
570
100
AcDbEntity
  8
0
 62
     0
100
AcDbLine
 10
525.267817
 20
148.96875
 30
0.0
 11
528.517817
 21
148.96875
 31
0.0
  0
LINE
  5
571
100
AcDbEntity
  8
0
 62
     0
100
AcDbLine
 10
525.267817
 20
150.71875
 30
0.0
 11
528.555275
 21
150.71875
 31
0.0
  0
LINE
  5
572
100
AcDbEntity
  8
0
 62
     0
100
AcDbLine
 10
525.267817
 20
152.46875
 30
0.0
 11
528.517817
 21
152.46875
 31
0.0
  0
LINE
  5
573
100
AcDbEntity
  8
0
 62
     0
100
AcDbLine
 10
525.267817
 20
154.21875
 30
0.0
 11
528.555275
 21
154.21875
 31
0.0
  0
LINE
  5
574
100
AcDbEntity
  8
0
 62
     0
100
AcDbLine
 10
525.267817
 20
155.96875
 30
0.0
 11
527.975504
 21
155.96875
 31
0.0
  0
LINE
  5
575
100
AcDbEntity
  8
0
 62
     0
100
AcDbLine
 10
525.267817
 20
145.46875
 30
0.0
 11
528.555275
 21
145.46875
 31
0.0
  0
LINE
  5
576
100
AcDbEntity
  8
0
 62
     0
100
AcDbLine
 10
525.267817
 20
143.71875
 30
0.0
 11
528.517817
 21
143.71875
 31
0.0
  0
LINE
  5
577
100
AcDbEntity
  8
0
 62
     0
100
AcDbLine
 10
525.267817
 20
141.96875
 30
0.0
 11
528.555275
 21
141.96875
 31
0.0
  0
LINE
  5
578
100
AcDbEntity
  8
0
 62
     0
100
AcDbLine
 10
525.267817
 20
147.4375
 30
0.0
 11
528.517817
 21
147.4375
 31
0.0
  0
LINE
  5
579
100
AcDbEntity
  8
0
 62
     0
100
AcDbLine
 10
525.267817
 20
149.1875
 30
0.0
 11
528.517817
 21
149.1875
 31
0.0
  0
LINE
  5
57A
100
AcDbEntity
  8
0
 62
     0
100
AcDbLine
 10
525.267817
 20
150.9375
 30
0.0
 11
528.555275
 21
150.9375
 31
0.0
  0
LINE
  5
57B
100
AcDbEntity
  8
0
 62
     0
100
AcDbLine
 10
525.267817
 20
152.6875
 30
0.0
 11
528.517817
 21
152.6875
 31
0.0
  0
LINE
  5
57C
100
AcDbEntity
  8
0
 62
     0
100
AcDbLine
 10
525.267817
 20
154.4375
 30
0.0
 11
528.555275
 21
154.4375
 31
0.0
  0
LINE
  5
57D
100
AcDbEntity
  8
0
 62
     0
100
AcDbLine
 10
525.267817
 20
156.1875
 30
0.0
 11
527.975504
 21
156.1875
 31
0.0
  0
LINE
  5
57E
100
AcDbEntity
  8
0
 62
     0
100
AcDbLine
 10
525.267817
 20
145.6875
 30
0.0
 11
528.555275
 21
145.6875
 31
0.0
  0
LINE
  5
57F
100
AcDbEntity
  8
0
 62
     0
100
AcDbLine
 10
525.267817
 20
143.9375
 30
0.0
 11
528.517817
 21
143.9375
 31
0.0
  0
LINE
  5
580
100
AcDbEntity
  8
0
 62
     0
100
AcDbLine
 10
525.267817
 20
142.1875
 30
0.0
 11
528.555275
 21
142.1875
 31
0.0
  0
ENDBLK
  5
582
100
AcDbEntity
  8
0
100
AcDbBlockEnd
  0
BLOCK
  5
518
100
AcDbEntity
  8
0
100
AcDbBlockBegin
  2
*X11
 70
     1
 10
0.0
 20
0.0
 30
0.0
  3
*X11
  1

  0
LINE
  5
4E5
100
AcDbEntity
  8
0
 62
     0
100
AcDbLine
 10
533.483326
 20
145.25
 30
0.0
 11
536.767817
 21
145.25
 31
0.0
  0
LINE
  5
4E6
100
AcDbEntity
  8
0
 62
     0
100
AcDbLine
 10
533.483326
 20
147.0
 30
0.0
 11
536.767817
 21
147.0
 31
0.0
  0
LINE
  5
4E7
100
AcDbEntity
  8
0
 62
     0
100
AcDbLine
 10
533.517817
 20
148.75
 30
0.0
 11
536.767817
 21
148.75
 31
0.0
  0
LINE
  5
4E8
100
AcDbEntity
  8
0
 62
     0
100
AcDbLine
 10
533.483326
 20
150.5
 30
0.0
 11
536.767817
 21
150.5
 31
0.0
  0
LINE
  5
4E9
100
AcDbEntity
  8
0
 62
     0
100
AcDbLine
 10
533.517817
 20
152.25
 30
0.0
 11
536.767817
 21
152.25
 31
0.0
  0
LINE
  5
4EA
100
AcDbEntity
  8
0
 62
     0
100
AcDbLine
 10
533.483326
 20
154.0
 30
0.0
 11
536.767817
 21
154.0
 31
0.0
  0
LINE
  5
4EB
100
AcDbEntity
  8
0
 62
     0
100
AcDbLine
 10
534.063096
 20
155.75
 30
0.0
 11
536.767817
 21
155.75
 31
0.0
  0
LINE
  5
4EC
100
AcDbEntity
  8
0
 62
     0
100
AcDbLine
 10
533.517817
 20
143.5
 30
0.0
 11
536.767817
 21
143.5
 31
0.0
  0
LINE
  5
4ED
100
AcDbEntity
  8
0
 62
     0
100
AcDbLine
 10
533.483326
 20
141.75
 30
0.0
 11
536.767817
 21
141.75
 31
0.0
  0
LINE
  5
4EE
100
AcDbEntity
  8
0
 62
     0
100
AcDbLine
 10
525.267817
 20
140.0
 30
0.0
 11
529.038419
 21
140.0
 31
0.0
  0
LINE
  5
4EF
100
AcDbEntity
  8
0
 62
     0
100
AcDbLine
 10
533.000186
 20
140.0
 30
0.0
 11
536.767817
 21
140.0
 31
0.0
  0
LINE
  5
4F0
100
AcDbEntity
  8
0
 62
     0
100
AcDbLine
 10
525.267817
 20
138.25
 30
0.0
 11
529.038419
 21
138.25
 31
0.0
  0
LINE
  5
4F1
100
AcDbEntity
  8
0
 62
     0
100
AcDbLine
 10
533.000186
 20
138.25
 30
0.0
 11
536.767817
 21
138.25
 31
0.0
  0
LINE
  5
4F2
100
AcDbEntity
  8
0
 62
     0
100
AcDbLine
 10
525.267817
 20
136.5
 30
0.0
 11
529.014715
 21
136.5
 31
0.0
  0
LINE
  5
4F3
100
AcDbEntity
  8
0
 62
     0
100
AcDbLine
 10
533.014715
 20
136.5
 30
0.0
 11
536.767817
 21
136.5
 31
0.0
  0
LINE
  5
4F4
100
AcDbEntity
  8
0
 62
     0
100
AcDbLine
 10
525.267817
 20
134.75
 30
0.0
 11
529.014715
 21
134.75
 31
0.0
  0
LINE
  5
4F5
100
AcDbEntity
  8
0
 62
     0
100
AcDbLine
 10
533.014715
 20
134.75
 30
0.0
 11
536.767817
 21
134.75
 31
0.0
  0
LINE
  5
4F6
100
AcDbEntity
  8
0
 62
     0
100
AcDbLine
 10
533.517817
 20
143.71875
 30
0.0
 11
536.767817
 21
143.71875
 31
0.0
  0
LINE
  5
4F7
100
AcDbEntity
  8
0
 62
     0
100
AcDbLine
 10
533.483326
 20
145.46875
 30
0.0
 11
536.767817
 21
145.46875
 31
0.0
  0
LINE
  5
4F8
100
AcDbEntity
  8
0
 62
     0
100
AcDbLine
 10
533.517817
 20
147.21875
 30
0.0
 11
536.767817
 21
147.21875
 31
0.0
  0
LINE
  5
4F9
100
AcDbEntity
  8
0
 62
     0
100
AcDbLine
 10
533.517817
 20
148.96875
 30
0.0
 11
536.767817
 21
148.96875
 31
0.0
  0
LINE
  5
4FA
100
AcDbEntity
  8
0
 62
     0
100
AcDbLine
 10
533.483326
 20
150.71875
 30
0.0
 11
536.767817
 21
150.71875
 31
0.0
  0
LINE
  5
4FB
100
AcDbEntity
  8
0
 62
     0
100
AcDbLine
 10
533.517817
 20
152.46875
 30
0.0
 11
536.767817
 21
152.46875
 31
0.0
  0
LINE
  5
4FC
100
AcDbEntity
  8
0
 62
     0
100
AcDbLine
 10
533.483326
 20
154.21875
 30
0.0
 11
536.767817
 21
154.21875
 31
0.0
  0
LINE
  5
4FD
100
AcDbEntity
  8
0
 62
     0
100
AcDbLine
 10
534.063096
 20
155.96875
 30
0.0
 11
536.767817
 21
155.96875
 31
0.0
  0
LINE
  5
4FE
100
AcDbEntity
  8
0
 62
     0
100
AcDbLine
 10
533.483326
 20
141.96875
 30
0.0
 11
536.767817
 21
141.96875
 31
0.0
  0
LINE
  5
4FF
100
AcDbEntity
  8
0
 62
     0
100
AcDbLine
 10
525.267817
 20
140.21875
 30
0.0
 11
529.038419
 21
140.21875
 31
0.0
  0
LINE
  5
500
100
AcDbEntity
  8
0
 62
     0
100
AcDbLine
 10
533.000186
 20
140.21875
 30
0.0
 11
536.767817
 21
140.21875
 31
0.0
  0
LINE
  5
501
100
AcDbEntity
  8
0
 62
     0
100
AcDbLine
 10
525.267817
 20
138.46875
 30
0.0
 11
529.017817
 21
138.46875
 31
0.0
  0
LINE
  5
502
100
AcDbEntity
  8
0
 62
     0
100
AcDbLine
 10
533.000186
 20
138.46875
 30
0.0
 11
536.767817
 21
138.46875
 31
0.0
  0
LINE
  5
503
100
AcDbEntity
  8
0
 62
     0
100
AcDbLine
 10
525.267817
 20
136.71875
 30
0.0
 11
529.014715
 21
136.71875
 31
0.0
  0
LINE
  5
504
100
AcDbEntity
  8
0
 62
     0
100
AcDbLine
 10
533.014715
 20
136.71875
 30
0.0
 11
536.767817
 21
136.71875
 31
0.0
  0
LINE
  5
505
100
AcDbEntity
  8
0
 62
     0
100
AcDbLine
 10
525.267817
 20
134.96875
 30
0.0
 11
529.038419
 21
134.96875
 31
0.0
  0
LINE
  5
506
100
AcDbEntity
  8
0
 62
     0
100
AcDbLine
 10
533.000186
 20
134.96875
 30
0.0
 11
536.767817
 21
134.96875
 31
0.0
  0
LINE
  5
507
100
AcDbEntity
  8
0
 62
     0
100
AcDbLine
 10
533.517817
 20
143.9375
 30
0.0
 11
536.767817
 21
143.9375
 31
0.0
  0
LINE
  5
508
100
AcDbEntity
  8
0
 62
     0
100
AcDbLine
 10
533.483326
 20
145.6875
 30
0.0
 11
536.767817
 21
145.6875
 31
0.0
  0
LINE
  5
509
100
AcDbEntity
  8
0
 62
     0
100
AcDbLine
 10
533.517817
 20
147.4375
 30
0.0
 11
536.767817
 21
147.4375
 31
0.0
  0
LINE
  5
50A
100
AcDbEntity
  8
0
 62
     0
100
AcDbLine
 10
533.517817
 20
149.1875
 30
0.0
 11
536.767817
 21
149.1875
 31
0.0
  0
LINE
  5
50B
100
AcDbEntity
  8
0
 62
     0
100
AcDbLine
 10
533.483326
 20
150.9375
 30
0.0
 11
536.767817
 21
150.9375
 31
0.0
  0
LINE
  5
50C
100
AcDbEntity
  8
0
 62
     0
100
AcDbLine
 10
533.517817
 20
152.6875
 30
0.0
 11
536.767817
 21
152.6875
 31
0.0
  0
LINE
  5
50D
100
AcDbEntity
  8
0
 62
     0
100
AcDbLine
 10
533.483326
 20
154.4375
 30
0.0
 11
536.767817
 21
154.4375
 31
0.0
  0
LINE
  5
50E
100
AcDbEntity
  8
0
 62
     0
100
AcDbLine
 10
534.063096
 20
156.1875
 30
0.0
 11
536.767817
 21
156.1875
 31
0.0
  0
LINE
  5
50F
100
AcDbEntity
  8
0
 62
     0
100
AcDbLine
 10
533.483326
 20
142.1875
 30
0.0
 11
536.767817
 21
142.1875
 31
0.0
  0
LINE
  5
510
100
AcDbEntity
  8
0
 62
     0
100
AcDbLine
 10
525.267817
 20
140.4375
 30
0.0
 11
529.017817
 21
140.4375
 31
0.0
  0
LINE
  5
511
100
AcDbEntity
  8
0
 62
     0
100
AcDbLine
 10
533.000186
 20
140.4375
 30
0.0
 11
536.767817
 21
140.4375
 31
0.0
  0
LINE
  5
512
100
AcDbEntity
  8
0
 62
     0
100
AcDbLine
 10
525.267817
 20
138.6875
 30
0.0
 11
529.017817
 21
138.6875
 31
0.0
  0
LINE
  5
513
100
AcDbEntity
  8
0
 62
     0
100
AcDbLine
 10
533.017817
 20
138.6875
 30
0.0
 11
536.767817
 21
138.6875
 31
0.0
  0
LINE
  5
514
100
AcDbEntity
  8
0
 62
     0
100
AcDbLine
 10
525.267817
 20
136.9375
 30
0.0
 11
529.014715
 21
136.9375
 31
0.0
  0
LINE
  5
515
100
AcDbEntity
  8
0
 62
     0
100
AcDbLine
 10
533.014715
 20
136.9375
 30
0.0
 11
536.767817
 21
136.9375
 31
0.0
  0
LINE
  5
516
100
AcDbEntity
  8
0
 62
     0
100
AcDbLine
 10
525.267817
 20
135.1875
 30
0.0
 11
529.038419
 21
135.1875
 31
0.0
  0
LINE
  5
517
100
AcDbEntity
  8
0
 62
     0
100
AcDbLine
 10
533.000186
 20
135.1875
 30
0.0
 11
536.767817
 21
135.1875
 31
0.0
  0
ENDBLK
  5
519
100
AcDbEntity
  8
0
100
AcDbBlockEnd
  0
BLOCK
  5
4DB
100
AcDbEntity
  8
0
100
AcDbBlockBegin
  2
*X12
 70
     1
 10
0.0
 20
0.0
 30
0.0
  3
*X12
  1

  0
LINE
  5
4BF
100
AcDbEntity
  8
0
 62
     0
100
AcDbLine
 10
526.339629
 20
126.0
 30
0.0
 11
529.16817
 21
126.0
 31
0.0
  0
LINE
  5
4C0
100
AcDbEntity
  8
0
 62
     0
100
AcDbLine
 10
525.965578
 20
127.75
 30
0.0
 11
528.821872
 21
127.75
 31
0.0
  0
LINE
  5
4C1
100
AcDbEntity
  8
0
 62
     0
100
AcDbLine
 10
525.938854
 20
129.5
 30
0.0
 11
528.475575
 21
129.5
 31
0.0
  0
LINE
  5
4C2
100
AcDbEntity
  8
0
 62
     0
100
AcDbLine
 10
520.016316
 20
131.25
 30
0.0
 11
529.014715
 21
131.25
 31
0.0
  0
LINE
  5
4C3
100
AcDbEntity
  8
0
 62
     0
100
AcDbLine
 10
520.015927
 20
133.0
 30
0.0
 11
529.038419
 21
133.0
 31
0.0
  0
LINE
  5
4C4
100
AcDbEntity
  8
0
 62
     0
100
AcDbLine
 10
526.792421
 20
124.25
 30
0.0
 11
529.514467
 21
124.25
 31
0.0
  0
LINE
  5
4C5
100
AcDbEntity
  8
0
 62
     0
100
AcDbLine
 10
526.280662
 20
122.5
 30
0.0
 11
529.860765
 21
122.5
 31
0.0
  0
LINE
  5
4C6
100
AcDbEntity
  8
0
 62
     0
100
AcDbLine
 10
525.998288
 20
120.75
 30
0.0
 11
530.207062
 21
120.75
 31
0.0
  0
LINE
  5
4C7
100
AcDbEntity
  8
0
 62
     0
100
AcDbLine
 10
526.643535
 20
119.0
 30
0.0
 11
530.55336
 21
119.0
 31
0.0
  0
LINE
  5
4C8
100
AcDbEntity
  8
0
 62
     0
100
AcDbLine
 10
526.735822
 20
124.46875
 30
0.0
 11
529.47118
 21
124.46875
 31
0.0
  0
LINE
  5
4C9
100
AcDbEntity
  8
0
 62
     0
100
AcDbLine
 10
526.28303
 20
126.21875
 30
0.0
 11
529.124883
 21
126.21875
 31
0.0
  0
LINE
  5
4CA
100
AcDbEntity
  8
0
 62
     0
100
AcDbLine
 10
525.965773
 20
127.96875
 30
0.0
 11
528.778585
 21
127.96875
 31
0.0
  0
LINE
  5
4CB
100
AcDbEntity
  8
0
 62
     0
100
AcDbLine
 10
525.797042
 20
129.71875
 30
0.0
 11
528.432288
 21
129.71875
 31
0.0
  0
LINE
  5
4CC
100
AcDbEntity
  8
0
 62
     0
100
AcDbLine
 10
520.016268
 20
131.46875
 30
0.0
 11
529.014715
 21
131.46875
 31
0.0
  0
LINE
  5
4CD
100
AcDbEntity
  8
0
 62
     0
100
AcDbLine
 10
520.015878
 20
133.21875
 30
0.0
 11
529.038419
 21
133.21875
 31
0.0
  0
LINE
  5
4CE
100
AcDbEntity
  8
0
 62
     0
100
AcDbLine
 10
526.38464
 20
122.71875
 30
0.0
 11
529.817477
 21
122.71875
 31
0.0
  0
LINE
  5
4CF
100
AcDbEntity
  8
0
 62
     0
100
AcDbLine
 10
525.985284
 20
120.96875
 30
0.0
 11
530.163775
 21
120.96875
 31
0.0
  0
LINE
  5
4D0
100
AcDbEntity
  8
0
 62
     0
100
AcDbLine
 10
526.500206
 20
119.21875
 30
0.0
 11
530.510072
 21
119.21875
 31
0.0
  0
LINE
  5
4D1
100
AcDbEntity
  8
0
 62
     0
100
AcDbLine
 10
526.679223
 20
124.6875
 30
0.0
 11
529.427893
 21
124.6875
 31
0.0
  0
LINE
  5
4D2
100
AcDbEntity
  8
0
 62
     0
100
AcDbLine
 10
526.226431
 20
126.4375
 30
0.0
 11
529.081595
 21
126.4375
 31
0.0
  0
LINE
  5
4D3
100
AcDbEntity
  8
0
 62
     0
100
AcDbLine
 10
525.965968
 20
128.1875
 30
0.0
 11
528.735298
 21
128.1875
 31
0.0
  0
LINE
  5
4D4
100
AcDbEntity
  8
0
 62
     0
100
AcDbLine
 10
525.602591
 20
129.9375
 30
0.0
 11
528.389
 21
129.9375
 31
0.0
  0
LINE
  5
4D5
100
AcDbEntity
  8
0
 62
     0
100
AcDbLine
 10
520.016219
 20
131.6875
 30
0.0
 11
529.014715
 21
131.6875
 31
0.0
  0
LINE
  5
4D6
100
AcDbEntity
  8
0
 62
     0
100
AcDbLine
 10
520.015829
 20
133.4375
 30
0.0
 11
529.038419
 21
133.4375
 31
0.0
  0
LINE
  5
4D7
100
AcDbEntity
  8
0
 62
     0
100
AcDbLine
 10
526.507734
 20
122.9375
 30
0.0
 11
529.77419
 21
122.9375
 31
0.0
  0
LINE
  5
4D8
100
AcDbEntity
  8
0
 62
     0
100
AcDbLine
 10
525.985662
 20
121.1875
 30
0.0
 11
530.120488
 21
121.1875
 31
0.0
  0
LINE
  5
4D9
100
AcDbEntity
  8
0
 62
     0
100
AcDbLine
 10
526.378254
 20
119.4375
 30
0.0
 11
530.466785
 21
119.4375
 31
0.0
  0
LINE
  5
4DA
100
AcDbEntity
  8
0
 62
     0
100
AcDbLine
 10
528.389852
 20
117.6875
 30
0.0
 11
530.744427
 21
117.6875
 31
0.0
  0
ENDBLK
  5
4DC
100
AcDbEntity
  8
0
100
AcDbBlockEnd
  0
BLOCK
  5
546
100
AcDbEntity
  8
0
100
AcDbBlockBegin
  2
*X13
 70
     1
 10
0.0
 20
0.0
 30
0.0
  3
*X13
  1

  0
LINE
  5
52A
100
AcDbEntity
  8
0
 62
     0
100
AcDbLine
 10
532.86126
 20
126.0
 30
0.0
 11
535.688886
 21
126.0
 31
0.0
  0
LINE
  5
52B
100
AcDbEntity
  8
0
 62
     0
100
AcDbLine
 10
533.207557
 20
127.75
 30
0.0
 11
536.063851
 21
127.75
 31
0.0
  0
LINE
  5
52C
100
AcDbEntity
  8
0
 62
     0
100
AcDbLine
 10
533.553855
 20
129.5
 30
0.0
 11
536.090576
 21
129.5
 31
0.0
  0
LINE
  5
52D
100
AcDbEntity
  8
0
 62
     0
100
AcDbLine
 10
533.014715
 20
131.25
 30
0.0
 11
542.013113
 21
131.25
 31
0.0
  0
LINE
  5
52E
100
AcDbEntity
  8
0
 62
     0
100
AcDbLine
 10
533.000186
 20
133.0
 30
0.0
 11
542.013503
 21
133.0
 31
0.0
  0
LINE
  5
52F
100
AcDbEntity
  8
0
 62
     0
100
AcDbLine
 10
532.514963
 20
124.25
 30
0.0
 11
535.234989
 21
124.25
 31
0.0
  0
LINE
  5
530
100
AcDbEntity
  8
0
 62
     0
100
AcDbLine
 10
532.168665
 20
122.5
 30
0.0
 11
535.645869
 21
122.5
 31
0.0
  0
LINE
  5
531
100
AcDbEntity
  8
0
 62
     0
100
AcDbLine
 10
531.822368
 20
120.75
 30
0.0
 11
535.934202
 21
120.75
 31
0.0
  0
LINE
  5
532
100
AcDbEntity
  8
0
 62
     0
100
AcDbLine
 10
531.47607
 20
119.0
 30
0.0
 11
535.286459
 21
119.0
 31
0.0
  0
LINE
  5
533
100
AcDbEntity
  8
0
 62
     0
100
AcDbLine
 10
532.55825
 20
124.46875
 30
0.0
 11
535.291726
 21
124.46875
 31
0.0
  0
LINE
  5
534
100
AcDbEntity
  8
0
 62
     0
100
AcDbLine
 10
532.904547
 20
126.21875
 30
0.0
 11
535.745623
 21
126.21875
 31
0.0
  0
LINE
  5
535
100
AcDbEntity
  8
0
 62
     0
100
AcDbLine
 10
533.250845
 20
127.96875
 30
0.0
 11
536.063657
 21
127.96875
 31
0.0
  0
LINE
  5
536
100
AcDbEntity
  8
0
 62
     0
100
AcDbLine
 10
533.597142
 20
129.71875
 30
0.0
 11
536.232388
 21
129.71875
 31
0.0
  0
LINE
  5
537
100
AcDbEntity
  8
0
 62
     0
100
AcDbLine
 10
533.014715
 20
131.46875
 30
0.0
 11
542.013162
 21
131.46875
 31
0.0
  0
LINE
  5
538
100
AcDbEntity
  8
0
 62
     0
100
AcDbLine
 10
533.000186
 20
133.21875
 30
0.0
 11
542.013552
 21
133.21875
 31
0.0
  0
LINE
  5
539
100
AcDbEntity
  8
0
 62
     0
100
AcDbLine
 10
532.211952
 20
122.71875
 30
0.0
 11
535.540297
 21
122.71875
 31
0.0
  0
LINE
  5
53A
100
AcDbEntity
  8
0
 62
     0
100
AcDbLine
 10
531.865655
 20
120.96875
 30
0.0
 11
535.946914
 21
120.96875
 31
0.0
  0
LINE
  5
53B
100
AcDbEntity
  8
0
 62
     0
100
AcDbLine
 10
531.519357
 20
119.21875
 30
0.0
 11
535.430795
 21
119.21875
 31
0.0
  0
LINE
  5
53C
100
AcDbEntity
  8
0
 62
     0
100
AcDbLine
 10
532.601537
 20
124.6875
 30
0.0
 11
535.348464
 21
124.6875
 31
0.0
  0
LINE
  5
53D
100
AcDbEntity
  8
0
 62
     0
100
AcDbLine
 10
532.947834
 20
126.4375
 30
0.0
 11
535.802361
 21
126.4375
 31
0.0
  0
LINE
  5
53E
100
AcDbEntity
  8
0
 62
     0
100
AcDbLine
 10
533.294132
 20
128.1875
 30
0.0
 11
536.063462
 21
128.1875
 31
0.0
  0
LINE
  5
53F
100
AcDbEntity
  8
0
 62
     0
100
AcDbLine
 10
533.640429
 20
129.9375
 30
0.0
 11
536.426839
 21
129.9375
 31
0.0
  0
LINE
  5
540
100
AcDbEntity
  8
0
 62
     0
100
AcDbLine
 10
533.014715
 20
131.6875
 30
0.0
 11
542.013211
 21
131.6875
 31
0.0
  0
LINE
  5
541
100
AcDbEntity
  8
0
 62
     0
100
AcDbLine
 10
533.000186
 20
133.4375
 30
0.0
 11
542.013601
 21
133.4375
 31
0.0
  0
LINE
  5
542
100
AcDbEntity
  8
0
 62
     0
100
AcDbLine
 10
532.255239
 20
122.9375
 30
0.0
 11
535.41526
 21
122.9375
 31
0.0
  0
LINE
  5
543
100
AcDbEntity
  8
0
 62
     0
100
AcDbLine
 10
531.908942
 20
121.1875
 30
0.0
 11
535.946135
 21
121.1875
 31
0.0
  0
LINE
  5
544
100
AcDbEntity
  8
0
 62
     0
100
AcDbLine
 10
531.562645
 20
119.4375
 30
0.0
 11
535.553466
 21
119.4375
 31
0.0
  0
LINE
  5
545
100
AcDbEntity
  8
0
 62
     0
100
AcDbLine
 10
531.28882
 20
117.6875
 30
0.0
 11
533.499274
 21
117.6875
 31
0.0
  0
ENDBLK
  5
547
100
AcDbEntity
  8
0
100
AcDbBlockEnd
  0
BLOCK
  5
297
100
AcDbEntity
  8
0
100
AcDbBlockBegin
  2
C2
 70
     0
 10
0.0
 20
0.0
 30
0.0
  3
C2
  1

  0
INSERT
  5
1E7
100
AcDbEntity
  8
GREEN
100
AcDbBlockReference
  2
*X0
 10
-872.173888
 20
-182.354329
 30
0.0
1001
ACAD
1000
HATCH
1002
{
1070
    16
1000
ANSI31
1040
3.0
1040
1.570796
1002
}
  0
LINE
  5
284
100
AcDbEntity
  8
16
100
AcDbLine
 10
0.713801
 20
57.47253
 30
0.0
 11
58.113801
 21
57.47253
 31
0.0
  0
LWPOLYLINE
  5
285
100
AcDbEntity
  8
16
100
AcDbPolyline
 90
        2
 70
     0
 43
0.0
 10
0.463801
 20
58.72253
 10
58.363801
 20
58.72253
  0
LWPOLYLINE
  5
289
100
AcDbEntity
  8
16
100
AcDbPolyline
 90
        2
 70
     0
 43
0.0
 10
-0.536199
 20
57.72253
 10
-0.536199
 20
47.501928
  0
LINE
  5
28D
100
AcDbEntity
  8
16
100
AcDbLine
 10
0.713801
 20
57.47253
 30
0.0
 11
0.706839
 21
48.134774
 31
0.0
  0
ARC
  5
28E
100
AcDbEntity
  8
16
100
AcDbCircle
 10
0.463801
 20
57.72253
 30
0.0
 40
1.0
100
AcDbArc
 50
90.0
 51
180.0
  0
ARC
  5
28F
100
AcDbEntity
  8
16
100
AcDbCircle
 10
0.21047
 20
47.57253
 30
0.0
 40
0.75
100
AcDbArc
 50
185.401626
 51
48.560768
  0
LINE
  5
290
100
AcDbEntity
  8
16
100
AcDbLine
 10
58.113801
 20
57.47253
 30
0.0
 11
58.120762
 21
48.134774
 31
0.0
  0
LWPOLYLINE
  5
291
100
AcDbEntity
  8
16
100
AcDbPolyline
 90
        2
 70
     0
 43
0.0
 10
59.363801
 20
57.72253
 10
59.363801
 20
47.501928
  0
ARC
  5
295
100
AcDbEntity
  8
16
100
AcDbCircle
 10
58.363801
 20
57.72253
 30
0.0
 40
1.0
100
AcDbArc
 50
0.0
 51
90.0
  0
ARC
  5
296
100
AcDbEntity
  8
16
100
AcDbCircle
 10
58.617131
 20
47.57253
 30
0.0
 40
0.75
100
AcDbArc
 50
131.439232
 51
354.598374
  0
ENDBLK
  5
298
100
AcDbEntity
  8
0
100
AcDbBlockEnd
  0
BLOCK
  5
69F
100
AcDbEntity
  8
0
100
AcDbBlockBegin
  2
A2
 70
     0
 10
0.0
 20
0.0
 30
0.0
  3
A2
  1

  0
LINE
  5
5F0
100
AcDbEntity
  8
16
100
AcDbLine
 10
10.30555
 20
15.146771
 30
0.0
 11
10.30555
 21
8.634339
 31
0.0
  0
LINE
  5
5F1
100
AcDbEntity
  8
16
100
AcDbLine
 10
2.147209
 20
15.381769
 30
0.0
 11
2.102866
 21
8.636968
 31
0.0
  0
LINE
  5
5F2
100
AcDbEntity
  8
16
100
AcDbLine
 10
0.80555
 20
14.318169
 30
0.0
 11
0.80555
 21
8.207154
 31
0.0
  0
INSERT
  5
5F3
100
AcDbEntity
  8
HATCH
 62
    43
100
AcDbBlockReference
  2
*X3
 10
-18.158806
 20
-345.842751
 30
0.0
1001
ACAD
1000
HATCH
1002
{
1070
    16
1000
ANSI31
1040
5.0
1040
0.0
1002
}
  0
LINE
  5
65F
100
AcDbEntity
  8
16
100
AcDbLine
 10
3.178274
 20
8.234339
 30
0.0
 11
2.502858
 21
8.234339
 31
0.0
  0
ARC
  5
660
100
AcDbEntity
  8
16
100
AcDbCircle
 10
2.502858
 20
8.634339
 30
0.0
 40
0.4
100
AcDbArc
 50
179.623319
 51
270.0
  0
ARC
  5
661
100
AcDbEntity
  8
16
100
AcDbCircle
 10
2.492394
 20
7.734339
 30
0.0
 40
0.9
100
AcDbArc
 50
270.0
 51
324.462322
  0
LINE
  5
662
100
AcDbEntity
  8
16
100
AcDbLine
 10
3.503767
 20
7.601843
 30
0.0
 11
3.224754
 21
7.211224
 31
0.0
  0
ARC
  5
663
100
AcDbEntity
  8
16
100
AcDbCircle
 10
3.178274
 20
7.834339
 30
0.0
 40
0.4
100
AcDbArc
 50
324.462322
 51
90.0
  0
LINE
  5
664
100
AcDbEntity
  8
16
100
AcDbLine
 10
1.30555
 20
7.334339
 30
0.0
 11
1.30555
 21
7.134339
 31
0.0
  0
ARC
  5
665
100
AcDbEntity
  8
16
100
AcDbCircle
 10
1.60555
 20
7.134339
 30
0.0
 40
0.3
100
AcDbArc
 50
180.0
 51
270.0
  0
ARC
  5
666
100
AcDbEntity
  8
16
100
AcDbCircle
 10
1.133322
 20
8.328223
 30
0.0
 40
0.331865
100
AcDbArc
 50
170.991932
 51
234.2257
  0
ARC
  5
667
100
AcDbEntity
  8
16
100
AcDbCircle
 10
0.40555
 20
7.334339
 30
0.0
 40
0.9
100
AcDbArc
 50
0.0
 51
53.948476
  0
LINE
  5
668
100
AcDbEntity
  8
16
100
AcDbLine
 10
2.492394
 20
6.834339
 30
0.0
 11
1.60555
 21
6.834339
 31
0.0
  0
LINE
  5
669
100
AcDbEntity
  8
16
100
AcDbLine
 10
17.421016
 20
6.834339
 30
0.0
 11
11.30555
 21
6.834339
 31
0.0
  0
LINE
  5
66A
100
AcDbEntity
  8
16
100
AcDbLine
 10
8.907332
 20
7.601843
 30
0.0
 11
9.186346
 21
7.211224
 31
0.0
  0
ARC
  5
66B
100
AcDbEntity
  8
16
100
AcDbCircle
 10
9.232825
 20
7.834339
 30
0.0
 40
0.4
100
AcDbArc
 50
90.0
 51
215.537678
  0
LINE
  5
66C
100
AcDbEntity
  8
16
100
AcDbLine
 10
9.90555
 20
8.234339
 30
0.0
 11
9.232825
 21
8.234339
 31
0.0
  0
ARC
  5
66D
100
AcDbEntity
  8
16
100
AcDbCircle
 10
9.918706
 20
7.734339
 30
0.0
 40
0.9
100
AcDbArc
 50
215.537678
 51
270.0
  0
LINE
  5
66E
100
AcDbEntity
  8
16
100
AcDbLine
 10
11.30555
 20
6.834339
 30
0.0
 11
9.918706
 21
6.834339
 31
0.0
  0
ARC
  5
66F
100
AcDbEntity
  8
16
100
AcDbCircle
 10
9.90555
 20
8.634339
 30
0.0
 40
0.4
100
AcDbArc
 50
270.0
 51
0.0
  0
LINE
  5
670
100
AcDbEntity
  8
16
100
AcDbLine
 10
10.213757
 20
6.833872
 30
0.0
 11
11.863757
 21
6.833872
 31
0.0
  0
LWPOLYLINE
  5
671
100
AcDbEntity
  8
16
100
AcDbPolyline
 90
        2
 70
     0
 43
0.0
 10
12.30555
 20
12.318867
 10
46.60555
 20
12.318867
  0
LINE
  5
675
100
AcDbEntity
  8
16
100
AcDbLine
 10
11.30555
 20
17.46523
 30
0.0
 11
2.273925
 21
17.46523
 31
0.0
  0
LINE
  5
676
100
AcDbEntity
  8
16
100
AcDbLine
 10
9.918175
 20
15.546571
 30
0.0
 11
2.559826
 21
15.77894
 31
0.0
  0
ARC
  5
677
100
AcDbEntity
  8
16
100
AcDbCircle
 10
2.273925
 20
16.46523
 30
0.0
 40
1.0
100
AcDbArc
 50
90.0
 51
140.194429
  0
ARC
  5
678
100
AcDbEntity
  8
16
100
AcDbCircle
 10
1.30555
 20
14.318169
 30
0.0
 40
0.5
100
AcDbArc
 50
147.220384
 51
180.0
  0
ARC
  5
679
100
AcDbEntity
  8
16
100
AcDbCircle
 10
2.547201
 20
15.37914
 30
0.0
 40
0.4
100
AcDbArc
 50
88.191261
 51
179.623319
  0
LINE
  5
67A
100
AcDbEntity
  8
16
100
AcDbLine
 10
1.505703
 20
17.105415
 30
0.0
 11
0.88517
 21
14.588874
 31
0.0
  0
ARC
  5
67B
100
AcDbEntity
  8
16
100
AcDbCircle
 10
9.90555
 20
15.146771
 30
0.0
 40
0.4
100
AcDbArc
 50
0.0
 51
88.191261
  0
ARC
  5
67C
100
AcDbEntity
  8
16
100
AcDbCircle
 10
11.30555
 20
16.46523
 30
0.0
 40
1.0
100
AcDbArc
 50
0.0
 51
90.0
  0
LINE
  5
67D
100
AcDbEntity
  8
16
100
AcDbLine
 10
12.30555
 20
12.318867
 30
0.0
 11
12.30555
 21
16.46523
 31
0.0
  0
LINE
  5
67E
100
AcDbEntity
  8
16
100
AcDbLine
 10
58.10555
 20
14.387277
 30
0.0
 11
58.10555
 21
8.276262
 31
0.0
  0
LINE
  5
67F
100
AcDbEntity
  8
16
100
AcDbLine
 10
56.76389
 20
15.381769
 30
0.0
 11
56.808233
 21
8.636968
 31
0.0
  0
LINE
  5
680
100
AcDbEntity
  8
16
100
AcDbLine
 10
48.60555
 20
15.146771
 30
0.0
 11
48.60555
 21
8.634339
 31
0.0
  0
LINE
  5
681
100
AcDbEntity
  8
16
100
AcDbLine
 10
41.540084
 20
6.834339
 30
0.0
 11
38.183666
 21
9.334339
 31
0.0
  0
LINE
  5
682
100
AcDbEntity
  8
16
100
AcDbLine
 10
41.540084
 20
6.834339
 30
0.0
 11
47.60555
 21
6.834339
 31
0.0
  0
LINE
  5
683
100
AcDbEntity
  8
16
100
AcDbLine
 10
50.003767
 20
7.601843
 30
0.0
 11
49.724754
 21
7.211224
 31
0.0
  0
ARC
  5
684
100
AcDbEntity
  8
16
100
AcDbCircle
 10
49.678274
 20
7.834339
 30
0.0
 40
0.4
100
AcDbArc
 50
324.462322
 51
90.0
  0
ARC
  5
685
100
AcDbEntity
  8
16
100
AcDbCircle
 10
49.00555
 20
8.634339
 30
0.0
 40
0.4
100
AcDbArc
 50
180.0
 51
270.0
  0
ARC
  5
686
100
AcDbEntity
  8
16
100
AcDbCircle
 10
48.992394
 20
7.734339
 30
0.0
 40
0.9
100
AcDbArc
 50
270.0
 51
324.462322
  0
LINE
  5
687
100
AcDbEntity
  8
16
100
AcDbLine
 10
49.00555
 20
8.234339
 30
0.0
 11
49.678274
 21
8.234339
 31
0.0
  0
LINE
  5
688
100
AcDbEntity
  8
16
100
AcDbLine
 10
47.60555
 20
6.834339
 30
0.0
 11
48.992394
 21
6.834339
 31
0.0
  0
LINE
  5
689
100
AcDbEntity
  8
16
100
AcDbLine
 10
48.854885
 20
6.838697
 30
0.0
 11
47.204885
 21
6.838697
 31
0.0
  0
LINE
  5
68A
100
AcDbEntity
  8
16
100
AcDbLine
 10
56.418706
 20
6.834339
 30
0.0
 11
57.30555
 21
6.834339
 31
0.0
  0
ARC
  5
68B
100
AcDbEntity
  8
16
100
AcDbCircle
 10
56.408242
 20
8.634339
 30
0.0
 40
0.4
100
AcDbArc
 50
270.0
 51
0.376681
  0
LINE
  5
68C
100
AcDbEntity
  8
16
100
AcDbLine
 10
55.407332
 20
7.601843
 30
0.0
 11
55.686346
 21
7.211224
 31
0.0
  0
ARC
  5
68D
100
AcDbEntity
  8
16
100
AcDbCircle
 10
56.418706
 20
7.734339
 30
0.0
 40
0.9
100
AcDbArc
 50
215.537678
 51
270.0
  0
LINE
  5
68E
100
AcDbEntity
  8
16
100
AcDbLine
 10
55.732825
 20
8.234339
 30
0.0
 11
56.408242
 21
8.234339
 31
0.0
  0
ARC
  5
68F
100
AcDbEntity
  8
16
100
AcDbCircle
 10
55.732825
 20
7.834339
 30
0.0
 40
0.4
100
AcDbArc
 50
90.0
 51
215.537678
  0
LINE
  5
690
100
AcDbEntity
  8
16
100
AcDbLine
 10
57.60555
 20
7.334339
 30
0.0
 11
57.60555
 21
7.134339
 31
0.0
  0
ARC
  5
691
100
AcDbEntity
  8
16
100
AcDbCircle
 10
57.30555
 20
7.134339
 30
0.0
 40
0.3
100
AcDbArc
 50
270.0
 51
0.0
  0
ARC
  5
692
100
AcDbEntity
  8
16
100
AcDbCircle
 10
58.50555
 20
7.334339
 30
0.0
 40
0.9
100
AcDbArc
 50
126.051524
 51
180.0
  0
ARC
  5
693
100
AcDbEntity
  8
16
100
AcDbCircle
 10
57.777777
 20
8.328223
 30
0.0
 40
0.331865
100
AcDbArc
 50
305.7743
 51
9.008068
  0
LINE
  5
694
100
AcDbEntity
  8
16
100
AcDbLine
 10
47.50015
 20
17.534339
 30
0.0
 11
56.531775
 21
17.534339
 31
0.0
  0
LINE
  5
695
100
AcDbEntity
  8
16
100
AcDbLine
 10
48.992924
 20
15.546571
 30
0.0
 11
56.351273
 21
15.77894
 31
0.0
  0
ARC
  5
696
100
AcDbEntity
  8
16
100
AcDbCircle
 10
49.00555
 20
15.146771
 30
0.0
 40
0.4
100
AcDbArc
 50
91.808739
 51
180.0
  0
LINE
  5
697
100
AcDbEntity
  8
16
100
AcDbLine
 10
46.60555
 20
12.318867
 30
0.0
 11
46.60555
 21
16.534339
 31
0.0
  0
ARC
  5
698
100
AcDbEntity
  8
16
100
AcDbCircle
 10
47.60555
 20
16.534339
 30
0.0
 40
1.0
100
AcDbArc
 50
90.0
 51
180.0
  0
ARC
  5
699
100
AcDbEntity
  8
16
100
AcDbCircle
 10
56.637175
 20
16.534339
 30
0.0
 40
1.0
100
AcDbArc
 50
39.805571
 51
90.0
  0
ARC
  5
69A
100
AcDbEntity
  8
16
100
AcDbCircle
 10
56.363898
 20
15.37914
 30
0.0
 40
0.4
100
AcDbArc
 50
0.376681
 51
91.808739
  0
ARC
  5
69B
100
AcDbEntity
  8
16
100
AcDbCircle
 10
57.60555
 20
14.387277
 30
0.0
 40
0.5
100
AcDbArc
 50
360.0
 51
32.779616
  0
LINE
  5
69C
100
AcDbEntity
  8
16
100
AcDbLine
 10
57.405396
 20
17.174523
 30
0.0
 11
58.025929
 21
14.657982
 31
0.0
  0
LINE
  5
69D
100
AcDbEntity
  8
16
100
AcDbLine
 10
20.777433
 20
9.334339
 30
0.0
 11
38.183666
 21
9.334339
 31
0.0
  0
LINE
  5
69E
100
AcDbEntity
  8
16
100
AcDbLine
 10
17.421016
 20
6.834339
 30
0.0
 11
20.777433
 21
9.334339
 31
0.0
  0
ENDBLK
  5
6A0
100
AcDbEntity
  8
0
100
AcDbBlockEnd
  0
BLOCK
  5
6A1
100
AcDbEntity
  8
0
100
AcDbBlockBegin
  2
C3
 70
     0
 10
0.0
 20
0.0
 30
0.0
  3
C3
  1

  0
INSERT
  5
5EE
100
AcDbEntity
  8
GLAS_MED_FOGNING
100
AcDbBlockReference
  2
A2
 10
-0.001393
 20
40.000181
 30
0.0
 50
359.910774
  0
ENDBLK
  5
6A2
100
AcDbEntity
  8
0
100
AcDbBlockEnd
  0
BLOCK
  5
328
100
AcDbEntity
  8
0
100
AcDbBlockBegin
  2
A3
 70
     0
 10
0.0
 20
0.0
 30
0.0
  3
A3
  1

  0
LINE
  5
2A1
100
AcDbEntity
  8
GLISTHATCH
 62
     4
100
AcDbLine
 10
5.573585
 20
24.16503
 30
0.0
 11
5.352577
 21
24.386038
 31
0.0
  0
LINE
  5
2A2
100
AcDbEntity
  8
GLISTHATCH
 62
     4
100
AcDbLine
 10
3.943432
 20
23.418834
 30
0.0
 11
5.834253
 21
25.309656
 31
0.0
  0
LINE
  5
2A3
100
AcDbEntity
  8
GLISTHATCH
 62
     4
100
AcDbLine
 10
6.01549
 20
24.607009
 30
0.0
 11
5.312843
 21
25.309656
 31
0.0
  0
LINE
  5
2A4
100
AcDbEntity
  8
GLISTHATCH
 62
     4
100
AcDbLine
 10
4.964829
 20
18.253047
 30
0.0
 11
8.35111
 21
21.639328
 31
0.0
  0
LINE
  5
2A5
100
AcDbEntity
  8
GLISTHATCH
 62
     4
100
AcDbLine
 10
5.573548
 20
18.861767
 30
0.0
 11
4.468694
 21
19.966621
 31
0.0
  0
LINE
  5
2A6
100
AcDbEntity
  8
GLISTHATCH
 62
     4
100
AcDbLine
 10
6.01549
 20
17.535941
 30
0.0
 11
4.910636
 21
18.640796
 31
0.0
  0
LINE
  5
2A7
100
AcDbEntity
  8
GLISTHATCH
 62
     4
100
AcDbLine
 10
2.561459
 20
16.733561
 30
0.0
 11
6.136909
 21
20.309011
 31
0.0
  0
LINE
  5
2A8
100
AcDbEntity
  8
GLISTHATCH
 62
     4
100
AcDbLine
 10
5.362985
 20
17.76732
 30
0.0
 11
8.964775
 21
21.36911
 31
0.0
  0
LINE
  5
2A9
100
AcDbEntity
  8
16
100
AcDbLine
 10
5.99413
 20
16.899777
 30
0.0
 11
5.106547
 21
18.119807
 31
0.0
  0
ARC
  5
2AA
100
AcDbEntity
  8
16
100
AcDbCircle
 10
6.133401
 20
21.46026
 30
0.0
 40
1.151254
100
AcDbArc
 50
195.135939
 51
271.925592
  0
ARC
  5
2AB
100
AcDbEntity
  8
16
100
AcDbCircle
 10
6.133401
 20
23.159052
 30
0.0
 40
1.151254
100
AcDbArc
 50
88.074408
 51
164.864061
  0
LINE
  5
2AC
100
AcDbEntity
  8
16
100
AcDbLine
 10
6.172085
 20
25.309656
 30
0.0
 11
4.872085
 21
25.309656
 31
0.0
  0
LINE
  5
2AD
100
AcDbEntity
  8
GLISTHATCH
 62
     4
100
AcDbLine
 10
4.689665
 20
25.048951
 30
0.0
 11
4.622335
 21
25.116281
 31
0.0
  0
LINE
  5
2AE
100
AcDbEntity
  8
GLISTHATCH
 62
     4
100
AcDbLine
 10
3.805781
 20
24.165067
 30
0.0
 11
3.626002
 21
24.344846
 31
0.0
  0
LINE
  5
2AF
100
AcDbEntity
  8
GLISTHATCH
 62
     4
100
AcDbLine
 10
2.921898
 20
23.281184
 30
0.0
 11
2.675019
 21
23.528062
 31
0.0
  0
LINE
  5
2B0
100
AcDbEntity
  8
GLISTHATCH
 62
     4
100
AcDbLine
 10
5.022085
 20
22.06488
 30
0.0
 11
4.910636
 21
22.17633
 31
0.0
  0
LINE
  5
2B1
100
AcDbEntity
  8
GLISTHATCH
 62
     4
100
AcDbLine
 10
4.077612
 20
17.706053
 30
0.0
 11
4.026752
 21
17.756912
 31
0.0
  0
LINE
  5
2B2
100
AcDbEntity
  8
GLISTHATCH
 62
     4
100
AcDbLine
 10
3.28036
 20
16.735538
 30
0.0
 11
3.142869
 21
16.873029
 31
0.0
  0
LINE
  5
2B3
100
AcDbEntity
  8
GLISTHATCH
 62
     4
100
AcDbLine
 10
0.270247
 20
20.629533
 30
0.0
 11
0.172085
 21
20.727696
 31
0.0
  0
LINE
  5
2B4
100
AcDbEntity
  8
GLISTHATCH
 62
     4
100
AcDbLine
 10
0.186769
 20
21.429938
 30
0.0
 11
0.551803
 21
21.794972
 31
0.0
  0
LINE
  5
2B5
100
AcDbEntity
  8
GLISTHATCH
 62
     4
100
AcDbLine
 10
1.51457
 20
16.733561
 30
0.0
 11
0.491218
 21
17.756912
 31
0.0
  0
LINE
  5
2B6
100
AcDbEntity
  8
GLISTHATCH
 62
     4
100
AcDbLine
 10
2.398453
 20
16.733561
 30
0.0
 11
1.817043
 21
17.31497
 31
0.0
  0
LINE
  5
2B7
100
AcDbEntity
  8
GLISTHATCH
 62
     4
100
AcDbLine
 10
3.707432
 20
17.192349
 30
0.0
 11
2.700927
 21
18.198854
 31
0.0
  0
LINE
  5
2B8
100
AcDbEntity
  8
GLISTHATCH
 62
     4
100
AcDbLine
 10
1.154131
 20
21.513417
 30
0.0
 11
0.857892
 21
21.809656
 31
0.0
  0
LINE
  5
2B9
100
AcDbEntity
  8
GLISTHATCH
 62
     4
100
AcDbLine
 10
0.172085
 20
20.531371
 30
0.0
 11
1.45037
 21
21.809656
 31
0.0
  0
LINE
  5
2BA
100
AcDbEntity
  8
GLISTHATCH
 62
     4
100
AcDbLine
 10
2.479956
 20
21.071475
 30
0.0
 11
1.741776
 21
21.809656
 31
0.0
  0
LINE
  5
2BB
100
AcDbEntity
  8
GLISTHATCH
 62
     4
100
AcDbLine
 10
3.805781
 20
20.629533
 30
0.0
 11
2.842497
 21
21.592817
 31
0.0
  0
LINE
  5
2BC
100
AcDbEntity
  8
GLISTHATCH
 62
     4
100
AcDbLine
 10
4.689665
 20
21.513417
 30
0.0
 11
4.022085
 21
22.180997
 31
0.0
  0
LINE
  5
2BD
100
AcDbEntity
  8
GLISTHATCH
 62
     4
100
AcDbLine
 10
4.014337
 20
21.721972
 30
0.0
 11
5.022085
 21
22.729721
 31
0.0
  0
LINE
  5
2BE
100
AcDbEntity
  8
GLISTHATCH
 62
     4
100
AcDbLine
 10
4.247723
 20
22.839242
 30
0.0
 11
4.022085
 21
23.06488
 31
0.0
  0
LINE
  5
2BF
100
AcDbEntity
  8
GLISTHATCH
 62
     4
100
AcDbLine
 10
4.022085
 20
22.613604
 30
0.0
 11
5.127516
 21
23.719035
 31
0.0
  0
LINE
  5
2C0
100
AcDbEntity
  8
GLISTHATCH
 62
     4
100
AcDbLine
 10
5.022085
 20
22.948764
 30
0.0
 11
4.468694
 21
23.502155
 31
0.0
  0
LINE
  5
2C1
100
AcDbEntity
  8
GLISTHATCH
 62
     4
100
AcDbLine
 10
3.705299
 20
23.381666
 30
0.0
 11
3.142869
 21
23.944097
 31
0.0
  0
LINE
  5
2C2
100
AcDbEntity
  8
GLISTHATCH
 62
     4
100
AcDbLine
 10
2.831443
 20
23.190729
 30
0.0
 11
4.95037
 21
25.309656
 31
0.0
  0
LINE
  5
2C3
100
AcDbEntity
  8
GLISTHATCH
 62
     4
100
AcDbLine
 10
5.130453
 20
23.724279
 30
0.0
 11
4.124169
 21
24.730564
 31
0.0
  0
LINE
  5
2C4
100
AcDbEntity
  8
GLISTHATCH
 62
     4
100
AcDbLine
 10
0.172085
 20
16.995837
 30
0.0
 11
5.022085
 21
21.845837
 31
0.0
  0
LINE
  5
2C5
100
AcDbEntity
  8
GLISTHATCH
 62
     4
100
AcDbLine
 10
0.172085
 20
17.879721
 30
0.0
 11
3.609769
 21
21.317404
 31
0.0
  0
LINE
  5
2C6
100
AcDbEntity
  8
GLISTHATCH
 62
     4
100
AcDbLine
 10
0.172085
 20
18.763604
 30
0.0
 11
2.954592
 21
21.546111
 31
0.0
  0
LINE
  5
2C7
100
AcDbEntity
  8
GLISTHATCH
 62
     4
100
AcDbLine
 10
0.172085
 20
19.647488
 30
0.0
 11
2.330674
 21
21.806077
 31
0.0
  0
LINE
  5
2C8
100
AcDbEntity
  8
GLISTHATCH
 62
     4
100
AcDbLine
 10
5.131607
 20
20.187592
 30
0.0
 11
4.026752
 21
21.292446
 31
0.0
  0
LINE
  5
2C9
100
AcDbEntity
  8
GLISTHATCH
 62
     4
100
AcDbLine
 10
4.247723
 20
19.303708
 30
0.0
 11
3.142869
 21
20.408563
 31
0.0
  0
LINE
  5
2CA
100
AcDbEntity
  8
GLISTHATCH
 62
     4
100
AcDbLine
 10
4.457186
 20
18.210361
 30
0.0
 11
3.58481
 21
19.082737
 31
0.0
  0
LINE
  5
2CB
100
AcDbEntity
  8
GLISTHATCH
 62
     4
100
AcDbLine
 10
2.921898
 20
19.74565
 30
0.0
 11
1.817043
 21
20.850504
 31
0.0
  0
LINE
  5
2CC
100
AcDbEntity
  8
GLISTHATCH
 62
     4
100
AcDbLine
 10
3.36384
 20
18.419825
 30
0.0
 11
2.258985
 21
19.524679
 31
0.0
  0
LINE
  5
2CD
100
AcDbEntity
  8
GLISTHATCH
 62
     4
100
AcDbLine
 10
1.596073
 20
20.187592
 30
0.0
 11
0.491218
 21
21.292446
 31
0.0
  0
LINE
  5
2CE
100
AcDbEntity
  8
GLISTHATCH
 62
     4
100
AcDbLine
 10
2.038014
 20
18.861767
 30
0.0
 11
0.93316
 21
19.966621
 31
0.0
  0
LINE
  5
2CF
100
AcDbEntity
  8
GLISTHATCH
 62
     4
100
AcDbLine
 10
2.479956
 20
17.535941
 30
0.0
 11
1.375102
 21
18.640796
 31
0.0
  0
LINE
  5
2D0
100
AcDbEntity
  8
GLISTHATCH
 62
     4
100
AcDbLine
 10
0.712189
 20
19.303708
 30
0.0
 11
0.172085
 21
19.843812
 31
0.0
  0
LINE
  5
2D1
100
AcDbEntity
  8
GLISTHATCH
 62
     4
100
AcDbLine
 10
1.154131
 20
17.977883
 30
0.0
 11
0.172085
 21
18.959929
 31
0.0
  0
LINE
  5
2D2
100
AcDbEntity
  8
GLISTHATCH
 62
     4
100
AcDbLine
 10
0.793692
 20
16.733561
 30
0.0
 11
5.072742
 21
21.012611
 31
0.0
  0
LINE
  5
2D3
100
AcDbEntity
  8
GLISTHATCH
 62
     4
100
AcDbLine
 10
1.677575
 20
16.733561
 30
0.0
 11
5.466124
 21
20.522109
 31
0.0
  0
LINE
  5
2D4
100
AcDbEntity
  8
0
 62
     0
100
AcDbLine
 10
0.270247
 20
17.094
 30
0.0
 11
0.172085
 21
17.192162
 31
0.0
  0
LINE
  5
2D5
100
AcDbEntity
  8
16
100
AcDbLine
 10
3.248981
 20
16.733561
 30
0.0
 11
0.371082
 21
16.733561
 31
0.0
  0
ARC
  5
2D6
100
AcDbEntity
  8
STALPROFIL
100
AcDbCircle
 10
0.271082
 20
16.733561
 30
0.0
 40
0.1
100
AcDbArc
 50
180.0
 51
0.0
  0
LINE
  5
2D8
100
AcDbEntity
  8
16
100
AcDbLine
 10
0.172085
 20
16.733561
 30
0.0
 11
0.172085
 21
21.309656
 31
0.0
  0
LINE
  5
2D9
100
AcDbEntity
  8
16
100
AcDbLine
 10
3.447141
 20
16.831137
 30
0.0
 11
4.375766
 21
18.119807
 31
0.0
  0
ARC
  5
2DA
100
AcDbEntity
  8
16
100
AcDbCircle
 10
3.248981
 20
16.983561
 30
0.0
 40
0.25
100
AcDbArc
 50
270.0
 51
322.432702
  0
ARC
  5
2DB
100
AcDbEntity
  8
16
100
AcDbCircle
 10
2.966829
 20
23.458442
 30
0.0
 40
0.3
100
AcDbArc
 50
135.415182
 51
315.415182
  0
LINE
  5
2DC
100
AcDbEntity
  8
16
100
AcDbLine
 10
3.180493
 20
23.247853
 30
0.0
 11
3.850864
 21
23.418782
 31
0.0
  0
LINE
  5
2DD
100
AcDbEntity
  8
16
100
AcDbLine
 10
0.672085
 20
21.809656
 30
0.0
 11
2.322085
 21
21.809656
 31
0.0
  0
LINE
  5
2DE
100
AcDbEntity
  8
16
100
AcDbLine
 10
3.522085
 20
21.309656
 30
0.0
 11
2.322085
 21
21.809656
 31
0.0
  0
ARC
  5
2DF
100
AcDbEntity
  8
16
100
AcDbCircle
 10
4.741157
 20
17.873154
 30
0.0
 40
0.440849
100
AcDbArc
 50
34.020904
 51
145.979096
  0
LINE
  5
2E0
100
AcDbEntity
  8
16
100
AcDbLine
 10
4.022085
 20
21.809656
 30
0.0
 11
4.022085
 21
23.348585
 31
0.0
  0
ARC
  5
2E1
100
AcDbEntity
  8
16
100
AcDbCircle
 10
3.522085
 20
21.809656
 30
0.0
 40
0.5
100
AcDbArc
 50
270.0
 51
0.0
  0
LINE
  5
2E2
100
AcDbEntity
  8
16
100
AcDbLine
 10
4.022085
 20
21.809656
 30
0.0
 11
4.022085
 21
22.307939
 31
0.0
  0
ARC
  5
2E3
100
AcDbEntity
  8
STALPROFIL
100
AcDbCircle
 10
3.897222
 20
23.287941
 30
0.0
 40
0.138811
100
AcDbArc
 50
25.905481
 51
109.509701
  0
LINE
  5
2E4
100
AcDbEntity
  8
16
100
AcDbLine
 10
5.022085
 20
21.159656
 30
0.0
 11
5.022085
 21
23.459656
 31
0.0
  0
LINE
  5
2E5
100
AcDbEntity
  8
16
100
AcDbLine
 10
2.753166
 20
23.669032
 30
0.0
 11
4.872085
 21
25.309656
 31
0.0
  0
ARC
  5
2E6
100
AcDbEntity
  8
16
100
AcDbCircle
 10
0.672085
 20
21.309656
 30
0.0
 40
0.5
100
AcDbArc
 50
90.0
 51
180.0
  0
LINE
  5
2E7
100
AcDbEntity
  8
GLISTHATCH
 62
     4
100
AcDbLine
 10
12.099222
 20
16.75551
 30
0.0
 11
11.663615
 21
17.191118
 31
0.0
  0
LINE
  5
2E8
100
AcDbEntity
  8
GLISTHATCH
 62
     4
100
AcDbLine
 10
7.341315
 20
20.629533
 30
0.0
 11
7.160816
 21
20.810032
 31
0.0
  0
LINE
  5
2E9
100
AcDbEntity
  8
GLISTHATCH
 62
     4
100
AcDbLine
 10
11.744842
 20
17.078109
 30
0.0
 11
12.183437
 21
17.516704
 31
0.0
  0
LINE
  5
2EA
100
AcDbEntity
  8
GLISTHATCH
 62
     4
100
AcDbLine
 10
12.180668
 20
18.441831
 30
0.0
 11
11.981703
 21
18.640796
 31
0.0
  0
LINE
  5
2EB
100
AcDbEntity
  8
GLISTHATCH
 62
     4
100
AcDbLine
 10
10.094565
 20
17.876284
 30
0.0
 11
9.771995
 21
18.198854
 31
0.0
  0
LINE
  5
2EC
100
AcDbEntity
  8
GLISTHATCH
 62
     4
100
AcDbLine
 10
6.121571
 20
16.758139
 30
0.0
 11
6.949668
 21
17.586236
 31
0.0
  0
LINE
  5
2ED
100
AcDbEntity
  8
GLISTHATCH
 62
     4
100
AcDbLine
 10
5.573418
 20
24.164937
 30
0.0
 11
6.718137
 21
25.309656
 31
0.0
  0
LINE
  5
2EE
100
AcDbEntity
  8
GLISTHATCH
 62
     4
100
AcDbLine
 10
6.551189
 20
24.258825
 30
0.0
 11
7.545167
 21
25.252803
 31
0.0
  0
LINE
  5
2EF
100
AcDbEntity
  8
GLISTHATCH
 62
     4
100
AcDbLine
 10
7.341315
 20
24.165067
 30
0.0
 11
6.236461
 21
25.269922
 31
0.0
  0
LINE
  5
2F0
100
AcDbEntity
  8
GLISTHATCH
 62
     4
100
AcDbLine
 10
7.084709
 20
23.908461
 30
0.0
 11
8.04231
 21
24.866062
 31
0.0
  0
LINE
  5
2F1
100
AcDbEntity
  8
GLISTHATCH
 62
     4
100
AcDbLine
 10
8.322085
 20
23.184298
 30
0.0
 11
8.004228
 21
23.502155
 31
0.0
  0
LINE
  5
2F2
100
AcDbEntity
  8
GLISTHATCH
 62
     4
100
AcDbLine
 10
7.322085
 20
23.261954
 30
0.0
 11
8.539453
 21
24.479321
 31
0.0
  0
LINE
  5
2F3
100
AcDbEntity
  8
GLISTHATCH
 62
     4
100
AcDbLine
 10
8.66714
 20
23.723126
 30
0.0
 11
7.562286
 21
24.82798
 31
0.0
  0
LINE
  5
2F4
100
AcDbEntity
  8
GLISTHATCH
 62
     4
100
AcDbLine
 10
9.107595
 20
23.279696
 30
0.0
 11
9.533738
 21
23.705839
 31
0.0
  0
LINE
  5
2F5
100
AcDbEntity
  8
GLISTHATCH
 62
     4
100
AcDbLine
 10
7.322085
 20
22.37807
 30
0.0
 11
9.036595
 21
24.09258
 31
0.0
  0
LINE
  5
2F6
100
AcDbEntity
  8
GLISTHATCH
 62
     4
100
AcDbLine
 10
7.322085
 20
21.494187
 30
0.0
 11
8.322085
 21
22.494187
 31
0.0
  0
LINE
  5
2F7
100
AcDbEntity
  8
GLISTHATCH
 62
     4
100
AcDbLine
 10
8.225199
 20
21.513417
 30
0.0
 11
7.322085
 21
22.416531
 31
0.0
  0
LINE
  5
2F8
100
AcDbEntity
  8
GLISTHATCH
 62
     4
100
AcDbLine
 10
7.783257
 20
22.839242
 30
0.0
 11
7.322085
 21
23.300414
 31
0.0
  0
LINE
  5
2F9
100
AcDbEntity
  8
GLISTHATCH
 62
     4
100
AcDbLine
 10
9.551024
 20
21.071475
 30
0.0
 11
9.168503
 21
21.453996
 31
0.0
  0
LINE
  5
2FA
100
AcDbEntity
  8
GLISTHATCH
 62
     4
100
AcDbLine
 10
11.760733
 20
21.513417
 30
0.0
 11
11.464494
 21
21.809656
 31
0.0
  0
LINE
  5
2FB
100
AcDbEntity
  8
GLISTHATCH
 62
     4
100
AcDbLine
 10
10.876849
 20
20.629533
 30
0.0
 11
9.79242
 21
21.713962
 31
0.0
  0
LINE
  5
2FC
100
AcDbEntity
  8
GLISTHATCH
 62
     4
100
AcDbLine
 10
6.908429
 20
17.526886
 30
0.0
 11
6.236461
 21
18.198854
 31
0.0
  0
LINE
  5
2FD
100
AcDbEntity
  8
GLISTHATCH
 62
     4
100
AcDbLine
 10
9.372248
 20
16.830834
 30
0.0
 11
8.888111
 21
17.31497
 31
0.0
  0
LINE
  5
2FE
100
AcDbEntity
  8
GLISTHATCH
 62
     4
100
AcDbLine
 10
11.00275
 20
18.103784
 30
0.0
 11
12.178162
 21
19.279196
 31
0.0
  0
LINE
  5
2FF
100
AcDbEntity
  8
GLISTHATCH
 62
     4
100
AcDbLine
 10
12.178015
 20
19.328368
 30
0.0
 11
11.539762
 21
19.966621
 31
0.0
  0
LINE
  5
300
100
AcDbEntity
  8
GLISTHATCH
 62
     4
100
AcDbLine
 10
12.175362
 20
20.214904
 30
0.0
 11
11.09782
 21
21.292446
 31
0.0
  0
LINE
  5
301
100
AcDbEntity
  8
GLISTHATCH
 62
     4
100
AcDbLine
 10
11.375211
 20
17.592362
 30
0.0
 11
12.1808
 21
18.39795
 31
0.0
  0
LINE
  5
302
100
AcDbEntity
  8
GLISTHATCH
 62
     4
100
AcDbLine
 10
8.225199
 20
17.977883
 30
0.0
 11
7.120344
 21
19.082737
 31
0.0
  0
LINE
  5
303
100
AcDbEntity
  8
GLISTHATCH
 62
     4
100
AcDbLine
 10
6.457432
 20
19.74565
 30
0.0
 11
5.861509
 21
20.341573
 31
0.0
  0
LINE
  5
304
100
AcDbEntity
  8
GLISTHATCH
 62
     4
100
AcDbLine
 10
6.899373
 20
18.419825
 30
0.0
 11
5.794519
 21
19.524679
 31
0.0
  0
LINE
  5
305
100
AcDbEntity
  8
GLISTHATCH
 62
     4
100
AcDbLine
 10
7.783257
 20
19.303708
 30
0.0
 11
6.678613
 21
20.408353
 31
0.0
  0
LINE
  5
306
100
AcDbEntity
  8
GLISTHATCH
 62
     4
100
AcDbLine
 10
7.677354
 20
18.313922
 30
0.0
 11
11.173088
 21
21.809656
 31
0.0
  0
LINE
  5
307
100
AcDbEntity
  8
GLISTHATCH
 62
     4
100
AcDbLine
 10
9.551024
 20
17.535941
 30
0.0
 11
8.44617
 21
18.640796
 31
0.0
  0
LINE
  5
308
100
AcDbEntity
  8
GLISTHATCH
 62
     4
100
AcDbLine
 10
9.109082
 20
18.861767
 30
0.0
 11
8.004228
 21
19.966621
 31
0.0
  0
LINE
  5
309
100
AcDbEntity
  8
GLISTHATCH
 62
     4
100
AcDbLine
 10
10.434907
 20
18.419825
 30
0.0
 11
9.330053
 21
19.524679
 31
0.0
  0
LINE
  5
30A
100
AcDbEntity
  8
GLISTHATCH
 62
     4
100
AcDbLine
 10
8.66714
 20
20.187592
 30
0.0
 11
7.562286
 21
21.292446
 31
0.0
  0
LINE
  5
30B
100
AcDbEntity
  8
GLISTHATCH
 62
     4
100
AcDbLine
 10
11.760733
 20
17.977883
 30
0.0
 11
10.655878
 21
19.082737
 31
0.0
  0
LINE
  5
30C
100
AcDbEntity
  8
GLISTHATCH
 62
     4
100
AcDbLine
 10
9.992966
 20
19.74565
 30
0.0
 11
8.888111
 21
20.850504
 31
0.0
  0
LINE
  5
30D
100
AcDbEntity
  8
GLISTHATCH
 62
     4
100
AcDbLine
 10
11.318791
 20
19.303708
 30
0.0
 11
10.213937
 21
20.408563
 31
0.0
  0
LINE
  5
30E
100
AcDbEntity
  8
GLISTHATCH
 62
     4
100
AcDbLine
 10
5.735216
 20
17.255668
 30
0.0
 11
10.289205
 21
21.809656
 31
0.0
  0
LINE
  5
30F
100
AcDbEntity
  8
GLISTHATCH
 62
     4
100
AcDbLine
 10
8.184306
 20
17.936991
 30
0.0
 11
11.963365
 21
21.71605
 31
0.0
  0
LINE
  5
310
100
AcDbEntity
  8
GLISTHATCH
 62
     4
100
AcDbLine
 10
8.556718
 20
17.425518
 30
0.0
 11
12.172887
 21
21.041688
 31
0.0
  0
LINE
  5
311
100
AcDbEntity
  8
GLISTHATCH
 62
     4
100
AcDbLine
 10
8.929129
 20
16.914046
 30
0.0
 11
12.175525
 21
20.160442
 31
0.0
  0
LINE
  5
312
100
AcDbEntity
  8
16
100
AcDbLine
 10
8.938088
 20
16.901742
 30
0.0
 11
8.051195
 21
18.119807
 31
0.0
  0
LINE
  5
313
100
AcDbEntity
  8
16
100
AcDbLine
 10
9.409864
 20
16.899777
 30
0.0
 11
10.265317
 21
18.119807
 31
0.0
  0
ARC
  5
314
100
AcDbEntity
  8
STALPROFIL
100
AcDbCircle
 10
9.174321
 20
16.983558
 30
0.0
 40
0.25
100
AcDbArc
 50
199.102962
 51
340.419862
  0
ARC
  5
315
100
AcDbEntity
  8
STALPROFIL
100
AcDbCircle
 10
12.054353
 20
16.908656
 30
0.0
 40
0.159583
100
AcDbArc
 50
198.480009
 51
327.057683
  0
LINE
  5
316
100
AcDbEntity
  8
16
100
AcDbLine
 10
11.902999
 20
16.858072
 30
0.0
 11
10.996098
 21
18.119807
 31
0.0
  0
LINE
  5
317
100
AcDbEntity
  8
16
100
AcDbLine
 10
12.188278
 20
16.821875
 30
0.0
 11
12.172085
 21
21.309656
 31
0.0
  0
ARC
  5
318
100
AcDbEntity
  8
STALPROFIL
100
AcDbCircle
 10
6.229673
 20
16.983558
 30
0.0
 40
0.25
100
AcDbArc
 50
199.580138
 51
340.897038
  0
LINE
  5
319
100
AcDbEntity
  8
16
100
AcDbLine
 10
6.453436
 20
16.872067
 30
0.0
 11
7.320414
 21
18.119807
 31
0.0
  0
ARC
  5
31A
100
AcDbEntity
  8
16
100
AcDbCircle
 10
6.210769
 20
21.46026
 30
0.0
 40
1.151254
100
AcDbArc
 50
268.074408
 51
344.864061
  0
ARC
  5
31B
100
AcDbEntity
  8
16
100
AcDbCircle
 10
6.210769
 20
23.159052
 30
0.0
 40
1.151254
100
AcDbArc
 50
15.135939
 51
91.925592
  0
LINE
  5
31C
100
AcDbEntity
  8
16
100
AcDbLine
 10
6.172085
 20
25.309656
 30
0.0
 11
7.472085
 21
25.309656
 31
0.0
  0
ARC
  5
31D
100
AcDbEntity
  8
16
100
AcDbCircle
 10
7.685804
 20
17.873154
 30
0.0
 40
0.440849
100
AcDbArc
 50
34.020904
 51
145.979096
  0
LINE
  5
31E
100
AcDbEntity
  8
16
100
AcDbLine
 10
7.322085
 20
21.159656
 30
0.0
 11
7.322085
 21
23.459656
 31
0.0
  0
ARC
  5
31F
100
AcDbEntity
  8
16
100
AcDbCircle
 10
9.328589
 20
23.488626
 30
0.0
 40
0.3
100
AcDbArc
 50
224.584818
 51
44.584818
  0
LINE
  5
320
100
AcDbEntity
  8
16
100
AcDbLine
 10
10.022085
 20
21.809656
 30
0.0
 11
11.672085
 21
21.809656
 31
0.0
  0
ARC
  5
321
100
AcDbEntity
  8
16
100
AcDbCircle
 10
10.630707
 20
17.873154
 30
0.0
 40
0.440849
100
AcDbArc
 50
34.020904
 51
145.979096
  0
ARC
  5
322
100
AcDbEntity
  8
16
100
AcDbCircle
 10
11.672085
 20
21.309656
 30
0.0
 40
0.5
100
AcDbArc
 50
0.0
 51
90.0
  0
LINE
  5
323
100
AcDbEntity
  8
16
100
AcDbLine
 10
8.822085
 20
21.309656
 30
0.0
 11
10.022085
 21
21.809656
 31
0.0
  0
LINE
  5
324
100
AcDbEntity
  8
16
100
AcDbLine
 10
8.322085
 20
21.809656
 30
0.0
 11
8.322085
 21
23.348585
 31
0.0
  0
ARC
  5
325
100
AcDbEntity
  8
16
100
AcDbCircle
 10
8.822079
 20
21.807221
 30
0.0
 40
0.5
100
AcDbArc
 50
179.721026
 51
269.721026
  0
LINE
  5
326
100
AcDbEntity
  8
16
100
AcDbLine
 10
9.114926
 20
23.278037
 30
0.0
 11
8.493306
 21
23.418782
 31
0.0
  0
LINE
  5
327
100
AcDbEntity
  8
16
100
AcDbLine
 10
9.542253
 20
23.699215
 30
0.0
 11
7.472085
 21
25.309656
 31
0.0
  0
ENDBLK
  5
329
100
AcDbEntity
  8
0
100
AcDbBlockEnd
  0
BLOCK
  5
7CD
100
AcDbEntity
  8
0
100
AcDbBlockBegin
  2
SP_66253_66352
 70
     0
 10
0.0
 20
0.0
 30
0.0
  3
SP_66253_66352
  1

  0
INSERT
  5
7CA
100
AcDbEntity
  8
GLAS_MED_FOGNING
100
AcDbBlockReference
  2
C3
 10
0.0
 20
0.0
 30
0.0
  0
INSERT
  5
7CB
100
AcDbEntity
  8
GLAS_MED_FOGNING
100
AcDbBlockReference
  2
A3
 10
0.0
 20
25.0
 30
0.0
  0
INSERT
  5
7CC
100
AcDbEntity
  8
GLAS_MED_FOGNING
100
AcDbBlockReference
  2
A3
 10
58.755518
 20
25.0
 30
0.0
 41
-1.0
  0
ENDBLK
  5
7CE
100
AcDbEntity
  8
0
100
AcDbBlockEnd
  0
BLOCK
  5
7D2
100
AcDbEntity
  8
0
100
AcDbBlockBegin
  2
C1
 70
     0
 10
0.0
 20
0.0
 30
0.0
  3
C1
  1

  0
INSERT
  5
7C8
100
AcDbEntity
  8
GLAS_MED_FOGNING
100
AcDbBlockReference
  2
SP_66253_66352
 10
0.0
 20
0.0
 30
0.0
  0
INSERT
  5
7CF
100
AcDbEntity
  8
GLAS_MED_FOGNING
100
AcDbBlockReference
  2
C2
 10
0.0
 20
0.0
 30
0.0
  0
ARC
  5
7D0
100
AcDbEntity
  8
STALPROFIL
100
AcDbCircle
 10
50.308461
 20
48.287673
 30
0.0
 40
0.139027
100
AcDbArc
 50
25.984976
 51
109.430206
  0
ARC
  5
7D1
100
AcDbEntity
  8
STALPROFIL
100
AcDbCircle
 10
8.451403
 20
48.277074
 30
0.0
 40
0.147774
100
AcDbArc
 50
73.527093
 51
151.057725
  0
ENDBLK
  5
7D3
100
AcDbEntity
  8
0
100
AcDbBlockEnd
  0
BLOCK
  5
5A8
100
AcDbEntity
  8
0
100
AcDbBlockBegin
  2
SP_60000_SKRUV-KNOPP
 70
     0
 10
0.0
 20
0.0
 30
0.0
  3
SP_60000_SKRUV-KNOPP
  1

  0
INSERT
  5
5A7
100
AcDbEntity
  8
GLASFOGNINGAR
100
AcDbBlockReference
  2
SP60000_SKRUV
 10
-0.717315
 20
9.21863
 30
0.0
  0
ENDBLK
  5
5A9
100
AcDbEntity
  8
0
100
AcDbBlockEnd
  0
BLOCK
  5
584
100
AcDbEntity
  8
0
100
AcDbBlockBegin
  2
A4
 70
     0
 10
0.0
 20
0.0
 30
0.0
  3
A4
  1

  0
LWPOLYLINE
  5
4AF
100
AcDbEntity
  8
PROFIL
100
AcDbPolyline
 90
        3
 70
     0
 43
0.0
 10
19.05022
 20
17.064249
 10
30.05022
 20
17.064249
 10
41.05022
 20
17.064249
  0
LWPOLYLINE
  5
4B5
100
AcDbEntity
  8
16
100
AcDbPolyline
 90
        6
 70
     0
 43
0.0
 10
26.010165
 20
6.169094
 10
25.000814
 20
10.07015
 10
25.002595
 20
12.070149
 42
0.308337
 10
23.19739
 20
13.060555
 10
19.052002
 20
13.064248
 10
19.051111
 20
17.064249
  0
INSERT
  5
4BD
100
AcDbEntity
  8
GLASFOGNINGAR
100
AcDbBlockReference
  2
*X12
 10
-500.964495
 20
-117.37657
 30
0.0
1001
ACAD
1000
HATCH
1002
{
1070
    16
1000
PLAST
1040
7.0
1040
0.0
1002
}
  0
LWPOLYLINE
  5
4DD
100
AcDbEntity
  8
16
100
AcDbPolyline
 90
        4
 70
     0
 43
0.0
 10
35.803322
 20
17.064249
 10
35.803322
 20
39.061227
 10
24.303322
 20
39.061227
 10
24.303322
 20
17.064249
  0
INSERT
  5
4E3
100
AcDbEntity
  8
GLASFOGNINGAR
100
AcDbBlockReference
  2
*X11
 10
-500.964495
 20
-117.37657
 30
0.0
1001
ACAD
1000
HATCH
1002
{
1070
    16
1000
PLAST
1040
7.0
1040
0.0
1002
}
  0
LWPOLYLINE
  5
51A
100
AcDbEntity
  8
16
100
AcDbPolyline
 90
       12
 70
     0
 43
0.0
 10
41.049329
 20
17.064249
 10
41.048439
 20
13.064248
 10
36.90305
 20
13.060555
 42
0.308337
 10
35.097845
 20
12.070149
 10
35.099627
 20
10.07015
 10
34.063472
 20
6.075255
 42
-0.77743
 10
30.256401
 20
0.333916
 10
32.775533
 20
13.064249
 10
30.05022
 20
13.064249
 10
27.324907
 20
13.064249
 10
29.84404
 20
0.333916
 42
-0.795333
 10
26.012704
 20
6.171752
  0
INSERT
  5
528
100
AcDbEntity
  8
GLASFOGNINGAR
100
AcDbBlockReference
  2
*X13
 10
-500.964495
 20
-117.37657
 30
0.0
1001
ACAD
1000
HATCH
1002
{
1070
    16
1000
PLAST
1040
7.0
1040
0.0
1002
}
  0
POINT
  5
548
100
AcDbEntity
  8
DEFPOINTS
  6
BYBLOCK
 62
     0
100
AcDbPoint
 10
27.324907
 20
13.064249
 30
0.0
  0
POINT
  5
54A
100
AcDbEntity
  8
DEFPOINTS
  6
BYBLOCK
 62
     0
100
AcDbPoint
 10
32.775533
 20
13.064249
 30
0.0
  0
LINE
  5
54B
100
AcDbEntity
  8
16
100
AcDbLine
 10
28.05022
 20
17.494394
 30
0.0
 11
28.05022
 21
16.208846
 31
0.0
  0
LINE
  5
54C
100
AcDbEntity
  8
16
100
AcDbLine
 10
28.05022
 20
15.100611
 30
0.0
 11
28.05022
 21
13.064249
 31
0.0
  0
LINE
  5
54D
100
AcDbEntity
  8
16
100
AcDbLine
 10
32.05022
 20
17.494394
 30
0.0
 11
32.05022
 21
16.075858
 31
0.0
  0
LINE
  5
54E
100
AcDbEntity
  8
16
100
AcDbLine
 10
32.05022
 20
14.878966
 30
0.0
 11
32.05022
 21
13.064249
 31
0.0
  0
POINT
  5
54F
100
AcDbEntity
  8
DEFPOINTS
  6
BYBLOCK
 62
     0
100
AcDbPoint
 10
34.600915
 20
5.375115
 30
0.0
  0
POINT
  5
550
100
AcDbEntity
  8
DEFPOINTS
  6
BYBLOCK
 62
     0
100
AcDbPoint
 10
34.597813
 20
5.378137
 30
0.0
  0
LINE
  5
551
100
AcDbEntity
  8
16
100
AcDbLine
 10
33.053322
 20
39.061227
 30
0.0
 11
33.053322
 21
38.725119
 31
0.0
  0
LINE
  5
552
100
AcDbEntity
  8
16
100
AcDbLine
 10
33.053322
 20
38.064506
 30
0.0
 11
33.053322
 21
37.261227
 31
0.0
  0
LINE
  5
553
100
AcDbEntity
  8
16
100
AcDbLine
 10
33.053322
 20
37.261227
 30
0.0
 11
32.183541
 21
37.261227
 31
0.0
  0
LINE
  5
554
100
AcDbEntity
  8
16
100
AcDbLine
 10
27.053322
 20
37.962873
 30
0.0
 11
27.053322
 21
37.261227
 31
0.0
  0
LINE
  5
555
100
AcDbEntity
  8
16
100
AcDbLine
 10
27.053322
 20
39.061227
 30
0.0
 11
27.053322
 21
38.725119
 31
0.0
  0
LINE
  5
556
100
AcDbEntity
  8
16
100
AcDbLine
 10
31.166531
 20
37.261227
 30
0.0
 11
29.386756
 21
37.261227
 31
0.0
  0
LINE
  5
557
100
AcDbEntity
  8
16
100
AcDbLine
 10
28.217189
 20
37.261227
 30
0.0
 11
27.053322
 21
37.261227
 31
0.0
  0
LINE
  5
558
100
AcDbEntity
  8
16
100
AcDbLine
 10
27.553322
 20
36.387559
 30
0.0
 11
27.553322
 21
33.745099
 31
0.0
  0
LINE
  5
559
100
AcDbEntity
  8
16
100
AcDbLine
 10
27.553322
 20
32.169785
 30
0.0
 11
27.553322
 21
29.476508
 31
0.0
  0
LINE
  5
55A
100
AcDbEntity
  8
16
100
AcDbLine
 10
32.553322
 20
32.068151
 30
0.0
 11
32.553322
 21
29.781408
 31
0.0
  0
LINE
  5
55B
100
AcDbEntity
  8
16
100
AcDbLine
 10
32.553322
 20
36.438376
 30
0.0
 11
32.553322
 21
34.100816
 31
0.0
  0
LINE
  5
55C
100
AcDbEntity
  8
16
100
AcDbLine
 10
28.05022
 20
20.02117
 30
0.0
 11
28.05022
 21
18.691286
 31
0.0
  0
LINE
  5
55D
100
AcDbEntity
  8
16
100
AcDbLine
 10
28.053322
 20
24.041227
 30
0.0
 11
28.053322
 21
22.973391
 31
0.0
  0
LINE
  5
55E
100
AcDbEntity
  8
16
100
AcDbLine
 10
28.053322
 20
22.061227
 30
0.0
 11
28.053322
 21
20.99339
 31
0.0
  0
LINE
  5
55F
100
AcDbEntity
  8
16
100
AcDbLine
 10
32.053322
 20
22.061227
 30
0.0
 11
32.053322
 21
21.126378
 31
0.0
  0
LINE
  5
560
100
AcDbEntity
  8
16
100
AcDbLine
 10
32.053322
 20
24.041227
 30
0.0
 11
32.053322
 21
23.106378
 31
0.0
  0
LINE
  5
561
100
AcDbEntity
  8
16
100
AcDbLine
 10
32.05022
 20
20.02117
 30
0.0
 11
32.05022
 21
18.646959
 31
0.0
  0
LINE
  5
562
100
AcDbEntity
  8
16
100
AcDbLine
 10
27.553322
 20
27.748744
 30
0.0
 11
27.553322
 21
25.563634
 31
0.0
  0
LINE
  5
563
100
AcDbEntity
  8
16
100
AcDbLine
 10
32.553322
 20
27.748744
 30
0.0
 11
32.553322
 21
25.258734
 31
0.0
  0
INSERT
  5
564
100
AcDbEntity
  8
GLASFOGNINGAR
100
AcDbBlockReference
  2
*X10
 10
-500.964495
 20
-117.37657
 30
0.0
1001
ACAD
1000
HATCH
1002
{
1070
    16
1000
PLAST
1040
7.0
1040
0.0
1002
}
  0
LINE
  5
583
100
AcDbEntity
  8
16
100
AcDbLine
 10
35.803322
 20
24.061227
 30
0.0
 11
24.303322
 21
24.061227
 31
0.0
  0
ENDBLK
  5
585
100
AcDbEntity
  8
0
100
AcDbBlockEnd
  0
BLOCK
  5
5A1
100
AcDbEntity
  8
0
100
AcDbBlockBegin
  2
SP_66500_GLASKNOPP
 70
     0
 10
0.0
 20
0.0
 30
0.0
  3
SP_66500_GLASKNOPP
  1

  0
INSERT
  5
4AD
100
AcDbEntity
  8
STALPROFIL
100
AcDbBlockReference
  2
A4
 10
0.0
 20
0.0
 30
0.0
  0
INSERT
  5
586
100
AcDbEntity
  8
HATCH
100
AcDbBlockReference
  2
NIT
 10
18.812269
 20
19.355177
 30
0.0
  0
ENDBLK
  5
5A2
100
AcDbEntity
  8
0
100
AcDbBlockEnd
  0
BLOCK
  5
4A7
100
AcDbEntity
  8
0
100
AcDbBlockBegin
  2
SP_66350
 70
     0
 10
0.0
 20
0.0
 30
0.0
  3
SP_66350
  1

  0
INSERT
  5
339
100
AcDbEntity
  8
GLASMFOGNING
100
AcDbBlockReference
  2
GLIST-66350
 10
-0.130287
 20
0.0
 30
0.0
  0
ENDBLK
  5
4A8
100
AcDbEntity
  8
0
100
AcDbBlockEnd
  0
BLOCK
  5
137
100
AcDbEntity
  8
0
100
AcDbBlockBegin
  2
A11
 70
     0
 10
0.0
 20
0.0
 30
0.0
  3
A11
  1

  0
LINE
  5
3A
100
AcDbEntity
  8
0
 62
    43
100
AcDbLine
 10
-53.701471
 20
56.905224
 30
0.0
 11
-54.894213
 21
58.097966
 31
0.0
  0
LINE
  5
3B
100
AcDbEntity
  8
16
100
AcDbLine
 10
-55.381769
 20
56.894177
 30
0.0
 11
-48.636968
 21
56.93852
 31
0.0
  0
LINE
  5
3D
100
AcDbEntity
  8
16
100
AcDbLine
 10
-54.387277
 20
58.235837
 30
0.0
 11
-48.276262
 21
58.235837
 31
0.0
  0
LINE
  5
3E
100
AcDbEntity
  8
16
100
AcDbLine
 10
-52.318867
 20
46.735837
 30
0.0
 11
-56.534339
 21
46.735837
 31
0.0
  0
LINE
  5
3F
100
AcDbEntity
  8
0
 62
    43
100
AcDbLine
 10
-54.138686
 20
46.735837
 30
0.0
 11
-57.534339
 21
50.13149
 31
0.0
  0
LINE
  5
40
100
AcDbEntity
  8
0
 62
    43
100
AcDbLine
 10
-53.254802
 20
46.735837
 30
0.0
 11
-55.276384
 21
48.757419
 31
0.0
  0
ARC
  5
41
100
AcDbEntity
  8
16
100
AcDbCircle
 10
-54.318169
 20
1.435837
 30
0.0
 40
0.5
100
AcDbArc
 50
237.220384
 51
270.0
  0
LINE
  5
42
100
AcDbEntity
  8
16
100
AcDbLine
 10
-52.318867
 20
12.435837
 30
0.0
 11
-56.46523
 21
12.435837
 31
0.0
  0
LINE
  5
43
100
AcDbEntity
  8
0
 62
    43
100
AcDbLine
 10
-53.194025
 20
10.435837
 30
0.0
 11
-55.194025
 21
12.435837
 31
0.0
  0
LINE
  5
44
100
AcDbEntity
  8
0
 62
    43
100
AcDbLine
 10
-54.077908
 20
10.435837
 30
0.0
 11
-56.077908
 21
12.435837
 31
0.0
  0
LINE
  5
45
100
AcDbEntity
  8
0
 62
    43
100
AcDbLine
 10
-53.416743
 20
0.935837
 30
0.0
 11
-54.754277
 21
2.273371
 31
0.0
  0
LINE
  5
46
100
AcDbEntity
  8
0
 62
    43
100
AcDbLine
 10
-54.300627
 20
0.935837
 30
0.0
 11
-57.46523
 21
4.100441
 31
0.0
  0
LINE
  5
47
100
AcDbEntity
  8
16
100
AcDbLine
 10
-55.146771
 20
10.435837
 30
0.0
 11
-48.634339
 21
10.435837
 31
0.0
  0
LINE
  5
48
100
AcDbEntity
  8
16
100
AcDbLine
 10
-55.381769
 20
2.277497
 30
0.0
 11
-48.636968
 21
2.233154
 31
0.0
  0
LINE
  5
49
100
AcDbEntity
  8
16
100
AcDbLine
 10
-55.146771
 20
48.735837
 30
0.0
 11
-48.634339
 21
48.735837
 31
0.0
  0
ARC
  5
4A
100
AcDbEntity
  8
16
100
AcDbCircle
 10
-56.46523
 20
2.404212
 30
0.0
 40
1.0
100
AcDbArc
 50
180.0
 51
230.194429
  0
LINE
  5
4B
100
AcDbEntity
  8
16
100
AcDbLine
 10
-57.105415
 20
1.635991
 30
0.0
 11
-54.588874
 21
1.015457
 31
0.0
  0
LINE
  5
4C
100
AcDbEntity
  8
16
100
AcDbLine
 10
-57.46523
 20
11.435837
 30
0.0
 11
-57.46523
 21
2.404212
 31
0.0
  0
ARC
  5
4D
100
AcDbEntity
  8
16
100
AcDbCircle
 10
-55.146771
 20
10.035837
 30
0.0
 40
0.4
100
AcDbArc
 50
90.0
 51
178.191261
  0
ARC
  5
4E
100
AcDbEntity
  8
16
100
AcDbCircle
 10
-55.37914
 20
2.677488
 30
0.0
 40
0.4
100
AcDbArc
 50
178.191261
 51
269.623319
  0
LINE
  5
4F
100
AcDbEntity
  8
16
100
AcDbLine
 10
-55.546571
 20
10.048462
 30
0.0
 11
-55.77894
 21
2.690113
 31
0.0
  0
ARC
  5
50
100
AcDbEntity
  8
16
100
AcDbCircle
 10
-56.46523
 20
11.435837
 30
0.0
 40
1.0
100
AcDbArc
 50
90.0
 51
180.0
  0
LINE
  5
51
100
AcDbEntity
  8
0
 62
    43
100
AcDbLine
 10
-54.961792
 20
10.435837
 30
0.0
 11
-56.874297
 21
12.348342
 31
0.0
  0
LINE
  5
52
100
AcDbEntity
  8
0
 62
    43
100
AcDbLine
 10
-55.536356
 20
10.126518
 30
0.0
 11
-57.336493
 21
11.926654
 31
0.0
  0
LINE
  5
53
100
AcDbEntity
  8
0
 62
    43
100
AcDbLine
 10
-55.570927
 20
9.277205
 30
0.0
 11
-57.46523
 21
11.171509
 31
0.0
  0
LINE
  5
54
100
AcDbEntity
  8
0
 62
    43
100
AcDbLine
 10
-55.597985
 20
8.420379
 30
0.0
 11
-57.46523
 21
10.287625
 31
0.0
  0
LINE
  5
55
100
AcDbEntity
  8
0
 62
    43
100
AcDbLine
 10
-55.625042
 20
7.563553
 30
0.0
 11
-57.46523
 21
9.403742
 31
0.0
  0
LINE
  5
56
100
AcDbEntity
  8
0
 62
    43
100
AcDbLine
 10
-55.6521
 20
6.706728
 30
0.0
 11
-57.46523
 21
8.519858
 31
0.0
  0
LINE
  5
57
100
AcDbEntity
  8
0
 62
    43
100
AcDbLine
 10
-55.679158
 20
5.849902
 30
0.0
 11
-57.46523
 21
7.635975
 31
0.0
  0
LINE
  5
58
100
AcDbEntity
  8
0
 62
    43
100
AcDbLine
 10
-55.706215
 20
4.993076
 30
0.0
 11
-57.46523
 21
6.752091
 31
0.0
  0
LINE
  5
59
100
AcDbEntity
  8
0
 62
    43
100
AcDbLine
 10
-55.733273
 20
4.13625
 30
0.0
 11
-57.46523
 21
5.868208
 31
0.0
  0
LINE
  5
5A
100
AcDbEntity
  8
0
 62
    43
100
AcDbLine
 10
-55.760331
 20
3.279424
 30
0.0
 11
-57.46523
 21
4.984324
 31
0.0
  0
LINE
  5
5B
100
AcDbEntity
  8
0
 62
    43
100
AcDbLine
 10
-55.485131
 20
1.236458
 30
0.0
 11
-57.46523
 21
3.216557
 31
0.0
  0
LINE
  5
5C
100
AcDbEntity
  8
0
 62
    43
100
AcDbLine
 10
-56.658296
 20
1.525739
 30
0.0
 11
-57.462466
 21
2.32991
 31
0.0
  0
LINE
  5
5D
100
AcDbEntity
  8
16
100
AcDbLine
 10
-57.534339
 20
47.735837
 30
0.0
 11
-57.534339
 21
56.767462
 31
0.0
  0
LINE
  5
5E
100
AcDbEntity
  8
16
100
AcDbLine
 10
-55.546571
 20
49.123212
 30
0.0
 11
-55.77894
 21
56.481561
 31
0.0
  0
LINE
  5
5F
100
AcDbEntity
  8
0
 62
    43
100
AcDbLine
 10
-55.629921
 20
51.762606
 30
0.0
 11
-57.534339
 21
53.667024
 31
0.0
  0
LINE
  5
60
100
AcDbEntity
  8
0
 62
    43
100
AcDbLine
 10
-55.658743
 20
52.675312
 30
0.0
 11
-57.534339
 21
54.550907
 31
0.0
  0
ARC
  5
61
100
AcDbEntity
  8
16
100
AcDbCircle
 10
-55.146771
 20
49.135837
 30
0.0
 40
0.4
100
AcDbArc
 50
181.808739
 51
270.0
  0
ARC
  5
62
100
AcDbEntity
  8
16
100
AcDbCircle
 10
-56.534339
 20
47.735837
 30
0.0
 40
1.0
100
AcDbArc
 50
180.0
 51
270.0
  0
LINE
  5
63
100
AcDbEntity
  8
0
 62
    43
100
AcDbLine
 10
-56.837349
 20
46.78285
 30
0.0
 11
-57.487326
 21
47.432827
 31
0.0
  0
LINE
  5
64
100
AcDbEntity
  8
0
 62
    43
100
AcDbLine
 10
-55.906453
 20
46.735837
 30
0.0
 11
-57.534339
 21
48.363723
 31
0.0
  0
LINE
  5
65
100
AcDbEntity
  8
0
 62
    43
100
AcDbLine
 10
-55.022569
 20
46.735837
 30
0.0
 11
-57.534339
 21
49.247606
 31
0.0
  0
LINE
  5
66
100
AcDbEntity
  8
0
 62
    43
100
AcDbLine
 10
-55.525189
 20
49.006224
 30
0.0
 11
-57.534339
 21
51.015373
 31
0.0
  0
LINE
  5
67
100
AcDbEntity
  8
0
 62
    43
100
AcDbLine
 10
-55.572276
 20
49.937194
 30
0.0
 11
-57.534339
 21
51.899257
 31
0.0
  0
LINE
  5
68
100
AcDbEntity
  8
0
 62
    43
100
AcDbLine
 10
-55.601098
 20
50.8499
 30
0.0
 11
-57.534339
 21
52.78314
 31
0.0
  0
ARC
  5
69
100
AcDbEntity
  8
16
100
AcDbCircle
 10
-54.387277
 20
57.735837
 30
0.0
 40
0.5
100
AcDbArc
 50
90.0
 51
122.779616
  0
ARC
  5
6A
100
AcDbEntity
  8
16
100
AcDbCircle
 10
-56.534339
 20
56.767462
 30
0.0
 40
1.0
100
AcDbArc
 50
129.805571
 51
180.0
  0
ARC
  5
6B
100
AcDbEntity
  8
16
100
AcDbCircle
 10
-55.37914
 20
56.494186
 30
0.0
 40
0.4
100
AcDbArc
 50
90.376681
 51
181.808739
  0
LINE
  5
6C
100
AcDbEntity
  8
16
100
AcDbLine
 10
-57.174523
 20
57.535683
 30
0.0
 11
-54.657982
 21
58.156217
 31
0.0
  0
LINE
  5
6D
100
AcDbEntity
  8
0
 62
    43
100
AcDbLine
 10
-55.687565
 20
53.588017
 30
0.0
 11
-57.534339
 21
55.434791
 31
0.0
  0
LINE
  5
6E
100
AcDbEntity
  8
0
 62
    43
100
AcDbLine
 10
-55.716388
 20
54.500723
 30
0.0
 11
-57.534339
 21
56.318674
 31
0.0
  0
LINE
  5
6F
100
AcDbEntity
  8
0
 62
    43
100
AcDbLine
 10
-55.74521
 20
55.413429
 30
0.0
 11
-57.465035
 21
57.133254
 31
0.0
  0
LINE
  5
70
100
AcDbEntity
  8
0
 62
    43
100
AcDbLine
 10
-55.774032
 20
56.326135
 30
0.0
 11
-57.02135
 21
57.573453
 31
0.0
  0
LINE
  5
71
100
AcDbEntity
  8
0
 62
    43
100
AcDbLine
 10
-55.451585
 20
56.887571
 30
0.0
 11
-56.312305
 21
57.748291
 31
0.0
  0
LINE
  5
72
100
AcDbEntity
  8
0
 62
    43
100
AcDbLine
 10
-54.579582
 20
56.899451
 30
0.0
 11
-55.603259
 21
57.923128
 31
0.0
  0
LINE
  5
73
100
AcDbEntity
  8
16
100
AcDbLine
 10
-49.334339
 20
20.90772
 30
0.0
 11
-49.334339
 21
26.849356
 31
0.0
  0
LWPOLYLINE
  5
74
100
AcDbEntity
  8
16
100
AcDbPolyline
 90
        2
 70
     0
 43
0.0
 10
-52.318867
 20
12.435837
 10
-52.318867
 20
26.915594
  0
LINE
  5
78
100
AcDbEntity
  8
0
 62
    43
100
AcDbLine
 10
-49.334339
 20
23.369937
 30
0.0
 11
-52.318867
 21
26.354465
 31
0.0
  0
LINE
  5
79
100
AcDbEntity
  8
0
 62
    43
100
AcDbLine
 10
-49.334339
 20
22.486053
 30
0.0
 11
-52.318867
 21
25.470581
 31
0.0
  0
LINE
  5
7A
100
AcDbEntity
  8
0
 62
    43
100
AcDbLine
 10
-49.334339
 20
21.60217
 30
0.0
 11
-52.318867
 21
24.586698
 31
0.0
  0
LINE
  5
7B
100
AcDbEntity
  8
0
 62
    43
100
AcDbLine
 10
-48.781355
 20
20.165303
 30
0.0
 11
-52.318867
 21
23.702814
 31
0.0
  0
LINE
  5
7C
100
AcDbEntity
  8
16
100
AcDbLine
 10
-46.833872
 20
2.644044
 30
0.0
 11
-46.834339
 21
1.735837
 31
0.0
  0
LINE
  5
7D
100
AcDbEntity
  8
16
100
AcDbLine
 10
-46.834339
 20
2.622681
 30
0.0
 11
-46.834339
 21
1.735837
 31
0.0
  0
LINE
  5
7E
100
AcDbEntity
  8
16
100
AcDbLine
 10
-47.334339
 20
1.435837
 30
0.0
 11
-47.134339
 21
1.435837
 31
0.0
  0
ARC
  5
7F
100
AcDbEntity
  8
16
100
AcDbCircle
 10
-47.134339
 20
1.735837
 30
0.0
 40
0.3
100
AcDbArc
 50
270.0
 51
0.0
  0
ARC
  5
80
100
AcDbEntity
  8
16
100
AcDbCircle
 10
-48.328223
 20
1.263609
 30
0.0
 40
0.331865
100
AcDbArc
 50
260.991932
 51
324.2257
  0
ARC
  5
81
100
AcDbEntity
  8
16
100
AcDbCircle
 10
-47.334339
 20
0.535837
 30
0.0
 40
0.9
100
AcDbArc
 50
90.0
 51
143.948476
  0
LINE
  5
82
100
AcDbEntity
  8
16
100
AcDbLine
 10
-46.834339
 20
17.551303
 30
0.0
 11
-49.334339
 21
20.90772
 31
0.0
  0
LINE
  5
83
100
AcDbEntity
  8
16
100
AcDbLine
 10
-47.601843
 20
9.037619
 30
0.0
 11
-47.211224
 21
9.316633
 31
0.0
  0
ARC
  5
84
100
AcDbEntity
  8
16
100
AcDbCircle
 10
-47.834339
 20
9.363113
 30
0.0
 40
0.4
100
AcDbArc
 50
180.0
 51
305.537678
  0
LINE
  5
85
100
AcDbEntity
  8
16
100
AcDbLine
 10
-48.234339
 20
10.035837
 30
0.0
 11
-48.234339
 21
9.363113
 31
0.0
  0
ARC
  5
86
100
AcDbEntity
  8
16
100
AcDbCircle
 10
-47.734339
 20
10.048993
 30
0.0
 40
0.9
100
AcDbArc
 50
305.537678
 51
0.0
  0
LINE
  5
87
100
AcDbEntity
  8
16
100
AcDbLine
 10
-46.834339
 20
11.435837
 30
0.0
 11
-46.834339
 21
10.048993
 31
0.0
  0
ARC
  5
88
100
AcDbEntity
  8
16
100
AcDbCircle
 10
-48.634339
 20
10.035837
 30
0.0
 40
0.4
100
AcDbArc
 50
0.0
 51
90.0
  0
LINE
  5
89
100
AcDbEntity
  8
16
100
AcDbLine
 10
-46.833872
 20
10.344044
 30
0.0
 11
-46.833872
 21
11.994044
 31
0.0
  0
LINE
  5
8A
100
AcDbEntity
  8
16
100
AcDbLine
 10
-46.834339
 20
17.551303
 30
0.0
 11
-46.834339
 21
11.435837
 31
0.0
  0
LINE
  5
8B
100
AcDbEntity
  8
16
100
AcDbLine
 10
-48.234339
 20
3.308561
 30
0.0
 11
-48.234339
 21
2.633145
 31
0.0
  0
ARC
  5
8C
100
AcDbEntity
  8
16
100
AcDbCircle
 10
-48.634339
 20
2.633145
 30
0.0
 40
0.4
100
AcDbArc
 50
269.623319
 51
0.0
  0
ARC
  5
8D
100
AcDbEntity
  8
16
100
AcDbCircle
 10
-47.734339
 20
2.622681
 30
0.0
 40
0.9
100
AcDbArc
 50
0.0
 51
54.462322
  0
LINE
  5
8E
100
AcDbEntity
  8
16
100
AcDbLine
 10
-47.601843
 20
3.634055
 30
0.0
 11
-47.211224
 21
3.355041
 31
0.0
  0
ARC
  5
8F
100
AcDbEntity
  8
16
100
AcDbCircle
 10
-47.834339
 20
3.308561
 30
0.0
 40
0.4
100
AcDbArc
 50
54.462322
 51
180.0
  0
LINE
  5
90
100
AcDbEntity
  8
0
 62
    43
100
AcDbLine
 10
-47.470329
 20
9.131558
 30
0.0
 11
-48.234339
 21
9.895568
 31
0.0
  0
LINE
  5
91
100
AcDbEntity
  8
0
 62
    43
100
AcDbLine
 10
-46.834339
 20
2.308384
 30
0.0
 11
-48.11727
 21
3.591315
 31
0.0
  0
LINE
  5
92
100
AcDbEntity
  8
0
 62
    43
100
AcDbLine
 10
-46.927951
 20
1.518112
 30
0.0
 11
-48.234339
 21
2.8245
 31
0.0
  0
LINE
  5
93
100
AcDbEntity
  8
0
 62
    43
100
AcDbLine
 10
-47.666157
 20
1.372435
 30
0.0
 11
-48.538514
 21
2.244792
 31
0.0
  0
LINE
  5
94
100
AcDbEntity
  8
0
 62
    43
100
AcDbLine
 10
-48.156957
 20
0.979352
 30
0.0
 11
-49.41588
 21
2.238274
 31
0.0
  0
LINE
  5
95
100
AcDbEntity
  8
0
 62
    43
100
AcDbLine
 10
-48.997326
 20
0.935837
 30
0.0
 11
-50.305613
 21
2.244124
 31
0.0
  0
LINE
  5
96
100
AcDbEntity
  8
0
 62
    43
100
AcDbLine
 10
-49.881209
 20
0.935837
 30
0.0
 11
-51.195346
 21
2.249973
 31
0.0
  0
LINE
  5
97
100
AcDbEntity
  8
0
 62
    43
100
AcDbLine
 10
-52.310141
 20
10.435837
 30
0.0
 11
-54.310141
 21
12.435837
 31
0.0
  0
LINE
  5
98
100
AcDbEntity
  8
0
 62
    43
100
AcDbLine
 10
-52.53286
 20
0.935837
 30
0.0
 11
-53.864544
 21
2.267522
 31
0.0
  0
LINE
  5
99
100
AcDbEntity
  8
16
100
AcDbLine
 10
-54.318169
 20
0.935837
 30
0.0
 11
-48.207154
 21
0.935837
 31
0.0
  0
LINE
  5
9A
100
AcDbEntity
  8
0
 62
    43
100
AcDbLine
 10
-46.834339
 20
17.334403
 30
0.0
 11
-52.318867
 21
22.818931
 31
0.0
  0
LINE
  5
9B
100
AcDbEntity
  8
0
 62
    43
100
AcDbLine
 10
-46.834339
 20
16.450519
 30
0.0
 11
-52.318867
 21
21.935048
 31
0.0
  0
LINE
  5
9C
100
AcDbEntity
  8
0
 62
    43
100
AcDbLine
 10
-46.834339
 20
15.566636
 30
0.0
 11
-52.318867
 21
21.051164
 31
0.0
  0
LINE
  5
9D
100
AcDbEntity
  8
0
 62
    43
100
AcDbLine
 10
-46.834339
 20
14.682752
 30
0.0
 11
-52.318867
 21
20.167281
 31
0.0
  0
LINE
  5
9E
100
AcDbEntity
  8
0
 62
    43
100
AcDbLine
 10
-46.834339
 20
13.798869
 30
0.0
 11
-52.318867
 21
19.283397
 31
0.0
  0
LINE
  5
9F
100
AcDbEntity
  8
0
 62
    43
100
AcDbLine
 10
-46.834339
 20
12.914985
 30
0.0
 11
-52.318867
 21
18.399514
 31
0.0
  0
LINE
  5
A0
100
AcDbEntity
  8
0
 62
    43
100
AcDbLine
 10
-46.834339
 20
12.031102
 30
0.0
 11
-52.318867
 21
17.51563
 31
0.0
  0
LINE
  5
A1
100
AcDbEntity
  8
0
 62
    43
100
AcDbLine
 10
-46.834339
 20
11.147218
 30
0.0
 11
-52.318867
 21
16.631747
 31
0.0
  0
LINE
  5
A2
100
AcDbEntity
  8
0
 62
    43
100
AcDbLine
 10
-46.834339
 20
10.263335
 30
0.0
 11
-52.318867
 21
15.747863
 31
0.0
  0
LINE
  5
A3
100
AcDbEntity
  8
0
 62
    43
100
AcDbLine
 10
-46.993232
 20
9.538345
 30
0.0
 11
-52.318867
 21
14.86398
 31
0.0
  0
LINE
  5
A4
100
AcDbEntity
  8
0
 62
    43
100
AcDbLine
 10
-48.774607
 20
10.435837
 30
0.0
 11
-52.318867
 21
13.980096
 31
0.0
  0
LINE
  5
A5
100
AcDbEntity
  8
0
 62
    43
100
AcDbLine
 10
-49.658491
 20
10.435837
 30
0.0
 11
-52.318867
 21
13.096213
 31
0.0
  0
LINE
  5
A6
100
AcDbEntity
  8
0
 62
    43
100
AcDbLine
 10
-50.542374
 20
10.435837
 30
0.0
 11
-52.542374
 21
12.435837
 31
0.0
  0
LINE
  5
A7
100
AcDbEntity
  8
0
 62
    43
100
AcDbLine
 10
-51.426258
 20
10.435837
 30
0.0
 11
-53.426258
 21
12.435837
 31
0.0
  0
LINE
  5
A8
100
AcDbEntity
  8
0
 62
    43
100
AcDbLine
 10
-50.765093
 20
0.935837
 30
0.0
 11
-52.085079
 21
2.255823
 31
0.0
  0
LINE
  5
A9
100
AcDbEntity
  8
0
 62
    43
100
AcDbLine
 10
-51.648976
 20
0.935837
 30
0.0
 11
-52.974812
 21
2.261672
 31
0.0
  0
LINE
  5
AA
100
AcDbEntity
  8
16
100
AcDbLine
 10
-46.834339
 20
41.670371
 30
0.0
 11
-49.334339
 21
38.313954
 31
0.0
  0
LINE
  5
AB
100
AcDbEntity
  8
16
100
AcDbLine
 10
-46.834339
 20
41.670371
 30
0.0
 11
-46.834339
 21
47.735837
 31
0.0
  0
LINE
  5
AC
100
AcDbEntity
  8
16
100
AcDbLine
 10
-47.601843
 20
50.134055
 30
0.0
 11
-47.211224
 21
49.855041
 31
0.0
  0
ARC
  5
AD
100
AcDbEntity
  8
16
100
AcDbCircle
 10
-47.834339
 20
49.808561
 30
0.0
 40
0.4
100
AcDbArc
 50
54.462322
 51
180.0
  0
ARC
  5
AE
100
AcDbEntity
  8
16
100
AcDbCircle
 10
-48.634339
 20
49.135837
 30
0.0
 40
0.4
100
AcDbArc
 50
270.0
 51
0.0
  0
ARC
  5
AF
100
AcDbEntity
  8
16
100
AcDbCircle
 10
-47.734339
 20
49.122681
 30
0.0
 40
0.9
100
AcDbArc
 50
0.0
 51
54.462322
  0
LINE
  5
B0
100
AcDbEntity
  8
16
100
AcDbLine
 10
-48.234339
 20
49.135837
 30
0.0
 11
-48.234339
 21
49.808561
 31
0.0
  0
LINE
  5
B1
100
AcDbEntity
  8
16
100
AcDbLine
 10
-46.834339
 20
47.735837
 30
0.0
 11
-46.834339
 21
49.122681
 31
0.0
  0
LINE
  5
B2
100
AcDbEntity
  8
16
100
AcDbLine
 10
-46.838697
 20
48.985172
 30
0.0
 11
-46.838697
 21
47.335172
 31
0.0
  0
LINE
  5
B3
100
AcDbEntity
  8
0
 62
    43
100
AcDbLine
 10
-49.308684
 20
25.995933
 30
0.0
 11
-49.649173
 21
26.336421
 31
0.0
  0
LINE
  5
B4
100
AcDbEntity
  8
0
 62
    43
100
AcDbLine
 10
-49.334339
 20
25.137704
 30
0.0
 11
-50.533056
 21
26.336421
 31
0.0
  0
LINE
  5
B5
100
AcDbEntity
  8
0
 62
    43
100
AcDbLine
 10
-49.334339
 20
24.25382
 30
0.0
 11
-51.41694
 21
26.336421
 31
0.0
  0
LINE
  5
B6
100
AcDbEntity
  8
0
 62
    43
100
AcDbLine
 10
-46.834339
 20
43.850907
 30
0.0
 11
-51.719268
 21
48.735837
 31
0.0
  0
LINE
  5
B7
100
AcDbEntity
  8
0
 62
    43
100
AcDbLine
 10
-46.834339
 20
44.734791
 30
0.0
 11
-50.835385
 21
48.735837
 31
0.0
  0
LINE
  5
B8
100
AcDbEntity
  8
0
 62
    43
100
AcDbLine
 10
-46.834339
 20
45.618674
 30
0.0
 11
-49.951501
 21
48.735837
 31
0.0
  0
LINE
  5
B9
100
AcDbEntity
  8
0
 62
    43
100
AcDbLine
 10
-46.834339
 20
46.502558
 30
0.0
 11
-49.067618
 21
48.735837
 31
0.0
  0
LINE
  5
BA
100
AcDbEntity
  8
0
 62
    43
100
AcDbLine
 10
-46.834339
 20
47.386441
 30
0.0
 11
-48.327328
 21
48.87943
 31
0.0
  0
LINE
  5
BB
100
AcDbEntity
  8
0
 62
    43
100
AcDbLine
 10
-46.834339
 20
48.270324
 30
0.0
 11
-48.234339
 21
49.670324
 31
0.0
  0
LINE
  5
BC
100
AcDbEntity
  8
0
 62
    43
100
AcDbLine
 10
-46.834911
 20
49.154781
 30
0.0
 11
-47.885417
 21
50.205287
 31
0.0
  0
LINE
  5
BD
100
AcDbEntity
  8
16
100
AcDbLine
 10
-49.334339
 20
33.300941
 30
0.0
 11
-49.334339
 21
38.313954
 31
0.0
  0
LINE
  5
BE
100
AcDbEntity
  8
2
100
AcDbLine
 10
-49.290468
 20
26.844658
 30
0.0
 11
-49.290468
 21
27.908918
 31
0.0
  0
LINE
  5
C0
100
AcDbEntity
  8
2
100
AcDbLine
 10
-49.290468
 20
26.844658
 30
0.0
 11
-49.290468
 21
26.344658
 31
0.0
  0
LINE
  5
C1
100
AcDbEntity
  8
2
100
AcDbLine
 10
-49.290468
 20
33.309846
 30
0.0
 11
-49.290468
 21
33.809846
 31
0.0
  0
LINE
  5
C2
100
AcDbEntity
  8
2
100
AcDbLine
 10
-49.290468
 20
32.717507
 30
0.0
 11
-49.290468
 21
33.309846
 31
0.0
  0
LINE
  5
C3
100
AcDbEntity
  8
0
 62
    43
100
AcDbLine
 10
-52.370919
 20
46.735837
 30
0.0
 11
-54.370919
 21
48.735837
 31
0.0
  0
LWPOLYLINE
  5
C4
100
AcDbEntity
  8
16
100
AcDbPolyline
 90
        2
 70
     0
 43
0.0
 10
-52.318867
 20
33.214169
 10
-52.318867
 20
46.735837
  0
LINE
  5
C8
100
AcDbEntity
  8
2
100
AcDbLine
 10
-52.740675
 20
26.844658
 30
0.0
 11
-52.740675
 21
27.660572
 31
0.0
  0
LINE
  5
C9
100
AcDbEntity
  8
2
100
AcDbLine
 10
-52.740675
 20
26.844658
 30
0.0
 11
-52.740675
 21
24.563058
 31
0.0
  0
LINE
  5
CA
100
AcDbEntity
  8
2
100
AcDbLine
 10
-52.240675
 20
26.344658
 30
0.0
 11
-52.240675
 21
24.563058
 31
0.0
  0
LINE
  5
CB
100
AcDbEntity
  8
2
100
AcDbLine
 10
-52.740675
 20
24.563058
 30
0.0
 11
-52.240675
 21
24.563058
 31
0.0
  0
LINE
  5
CC
100
AcDbEntity
  8
2
100
AcDbLine
 10
-52.740675
 20
33.309846
 30
0.0
 11
-52.740675
 21
35.591445
 31
0.0
  0
LINE
  5
CD
100
AcDbEntity
  8
2
100
AcDbLine
 10
-52.740675
 20
33.309846
 30
0.0
 11
-52.740675
 21
32.473051
 31
0.0
  0
LINE
  5
CE
100
AcDbEntity
  8
2
100
AcDbLine
 10
-52.240675
 20
33.809846
 30
0.0
 11
-52.240675
 21
35.591445
 31
0.0
  0
LINE
  5
CF
100
AcDbEntity
  8
2
100
AcDbLine
 10
-52.740675
 20
35.591445
 30
0.0
 11
-52.240675
 21
35.591445
 31
0.0
  0
LINE
  5
D0
100
AcDbEntity
  8
0
 62
    43
100
AcDbLine
 10
-51.818056
 20
33.808606
 30
0.0
 11
-52.318867
 21
34.309416
 31
0.0
  0
LINE
  5
D1
100
AcDbEntity
  8
0
 62
    43
100
AcDbLine
 10
-50.934173
 20
33.808606
 30
0.0
 11
-52.318867
 21
35.1933
 31
0.0
  0
LINE
  5
D2
100
AcDbEntity
  8
0
 62
    43
100
AcDbLine
 10
-50.050289
 20
33.808606
 30
0.0
 11
-52.318867
 21
36.077183
 31
0.0
  0
LINE
  5
D3
100
AcDbEntity
  8
0
 62
    43
100
AcDbLine
 10
-49.334339
 20
33.976538
 30
0.0
 11
-52.318867
 21
36.961067
 31
0.0
  0
LINE
  5
D4
100
AcDbEntity
  8
0
 62
    43
100
AcDbLine
 10
-49.334339
 20
34.860422
 30
0.0
 11
-52.318867
 21
37.84495
 31
0.0
  0
LINE
  5
D5
100
AcDbEntity
  8
0
 62
    43
100
AcDbLine
 10
-49.334339
 20
35.744305
 30
0.0
 11
-52.318867
 21
38.728834
 31
0.0
  0
LINE
  5
D6
100
AcDbEntity
  8
0
 62
    43
100
AcDbLine
 10
-49.334339
 20
36.628189
 30
0.0
 11
-52.318867
 21
39.612717
 31
0.0
  0
LINE
  5
D7
100
AcDbEntity
  8
0
 62
    43
100
AcDbLine
 10
-49.334339
 20
37.512072
 30
0.0
 11
-52.318867
 21
40.496601
 31
0.0
  0
LINE
  5
D8
100
AcDbEntity
  8
0
 62
    43
100
AcDbLine
 10
-49.299333
 20
38.360951
 30
0.0
 11
-52.318867
 21
41.380484
 31
0.0
  0
LINE
  5
D9
100
AcDbEntity
  8
0
 62
    43
100
AcDbLine
 10
-48.922019
 20
38.86752
 30
0.0
 11
-52.318867
 21
42.264367
 31
0.0
  0
LINE
  5
DA
100
AcDbEntity
  8
0
 62
    43
100
AcDbLine
 10
-48.544705
 20
39.374089
 30
0.0
 11
-52.318867
 21
43.148251
 31
0.0
  0
LINE
  5
DB
100
AcDbEntity
  8
0
 62
    43
100
AcDbLine
 10
-48.167391
 20
39.880659
 30
0.0
 11
-52.318867
 21
44.032134
 31
0.0
  0
LINE
  5
DC
100
AcDbEntity
  8
0
 62
    43
100
AcDbLine
 10
-47.790077
 20
40.387228
 30
0.0
 11
-52.318867
 21
44.916018
 31
0.0
  0
LINE
  5
DD
100
AcDbEntity
  8
0
 62
    43
100
AcDbLine
 10
-47.412763
 20
40.893798
 30
0.0
 11
-52.318867
 21
45.799901
 31
0.0
  0
LINE
  5
DE
100
AcDbEntity
  8
0
 62
    43
100
AcDbLine
 10
-47.035449
 20
41.400367
 30
0.0
 11
-52.318867
 21
46.683785
 31
0.0
  0
LINE
  5
DF
100
AcDbEntity
  8
0
 62
    43
100
AcDbLine
 10
-46.834339
 20
42.08314
 30
0.0
 11
-53.487035
 21
48.735837
 31
0.0
  0
LINE
  5
E0
100
AcDbEntity
  8
0
 62
    43
100
AcDbLine
 10
-46.834339
 20
42.967024
 30
0.0
 11
-52.603152
 21
48.735837
 31
0.0
  0
INSERT
  5
E1
100
AcDbEntity
  8
GLISTHATCH
100
AcDbBlockReference
  2
*X1
 10
-26.0367
 20
11.369117
 30
0.0
 50
90.0
1001
ACAD
1000
HATCH
1002
{
1070
    16
1000
CORK
1040
3.0
1040
0.785398
1002
}
  0
INSERT
  5
102
100
AcDbEntity
  8
GLISTHATCH
100
AcDbBlockReference
  2
*X2
 10
-26.0367
 20
11.369117
 30
0.0
 50
90.0
1001
ACAD
1000
HATCH
1002
{
1070
    16
1000
CORK
1040
3.0
1040
0.785398
1002
}
  0
LINE
  5
120
100
AcDbEntity
  8
2
100
AcDbLine
 10
-52.240675
 20
33.809846
 30
0.0
 11
-49.290468
 21
33.809846
 31
0.0
  0
LINE
  5
121
100
AcDbEntity
  8
2
100
AcDbLine
 10
-52.740675
 20
33.309846
 30
0.0
 11
-49.290468
 21
33.309846
 31
0.0
  0
LINE
  5
122
100
AcDbEntity
  8
2
100
AcDbLine
 10
-52.240675
 20
26.344658
 30
0.0
 11
-49.290468
 21
26.344658
 31
0.0
  0
LINE
  5
123
100
AcDbEntity
  8
2
100
AcDbLine
 10
-52.740675
 20
26.844658
 30
0.0
 11
-49.290468
 21
26.844658
 31
0.0
  0
ARC
  5
124
100
AcDbEntity
  8
16
100
AcDbCircle
 10
-48.328223
 20
57.908065
 30
0.0
 40
0.331865
100
AcDbArc
 50
35.7743
 51
99.008068
  0
LINE
  5
125
100
AcDbEntity
  8
16
100
AcDbLine
 10
-46.834339
 20
56.548993
 30
0.0
 11
-46.834339
 21
57.435837
 31
0.0
  0
ARC
  5
126
100
AcDbEntity
  8
16
100
AcDbCircle
 10
-48.634339
 20
56.538529
 30
0.0
 40
0.4
100
AcDbArc
 50
0.0
 51
90.376681
  0
LINE
  5
127
100
AcDbEntity
  8
16
100
AcDbLine
 10
-47.601843
 20
55.537619
 30
0.0
 11
-47.211224
 21
55.816633
 31
0.0
  0
ARC
  5
128
100
AcDbEntity
  8
16
100
AcDbCircle
 10
-47.734339
 20
56.548993
 30
0.0
 40
0.9
100
AcDbArc
 50
305.537678
 51
0.0
  0
LINE
  5
129
100
AcDbEntity
  8
16
100
AcDbLine
 10
-48.234339
 20
55.863113
 30
0.0
 11
-48.234339
 21
56.538529
 31
0.0
  0
ARC
  5
12A
100
AcDbEntity
  8
16
100
AcDbCircle
 10
-47.834339
 20
55.863113
 30
0.0
 40
0.4
100
AcDbArc
 50
180.0
 51
305.537678
  0
LINE
  5
12B
100
AcDbEntity
  8
16
100
AcDbLine
 10
-47.334339
 20
57.735837
 30
0.0
 11
-47.134339
 21
57.735837
 31
0.0
  0
ARC
  5
12C
100
AcDbEntity
  8
16
100
AcDbCircle
 10
-47.134339
 20
57.435837
 30
0.0
 40
0.3
100
AcDbArc
 50
0.0
 51
90.0
  0
ARC
  5
12D
100
AcDbEntity
  8
16
100
AcDbCircle
 10
-47.334339
 20
58.635837
 30
0.0
 40
0.9
100
AcDbArc
 50
216.051524
 51
270.0
  0
LINE
  5
12E
100
AcDbEntity
  8
0
 62
    43
100
AcDbLine
 10
-50.18903
 20
56.928316
 30
0.0
 11
-51.49655
 21
58.235837
 31
0.0
  0
LINE
  5
12F
100
AcDbEntity
  8
0
 62
    43
100
AcDbLine
 10
-47.839982
 20
55.463152
 30
0.0
 11
-48.234299
 21
55.857469
 31
0.0
  0
LINE
  5
130
100
AcDbEntity
  8
0
 62
    43
100
AcDbLine
 10
-49.310919
 20
56.934089
 30
0.0
 11
-50.612667
 21
58.235837
 31
0.0
  0
LINE
  5
131
100
AcDbEntity
  8
0
 62
    43
100
AcDbLine
 10
-47.268598
 20
55.775652
 30
0.0
 11
-49.728783
 21
58.235837
 31
0.0
  0
LINE
  5
132
100
AcDbEntity
  8
0
 62
    43
100
AcDbLine
 10
-46.878769
 20
56.269706
 30
0.0
 11
-48.8449
 21
58.235837
 31
0.0
  0
LINE
  5
133
100
AcDbEntity
  8
0
 62
    43
100
AcDbLine
 10
-46.834339
 20
57.109159
 30
0.0
 11
-47.471535
 21
57.746356
 31
0.0
  0
LINE
  5
134
100
AcDbEntity
  8
0
 62
    43
100
AcDbLine
 10
-52.823361
 20
56.910997
 30
0.0
 11
-54.148201
 21
58.235837
 31
0.0
  0
LINE
  5
135
100
AcDbEntity
  8
0
 62
    43
100
AcDbLine
 10
-51.94525
 20
56.91677
 30
0.0
 11
-53.264317
 21
58.235837
 31
0.0
  0
LINE
  5
136
100
AcDbEntity
  8
0
 62
    43
100
AcDbLine
 10
-51.06714
 20
56.922543
 30
0.0
 11
-52.380434
 21
58.235837
 31
0.0
  0
ENDBLK
  5
138
100
AcDbEntity
  8
0
100
AcDbBlockEnd
  0
BLOCK
  5
1E3
100
AcDbEntity
  8
0
100
AcDbBlockBegin
  2
SP-66253_ISOLATOR
 70
     0
 10
0.0
 20
0.0
 30
0.0
  3
SP-66253_ISOLATOR
  1

  0
INSERT
  5
1E2
100
AcDbEntity
  8
GLAS_MED_FOGNING
100
AcDbBlockReference
  2
A11
 10
0.0
 20
0.0
 30
0.0
 50
359.916492
  0
ENDBLK
  5
1E4
100
AcDbEntity
  8
0
100
AcDbBlockEnd
  0
BLOCK
  5
299
100
AcDbEntity
  8
0
100
AcDbBlockBegin
  2
B9
 70
     0
 10
0.0
 20
0.0
 30
0.0
  3
B9
  1

  0
INSERT
  5
13F
100
AcDbEntity
  8
GLASFOGNINGAR
100
AcDbBlockReference
  2
SP60000_SKRUV
 10
-9.635284
 20
-0.544417
 30
0.0
 50
90.0
  0
INSERT
  5
1E0
100
AcDbEntity
  8
GLAS_MED_FOGNING
100
AcDbBlockReference
  2
SP-66253_ISOLATOR
 10
0.0
 20
0.0
 30
0.0
  0
INSERT
  5
1E5
100
AcDbEntity
  8
GLAS_MED_FOGNING
100
AcDbBlockReference
  2
C2
 10
0.0
 20
0.0
 30
0.0
 50
90.0
  0
ENDBLK
  5
29A
100
AcDbEntity
  8
0
100
AcDbBlockEnd
  0
BLOCK
  5
34
100
AcDbEntity
  8
0
100
AcDbBlockBegin
  2
SIDA
 70
     0
 10
0.0
 20
0.0
 30
0.0
  3
SIDA
  1

  0
LWPOLYLINE
  5
20
100
AcDbEntity
  8
RAM
 62
     5
100
AcDbPolyline
 90
        4
 70
     1
 43
0.0
 10
-20.0
 20
35.0
 10
-20.0
 20
560.0
 10
-380.0
 20
560.0
 10
-380.0
 20
35.0
  0
LINE
  5
27
100
AcDbEntity
  8
RAM
  6
DASHDOT
 62
     6
100
AcDbLine
 10
-260.0
 20
307.5
 30
0.0
 11
-260.0
 21
287.5
 31
0.0
  0
LINE
  5
29
100
AcDbEntity
  8
RAM
  6
DASHDOT
 62
     6
100
AcDbLine
 10
-270.0
 20
167.5
 30
0.0
 11
-250.0
 21
167.5
 31
0.0
  0
LINE
  5
2A
100
AcDbEntity
  8
RAM
  6
DASHDOT
 62
     6
100
AcDbLine
 10
-260.0
 20
177.5
 30
0.0
 11
-260.0
 21
157.5
 31
0.0
  0
LINE
  5
2B
100
AcDbEntity
  8
RAM
  6
DASHDOT
 62
     6
100
AcDbLine
 10
-270.0
 20
297.5
 30
0.0
 11
-250.0
 21
297.5
 31
0.0
  0
LINE
  5
2C
100
AcDbEntity
  8
RAM
  6
DASHDOT
 62
     6
100
AcDbLine
 10
-270.0
 20
427.5
 30
0.0
 11
-250.0
 21
427.5
 31
0.0
  0
LINE
  5
2D
100
AcDbEntity
  8
RAM
  6
DASHDOT
 62
     6
100
AcDbLine
 10
-260.0
 20
437.5
 30
0.0
 11
-260.0
 21
417.5
 31
0.0
  0
LINE
  5
2E
100
AcDbEntity
  8
RAM
  6
DASHDOT
 62
     6
100
AcDbLine
 10
-140.0
 20
307.5
 30
0.0
 11
-140.0
 21
287.5
 31
0.0
  0
LINE
  5
2F
100
AcDbEntity
  8
RAM
  6
DASHDOT
 62
     6
100
AcDbLine
 10
-140.0
 20
177.5
 30
0.0
 11
-140.0
 21
157.5
 31
0.0
  0
LINE
  5
30
100
AcDbEntity
  8
RAM
  6
DASHDOT
 62
     6
100
AcDbLine
 10
-150.0
 20
167.5
 30
0.0
 11
-130.0
 21
167.5
 31
0.0
  0
LINE
  5
31
100
AcDbEntity
  8
RAM
  6
DASHDOT
 62
     6
100
AcDbLine
 10
-150.0
 20
297.5
 30
0.0
 11
-130.0
 21
297.5
 31
0.0
  0
LINE
  5
32
100
AcDbEntity
  8
RAM
  6
DASHDOT
 62
     6
100
AcDbLine
 10
-150.0
 20
427.5
 30
0.0
 11
-130.0
 21
427.5
 31
0.0
  0
LINE
  5
33
100
AcDbEntity
  8
RAM
  6
DASHDOT
 62
     6
100
AcDbLine
 10
-140.0
 20
437.5
 30
0.0
 11
-140.0
 21
417.5
 31
0.0
  0
ENDBLK
  5
35
100
AcDbEntity
  8
0
100
AcDbBlockEnd
  0
BLOCK
  5
76F
100
AcDbEntity
  8
0
100
AcDbBlockBegin
  2
*X28
 70
     1
 10
0.0
 20
0.0
 30
0.0
  3
*X28
  1

  0
LINE
  5
708
100
AcDbEntity
  8
0
 62
     0
100
AcDbLine
 10
617.877428
 20
501.204809
 30
0.0
 11
622.588485
 21
505.915866
 31
0.0
  0
LINE
  5
709
100
AcDbEntity
  8
0
 62
     0
100
AcDbLine
 10
624.444446
 20
507.771827
 30
0.0
 11
626.158956
 21
509.486337
 31
0.0
  0
LINE
  5
70A
100
AcDbEntity
  8
0
 62
     0
100
AcDbLine
 10
617.294446
 20
501.505711
 30
0.0
 11
622.195103
 21
506.406368
 31
0.0
  0
LINE
  5
70B
100
AcDbEntity
  8
0
 62
     0
100
AcDbLine
 10
624.444446
 20
508.655711
 30
0.0
 11
625.661813
 21
509.873078
 31
0.0
  0
LINE
  5
70C
100
AcDbEntity
  8
0
 62
     0
100
AcDbLine
 10
617.294446
 20
502.389594
 30
0.0
 11
622.144446
 21
507.239594
 31
0.0
  0
LINE
  5
70D
100
AcDbEntity
  8
0
 62
     0
100
AcDbLine
 10
624.20707
 20
509.302218
 30
0.0
 11
625.164671
 21
510.259819
 31
0.0
  0
LINE
  5
70E
100
AcDbEntity
  8
0
 62
     0
100
AcDbLine
 10
617.294446
 20
503.273478
 30
0.0
 11
620.73213
 21
506.711161
 31
0.0
  0
LINE
  5
70F
100
AcDbEntity
  8
0
 62
     0
100
AcDbLine
 10
623.67355
 20
509.652581
 30
0.0
 11
624.667528
 21
510.64656
 31
0.0
  0
LINE
  5
710
100
AcDbEntity
  8
0
 62
     0
100
AcDbLine
 10
621.136698
 20
507.115729
 30
0.0
 11
622.144446
 21
508.123478
 31
0.0
  0
LINE
  5
711
100
AcDbEntity
  8
0
 62
     0
100
AcDbLine
 10
617.294446
 20
504.157361
 30
0.0
 11
620.076953
 21
506.939868
 31
0.0
  0
LINE
  5
712
100
AcDbEntity
  8
0
 62
     0
100
AcDbLine
 10
622.695779
 20
509.558694
 30
0.0
 11
623.840498
 21
510.703413
 31
0.0
  0
LINE
  5
713
100
AcDbEntity
  8
0
 62
     0
100
AcDbLine
 10
621.144446
 20
508.007361
 30
0.0
 11
622.249877
 21
509.112792
 31
0.0
  0
LINE
  5
714
100
AcDbEntity
  8
0
 62
     0
100
AcDbLine
 10
617.294446
 20
505.041244
 30
0.0
 11
619.453035
 21
507.199834
 31
0.0
  0
LINE
  5
715
100
AcDbEntity
  8
0
 62
     0
100
AcDbLine
 10
621.065793
 20
508.812591
 30
0.0
 11
622.956614
 21
510.703413
 31
0.0
  0
LINE
  5
716
100
AcDbEntity
  8
0
 62
     0
100
AcDbLine
 10
617.294446
 20
505.925128
 30
0.0
 11
618.572731
 21
507.203413
 31
0.0
  0
LINE
  5
717
100
AcDbEntity
  8
0
 62
     0
100
AcDbLine
 10
619.953804
 20
508.584486
 30
0.0
 11
622.072731
 21
510.703413
 31
0.0
  0
LINE
  5
718
100
AcDbEntity
  8
0
 62
     0
100
AcDbLine
 10
617.309129
 20
506.823695
 30
0.0
 11
617.674164
 21
507.188729
 31
0.0
  0
LINE
  5
719
100
AcDbEntity
  8
0
 62
     0
100
AcDbLine
 10
618.761312
 20
501.204809
 30
0.0
 11
623.25927
 21
505.702768
 31
0.0
  0
LINE
  5
71A
100
AcDbEntity
  8
0
 62
     0
100
AcDbLine
 10
626.229956
 20
508.673453
 30
0.0
 11
626.656099
 21
509.099596
 31
0.0
  0
LINE
  5
71B
100
AcDbEntity
  8
0
 62
     0
100
AcDbLine
 10
624.444446
 20
506.887944
 30
0.0
 11
625.444446
 21
507.887944
 31
0.0
  0
LINE
  5
71C
100
AcDbEntity
  8
0
 62
     0
100
AcDbLine
 10
619.645195
 20
501.204809
 30
0.0
 11
621.168091
 21
502.727705
 31
0.0
  0
LINE
  5
71D
100
AcDbEntity
  8
0
 62
     0
100
AcDbLine
 10
622.08719
 20
503.646804
 30
0.0
 11
625.473471
 21
507.033085
 31
0.0
  0
LINE
  5
71E
100
AcDbEntity
  8
0
 62
     0
100
AcDbLine
 10
622.407274
 20
503.083005
 30
0.0
 11
626.087136
 21
506.762867
 31
0.0
  0
LINE
  5
71F
100
AcDbEntity
  8
0
 62
     0
100
AcDbLine
 10
622.666181
 20
502.458029
 30
0.0
 11
627.411565
 21
507.203413
 31
0.0
  0
LINE
  5
720
100
AcDbEntity
  8
0
 62
     0
100
AcDbLine
 10
622.925089
 20
501.833052
 30
0.0
 11
624.334458
 21
503.242422
 31
0.0
  0
LINE
  5
721
100
AcDbEntity
  8
0
 62
     0
100
AcDbLine
 10
624.799715
 20
503.707679
 30
0.0
 11
628.295449
 21
507.203413
 31
0.0
  0
LINE
  5
722
100
AcDbEntity
  8
0
 62
     0
100
AcDbLine
 10
623.219038
 20
501.243119
 30
0.0
 11
623.74647
 21
501.77055
 31
0.0
  0
LINE
  5
723
100
AcDbEntity
  8
0
 62
     0
100
AcDbLine
 10
625.266106
 20
503.290187
 30
0.0
 11
629.085726
 21
507.109806
 31
0.0
  0
LINE
  5
724
100
AcDbEntity
  8
0
 62
     0
100
AcDbLine
 10
625.525039
 20
502.665236
 30
0.0
 11
629.295248
 21
506.435445
 31
0.0
  0
LINE
  5
725
100
AcDbEntity
  8
0
 62
     0
100
AcDbLine
 10
625.783972
 20
502.040285
 30
0.0
 11
629.297886
 21
505.554199
 31
0.0
  0
LINE
  5
726
100
AcDbEntity
  8
0
 62
     0
100
AcDbLine
 10
626.042905
 20
501.415334
 30
0.0
 11
626.886898
 21
502.259328
 31
0.0
  0
LINE
  5
727
100
AcDbEntity
  8
0
 62
     0
100
AcDbLine
 10
628.125111
 20
503.497541
 30
0.0
 11
629.300523
 21
504.672953
 31
0.0
  0
LINE
  5
728
100
AcDbEntity
  8
0
 62
     0
100
AcDbLine
 10
628.384431
 20
502.872977
 30
0.0
 11
629.303161
 21
503.791707
 31
0.0
  0
LINE
  5
729
100
AcDbEntity
  8
0
 62
     0
100
AcDbLine
 10
628.643751
 20
502.248414
 30
0.0
 11
629.305798
 21
502.910461
 31
0.0
  0
LINE
  5
72A
100
AcDbEntity
  8
0
 62
     0
100
AcDbLine
 10
628.903071
 20
501.62385
 30
0.0
 11
629.308436
 21
502.029215
 31
0.0
  0
LINE
  5
72B
100
AcDbEntity
  8
0
 62
     0
100
AcDbLine
 10
626.765049
 20
501.95415
 30
0.0
 11
626.010472
 21
502.708727
 31
0.0
  0
LINE
  5
72C
100
AcDbEntity
  8
0
 62
     0
100
AcDbLine
 10
625.34756
 20
503.37164
 30
0.0
 11
624.242705
 21
504.476494
 31
0.0
  0
LINE
  5
72D
100
AcDbEntity
  8
0
 62
     0
100
AcDbLine
 10
623.579793
 20
505.139407
 30
0.0
 11
622.98387
 21
505.73533
 31
0.0
  0
LINE
  5
72E
100
AcDbEntity
  8
0
 62
     0
100
AcDbLine
 10
620.044259
 20
508.674941
 30
0.0
 11
619.79738
 21
508.921819
 31
0.0
  0
LINE
  5
72F
100
AcDbEntity
  8
0
 62
     0
100
AcDbLine
 10
621.812026
 20
506.907174
 30
0.0
 11
621.144446
 21
507.574753
 31
0.0
  0
LINE
  5
730
100
AcDbEntity
  8
0
 62
     0
100
AcDbLine
 10
626.510331
 20
501.324985
 30
0.0
 11
626.452414
 21
501.382902
 31
0.0
  0
LINE
  5
731
100
AcDbEntity
  8
0
 62
     0
100
AcDbLine
 10
625.789501
 20
502.045815
 30
0.0
 11
625.776149
 21
502.059167
 31
0.0
  0
LINE
  5
732
100
AcDbEntity
  8
0
 62
     0
100
AcDbLine
 10
624.021734
 20
503.813582
 30
0.0
 11
622.91688
 21
504.918436
 31
0.0
  0
LINE
  5
733
100
AcDbEntity
  8
0
 62
     0
100
AcDbLine
 10
622.253967
 20
505.581349
 30
0.0
 11
621.149113
 21
506.686203
 31
0.0
  0
LINE
  5
734
100
AcDbEntity
  8
0
 62
     0
100
AcDbLine
 10
624.155924
 20
502.795509
 30
0.0
 11
623.358822
 21
503.592611
 31
0.0
  0
LINE
  5
735
100
AcDbEntity
  8
0
 62
     0
100
AcDbLine
 10
622.695909
 20
504.255523
 30
0.0
 11
621.591055
 21
505.360378
 31
0.0
  0
LINE
  5
736
100
AcDbEntity
  8
0
 62
     0
100
AcDbLine
 10
620.928142
 20
506.02329
 30
0.0
 11
619.964858
 21
506.986574
 31
0.0
  0
LINE
  5
737
100
AcDbEntity
  8
0
 62
     0
100
AcDbLine
 10
623.903619
 20
502.16393
 30
0.0
 11
623.800764
 21
502.266786
 31
0.0
  0
LINE
  5
738
100
AcDbEntity
  8
0
 62
     0
100
AcDbLine
 10
623.137851
 20
502.929698
 30
0.0
 11
622.032997
 21
504.034552
 31
0.0
  0
LINE
  5
739
100
AcDbEntity
  8
0
 62
     0
100
AcDbLine
 10
621.370084
 20
504.697465
 30
0.0
 11
620.26523
 21
505.802319
 31
0.0
  0
LINE
  5
73A
100
AcDbEntity
  8
0
 62
     0
100
AcDbLine
 10
619.602317
 20
506.465232
 30
0.0
 11
618.864136
 21
507.203413
 31
0.0
  0
LINE
  5
73B
100
AcDbEntity
  8
0
 62
     0
100
AcDbLine
 10
623.579793
 20
501.603873
 30
0.0
 11
622.624131
 21
502.559535
 31
0.0
  0
LINE
  5
73C
100
AcDbEntity
  8
0
 62
     0
100
AcDbLine
 10
621.579547
 20
503.604118
 30
0.0
 11
620.707171
 21
504.476494
 31
0.0
  0
LINE
  5
73D
100
AcDbEntity
  8
0
 62
     0
100
AcDbLine
 10
620.044259
 20
505.139407
 30
0.0
 11
618.939404
 21
506.244261
 31
0.0
  0
LINE
  5
73E
100
AcDbEntity
  8
0
 62
     0
100
AcDbLine
 10
618.276492
 20
506.907174
 30
0.0
 11
617.980253
 21
507.203413
 31
0.0
  0
LINE
  5
73F
100
AcDbEntity
  8
0
 62
     0
100
AcDbLine
 10
621.287574
 20
503.012209
 30
0.0
 11
621.149113
 21
503.150669
 31
0.0
  0
LINE
  5
740
100
AcDbEntity
  8
0
 62
     0
100
AcDbLine
 10
620.4862
 20
503.813582
 30
0.0
 11
619.381346
 21
504.918436
 31
0.0
  0
LINE
  5
741
100
AcDbEntity
  8
0
 62
     0
100
AcDbLine
 10
618.718434
 20
505.581349
 30
0.0
 11
617.613579
 21
506.686203
 31
0.0
  0
LINE
  5
742
100
AcDbEntity
  8
0
 62
     0
100
AcDbLine
 10
620.928142
 20
502.487756
 30
0.0
 11
619.823288
 21
503.592611
 31
0.0
  0
LINE
  5
743
100
AcDbEntity
  8
0
 62
     0
100
AcDbLine
 10
619.160375
 20
504.255523
 30
0.0
 11
618.055521
 21
505.360378
 31
0.0
  0
LINE
  5
744
100
AcDbEntity
  8
0
 62
     0
100
AcDbLine
 10
617.392608
 20
506.02329
 30
0.0
 11
617.294446
 21
506.121453
 31
0.0
  0
LINE
  5
745
100
AcDbEntity
  8
0
 62
     0
100
AcDbLine
 10
620.76474
 20
501.767275
 30
0.0
 11
620.26523
 21
502.266786
 31
0.0
  0
LINE
  5
746
100
AcDbEntity
  8
0
 62
     0
100
AcDbLine
 10
619.602317
 20
502.929698
 30
0.0
 11
618.497463
 21
504.034552
 31
0.0
  0
LINE
  5
747
100
AcDbEntity
  8
0
 62
     0
100
AcDbLine
 10
617.83455
 20
504.697465
 30
0.0
 11
617.294446
 21
505.237569
 31
0.0
  0
LINE
  5
748
100
AcDbEntity
  8
0
 62
     0
100
AcDbLine
 10
620.044259
 20
501.603873
 30
0.0
 11
618.939404
 21
502.708727
 31
0.0
  0
LINE
  5
749
100
AcDbEntity
  8
0
 62
     0
100
AcDbLine
 10
618.276492
 20
503.37164
 30
0.0
 11
617.294446
 21
504.353686
 31
0.0
  0
LINE
  5
74A
100
AcDbEntity
  8
0
 62
     0
100
AcDbLine
 10
619.559439
 20
501.204809
 30
0.0
 11
619.381346
 21
501.382902
 31
0.0
  0
LINE
  5
74B
100
AcDbEntity
  8
0
 62
     0
100
AcDbLine
 10
618.718434
 20
502.045815
 30
0.0
 11
617.613579
 21
503.150669
 31
0.0
  0
LINE
  5
74C
100
AcDbEntity
  8
0
 62
     0
100
AcDbLine
 10
618.675555
 20
501.204809
 30
0.0
 11
618.055521
 21
501.824844
 31
0.0
  0
LINE
  5
74D
100
AcDbEntity
  8
0
 62
     0
100
AcDbLine
 10
617.392608
 20
502.487756
 30
0.0
 11
617.294446
 21
502.585919
 31
0.0
  0
LINE
  5
74E
100
AcDbEntity
  8
0
 62
     0
100
AcDbLine
 10
617.791672
 20
501.204809
 30
0.0
 11
617.294446
 21
501.702035
 31
0.0
  0
LINE
  5
74F
100
AcDbEntity
  8
0
 62
     0
100
AcDbLine
 10
626.673385
 20
502.929698
 30
0.0
 11
625.56853
 21
504.034552
 31
0.0
  0
LINE
  5
750
100
AcDbEntity
  8
0
 62
     0
100
AcDbLine
 10
624.905618
 20
504.697465
 30
0.0
 11
623.800973
 21
505.80211
 31
0.0
  0
LINE
  5
751
100
AcDbEntity
  8
0
 62
     0
100
AcDbLine
 10
620.82766
 20
508.775423
 30
0.0
 11
620.26523
 21
509.337853
 31
0.0
  0
LINE
  5
752
100
AcDbEntity
  8
0
 62
     0
100
AcDbLine
 10
622.144446
 20
507.458637
 30
0.0
 11
622.032997
 21
507.570086
 31
0.0
  0
LINE
  5
753
100
AcDbEntity
  8
0
 62
     0
100
AcDbLine
 10
621.370084
 20
508.232999
 30
0.0
 11
621.144446
 21
508.458637
 31
0.0
  0
LINE
  5
754
100
AcDbEntity
  8
0
 62
     0
100
AcDbLine
 10
629.249222
 20
501.237745
 30
0.0
 11
628.931438
 21
501.555528
 31
0.0
  0
LINE
  5
755
100
AcDbEntity
  8
0
 62
     0
100
AcDbLine
 10
622.144446
 20
508.34252
 30
0.0
 11
621.591055
 21
508.895912
 31
0.0
  0
LINE
  5
756
100
AcDbEntity
  8
0
 62
     0
100
AcDbLine
 10
620.928142
 20
509.558824
 30
0.0
 11
620.748363
 21
509.738603
 31
0.0
  0
LINE
  5
757
100
AcDbEntity
  8
0
 62
     0
100
AcDbLine
 10
627.269468
 20
503.217499
 30
0.0
 11
626.894356
 21
503.592611
 31
0.0
  0
LINE
  5
758
100
AcDbEntity
  8
0
 62
     0
100
AcDbLine
 10
626.231443
 20
504.255523
 30
0.0
 11
625.126589
 21
505.360378
 31
0.0
  0
LINE
  5
759
100
AcDbEntity
  8
0
 62
     0
100
AcDbLine
 10
624.463676
 20
506.02329
 30
0.0
 11
624.283177
 21
506.203789
 31
0.0
  0
LINE
  5
75A
100
AcDbEntity
  8
0
 62
     0
100
AcDbLine
 10
629.308336
 20
502.062514
 30
0.0
 11
628.303889
 21
503.066961
 31
0.0
  0
LINE
  5
75B
100
AcDbEntity
  8
0
 62
     0
100
AcDbLine
 10
622.252814
 20
509.118036
 30
0.0
 11
621.24653
 21
510.12432
 31
0.0
  0
LINE
  5
75C
100
AcDbEntity
  8
0
 62
     0
100
AcDbLine
 10
627.557268
 20
503.813582
 30
0.0
 11
626.452414
 21
504.918436
 31
0.0
  0
LINE
  5
75D
100
AcDbEntity
  8
0
 62
     0
100
AcDbLine
 10
625.789501
 20
505.581349
 30
0.0
 11
624.684647
 21
506.686203
 31
0.0
  0
LINE
  5
75E
100
AcDbEntity
  8
0
 62
     0
100
AcDbLine
 10
628.883094
 20
503.37164
 30
0.0
 11
627.778239
 21
504.476494
 31
0.0
  0
LINE
  5
75F
100
AcDbEntity
  8
0
 62
     0
100
AcDbLine
 10
627.115327
 20
505.139407
 30
0.0
 11
626.010472
 21
506.244261
 31
0.0
  0
LINE
  5
760
100
AcDbEntity
  8
0
 62
     0
100
AcDbLine
 10
625.34756
 20
506.907174
 30
0.0
 11
624.444446
 21
507.810287
 31
0.0
  0
LINE
  5
761
100
AcDbEntity
  8
0
 62
     0
100
AcDbLine
 10
622.695946
 20
509.558787
 30
0.0
 11
622.474938
 21
509.779795
 31
0.0
  0
LINE
  5
762
100
AcDbEntity
  8
0
 62
     0
100
AcDbLine
 10
621.812026
 20
510.442708
 30
0.0
 11
621.744696
 21
510.510038
 31
0.0
  0
LINE
  5
763
100
AcDbEntity
  8
0
 62
     0
100
AcDbLine
 10
629.303029
 20
503.835588
 30
0.0
 11
629.104064
 21
504.034552
 31
0.0
  0
LINE
  5
764
100
AcDbEntity
  8
0
 62
     0
100
AcDbLine
 10
628.441152
 20
504.697465
 30
0.0
 11
627.336297
 21
505.802319
 31
0.0
  0
LINE
  5
765
100
AcDbEntity
  8
0
 62
     0
100
AcDbLine
 10
626.673385
 20
506.465232
 30
0.0
 11
626.290864
 21
506.847753
 31
0.0
  0
LINE
  5
766
100
AcDbEntity
  8
0
 62
     0
100
AcDbLine
 10
623.137851
 20
510.000766
 30
0.0
 11
622.435204
 21
510.703413
 31
0.0
  0
LINE
  5
767
100
AcDbEntity
  8
0
 62
     0
100
AcDbLine
 10
624.905618
 20
508.232999
 30
0.0
 11
624.444446
 21
508.694171
 31
0.0
  0
LINE
  5
768
100
AcDbEntity
  8
0
 62
     0
100
AcDbLine
 10
629.300376
 20
504.722124
 30
0.0
 11
628.662123
 21
505.360378
 31
0.0
  0
LINE
  5
769
100
AcDbEntity
  8
0
 62
     0
100
AcDbLine
 10
627.99921
 20
506.02329
 30
0.0
 11
626.914781
 21
507.107719
 31
0.0
  0
LINE
  5
76A
100
AcDbEntity
  8
0
 62
     0
100
AcDbLine
 10
625.444446
 20
508.578054
 30
0.0
 11
625.126589
 21
508.895912
 31
0.0
  0
LINE
  5
76B
100
AcDbEntity
  8
0
 62
     0
100
AcDbLine
 10
624.463676
 20
509.558824
 30
0.0
 11
623.358822
 21
510.663679
 31
0.0
  0
LINE
  5
76C
100
AcDbEntity
  8
0
 62
     0
100
AcDbLine
 10
629.297723
 20
505.608661
 30
0.0
 11
628.220181
 21
506.686203
 31
0.0
  0
LINE
  5
76D
100
AcDbEntity
  8
0
 62
     0
100
AcDbLine
 10
625.789501
 20
509.116882
 30
0.0
 11
624.684647
 21
510.221737
 31
0.0
  0
LINE
  5
76E
100
AcDbEntity
  8
0
 62
     0
100
AcDbLine
 10
628.883094
 20
506.907174
 30
0.0
 11
628.586855
 21
507.203413
 31
0.0
  0
ENDBLK
  5
770
100
AcDbEntity
  8
0
100
AcDbBlockEnd
  0
BLOCK
  5
7C1
100
AcDbEntity
  8
0
100
AcDbBlockBegin
  2
SP_66362_STANDARD
 70
     0
 10
0.0
 20
0.0
 30
0.0
  3
SP_66362_STANDARD
  1

  0
LINE
  5
6FE
100
AcDbEntity
  8
16
100
AcDbLine
 10
12.325797
 20
-19.116409
 30
0.0
 11
12.309605
 21
-13.70612
 31
0.0
  0
LINE
  5
6FF
100
AcDbEntity
  8
16
100
AcDbLine
 10
3.58466
 20
-19.107147
 30
0.0
 11
4.513286
 21
-16.895969
 31
0.0
  0
LINE
  5
700
100
AcDbEntity
  8
16
100
AcDbLine
 10
6.131649
 20
-19.038507
 30
0.0
 11
5.244067
 21
-16.895969
 31
0.0
  0
LINE
  5
701
100
AcDbEntity
  8
16
100
AcDbLine
 10
9.547384
 20
-19.038507
 30
0.0
 11
10.402836
 21
-16.895969
 31
0.0
  0
LINE
  5
702
100
AcDbEntity
  8
16
100
AcDbLine
 10
6.590956
 20
-19.066217
 30
0.0
 11
7.457933
 21
-16.895969
 31
0.0
  0
LINE
  5
703
100
AcDbEntity
  8
16
100
AcDbLine
 10
9.075608
 20
-19.036542
 30
0.0
 11
8.188714
 21
-16.895969
 31
0.0
  0
LINE
  5
704
100
AcDbEntity
  8
16
100
AcDbLine
 10
0.309605
 20
-19.204724
 30
0.0
 11
0.309605
 21
-13.70612
 31
0.0
  0
LINE
  5
705
100
AcDbEntity
  8
16
100
AcDbLine
 10
12.040518
 20
-19.080212
 30
0.0
 11
11.133617
 21
-16.895969
 31
0.0
  0
INSERT
  5
706
100
AcDbEntity
  8
GLISTHATCH
100
AcDbBlockReference
  2
*X28
 10
-616.984841
 20
-520.409533
 30
0.0
1001
ACAD
1000
HATCH
1002
{
1070
    16
1000
ANSI38
1040
5.0
1040
0.0
1002
}
  0
ARC
  5
771
100
AcDbEntity
  8
STALPROFIL
100
AcDbCircle
 10
12.191872
 20
-19.029629
 30
0.0
 40
0.159583
100
AcDbArc
 50
198.480009
 51
327.057683
  0
LINE
  5
772
100
AcDbEntity
  8
16
100
AcDbLine
 10
3.386501
 20
-19.204724
 30
0.0
 11
0.508602
 21
-19.204724
 31
0.0
  0
ARC
  5
773
100
AcDbEntity
  8
STALPROFIL
100
AcDbCircle
 10
0.408602
 20
-19.204724
 30
0.0
 40
0.1
100
AcDbArc
 50
180.0
 51
0.0
  0
ARC
  5
774
100
AcDbEntity
  8
16
100
AcDbCircle
 10
3.386501
 20
-18.954724
 30
0.0
 40
0.25
100
AcDbArc
 50
270.0
 51
322.432702
  0
ARC
  5
775
100
AcDbEntity
  8
STALPROFIL
100
AcDbCircle
 10
9.311841
 20
-18.954726
 30
0.0
 40
0.25
100
AcDbArc
 50
199.102962
 51
340.419862
  0
ARC
  5
776
100
AcDbEntity
  8
STALPROFIL
100
AcDbCircle
 10
6.367193
 20
-18.954726
 30
0.0
 40
0.25
100
AcDbArc
 50
199.580138
 51
340.897038
  0
ARC
  5
777
100
AcDbEntity
  8
16
100
AcDbCircle
 10
11.809605
 20
-13.70612
 30
0.0
 40
0.5
100
AcDbArc
 50
0.0
 51
90.0
  0
LINE
  5
778
100
AcDbEntity
  8
16
100
AcDbLine
 10
6.309605
 20
-9.70612
 30
0.0
 11
7.609605
 21
-9.70612
 31
0.0
  0
LINE
  5
779
100
AcDbEntity
  8
16
100
AcDbLine
 10
6.309605
 20
-9.70612
 30
0.0
 11
5.009605
 21
-9.70612
 31
0.0
  0
LINE
  5
77A
100
AcDbEntity
  8
16
100
AcDbLine
 10
0.809605
 20
-13.20612
 30
0.0
 11
2.459605
 21
-13.20612
 31
0.0
  0
ARC
  5
77B
100
AcDbEntity
  8
16
100
AcDbCircle
 10
0.809605
 20
-13.70612
 30
0.0
 40
0.5
100
AcDbArc
 50
90.0
 51
180.0
  0
ARC
  5
77C
100
AcDbEntity
  8
16
100
AcDbCircle
 10
3.104349
 20
-11.557334
 30
0.0
 40
0.3
100
AcDbArc
 50
135.415182
 51
315.415182
  0
ARC
  5
77D
100
AcDbEntity
  8
STALPROFIL
100
AcDbCircle
 10
4.034742
 20
-11.727836
 30
0.0
 40
0.138811
100
AcDbArc
 50
25.905481
 51
109.509701
  0
LINE
  5
77E
100
AcDbEntity
  8
16
100
AcDbLine
 10
3.318013
 20
-11.767923
 30
0.0
 11
3.988384
 21
-11.596994
 31
0.0
  0
LINE
  5
77F
100
AcDbEntity
  8
16
100
AcDbLine
 10
4.159605
 20
-13.20612
 30
0.0
 11
4.159605
 21
-12.707838
 31
0.0
  0
ARC
  5
780
100
AcDbEntity
  8
16
100
AcDbCircle
 10
3.659605
 20
-13.20612
 30
0.0
 40
0.5
100
AcDbArc
 50
270.0
 51
0.0
  0
LINE
  5
781
100
AcDbEntity
  8
16
100
AcDbLine
 10
4.159605
 20
-13.20612
 30
0.0
 11
4.159605
 21
-11.667191
 31
0.0
  0
LINE
  5
782
100
AcDbEntity
  8
16
100
AcDbLine
 10
3.659605
 20
-13.70612
 30
0.0
 11
2.459605
 21
-13.20612
 31
0.0
  0
LINE
  5
783
100
AcDbEntity
  8
16
100
AcDbLine
 10
9.252445
 20
-11.73774
 30
0.0
 11
8.630826
 21
-11.596994
 31
0.0
  0
ARC
  5
784
100
AcDbEntity
  8
16
100
AcDbCircle
 10
9.466109
 20
-11.52715
 30
0.0
 40
0.3
100
AcDbArc
 50
224.584818
 51
44.584818
  0
LINE
  5
785
100
AcDbEntity
  8
16
100
AcDbLine
 10
8.959605
 20
-13.70612
 30
0.0
 11
10.159605
 21
-13.20612
 31
0.0
  0
ARC
  5
786
100
AcDbEntity
  8
16
100
AcDbCircle
 10
8.959599
 20
-13.208555
 30
0.0
 40
0.5
100
AcDbArc
 50
179.721026
 51
269.721026
  0
LINE
  5
787
100
AcDbEntity
  8
16
100
AcDbLine
 10
7.459605
 20
-13.85612
 30
0.0
 11
7.459605
 21
-11.55612
 31
0.0
  0
LINE
  5
788
100
AcDbEntity
  8
16
100
AcDbLine
 10
5.159605
 20
-13.85612
 30
0.0
 11
5.159605
 21
-11.55612
 31
0.0
  0
LINE
  5
789
100
AcDbEntity
  8
16
100
AcDbLine
 10
8.459605
 20
-13.20612
 30
0.0
 11
8.459605
 21
-11.667191
 31
0.0
  0
ARC
  5
78A
100
AcDbEntity
  8
16
100
AcDbCircle
 10
6.348289
 20
-11.856724
 30
0.0
 40
1.151254
100
AcDbArc
 50
15.135939
 51
91.925592
  0
ARC
  5
78B
100
AcDbEntity
  8
16
100
AcDbCircle
 10
6.270921
 20
-11.856724
 30
0.0
 40
1.151254
100
AcDbArc
 50
88.074408
 51
164.864061
  0
LINE
  5
78C
100
AcDbEntity
  8
16
100
AcDbLine
 10
2.890685
 20
-11.346745
 30
0.0
 11
5.009605
 21
-9.70612
 31
0.0
  0
LINE
  5
78D
100
AcDbEntity
  8
16
100
AcDbLine
 10
9.679772
 20
-11.316561
 30
0.0
 11
7.609605
 21
-9.70612
 31
0.0
  0
ARC
  5
78E
100
AcDbEntity
  8
16
100
AcDbCircle
 10
4.878676
 20
-17.142622
 30
0.0
 40
0.440849
100
AcDbArc
 50
34.020904
 51
145.979096
  0
ARC
  5
78F
100
AcDbEntity
  8
16
100
AcDbCircle
 10
7.823324
 20
-17.142622
 30
0.0
 40
0.440849
100
AcDbArc
 50
34.020904
 51
145.979096
  0
ARC
  5
790
100
AcDbEntity
  8
16
100
AcDbCircle
 10
10.768227
 20
-17.142622
 30
0.0
 40
0.440849
100
AcDbArc
 50
34.020904
 51
145.979096
  0
ARC
  5
791
100
AcDbEntity
  8
16
100
AcDbCircle
 10
6.348289
 20
-13.555516
 30
0.0
 40
1.151254
100
AcDbArc
 50
268.074408
 51
344.864061
  0
ARC
  5
792
100
AcDbEntity
  8
16
100
AcDbCircle
 10
6.270921
 20
-13.555516
 30
0.0
 40
1.151254
100
AcDbArc
 50
195.135939
 51
271.925592
  0
LINE
  5
793
100
AcDbEntity
  8
16
100
AcDbLine
 10
10.159605
 20
-13.20612
 30
0.0
 11
11.809605
 21
-13.20612
 31
0.0
  0
ARC
  5
794
100
AcDbEntity
  8
16
100
AcDbCircle
 10
52.706525
 20
-11.93295
 30
0.0
 40
1.151254
100
AcDbArc
 50
15.135939
 51
91.925592
  0
LINE
  5
795
100
AcDbEntity
  8
16
100
AcDbLine
 10
52.667841
 20
-9.782346
 30
0.0
 11
53.967841
 21
-9.782346
 31
0.0
  0
INSERT
  5
796
100
AcDbEntity
  8
GLISTHATCH
100
AcDbBlockReference
  2
*X28
 10
675.962287
 20
-520.485759
 30
0.0
 41
-1.0
1001
ACAD
1000
HATCH
1002
{
1070
    16
1000
ANSI38
1040
5.0
1040
0.0
1002
}
  0
ARC
  5
797
100
AcDbEntity
  8
16
100
AcDbCircle
 10
52.706525
 20
-13.631742
 30
0.0
 40
1.151254
100
AcDbArc
 50
268.074408
 51
344.864061
  0
LINE
  5
798
100
AcDbEntity
  8
16
100
AcDbLine
 10
52.845796
 20
-19.114733
 30
0.0
 11
53.733379
 21
-16.972195
 31
0.0
  0
LINE
  5
799
100
AcDbEntity
  8
16
100
AcDbLine
 10
46.651648
 20
-19.192634
 30
0.0
 11
46.667841
 21
-13.782346
 31
0.0
  0
LINE
  5
79A
100
AcDbEntity
  8
16
100
AcDbLine
 10
49.430062
 20
-19.114733
 30
0.0
 11
48.574609
 21
-16.972195
 31
0.0
  0
LINE
  5
79B
100
AcDbEntity
  8
16
100
AcDbLine
 10
46.936927
 20
-19.156438
 30
0.0
 11
47.843828
 21
-16.972195
 31
0.0
  0
LINE
  5
79C
100
AcDbEntity
  8
16
100
AcDbLine
 10
49.901838
 20
-19.112768
 30
0.0
 11
50.788731
 21
-16.972195
 31
0.0
  0
LINE
  5
79D
100
AcDbEntity
  8
16
100
AcDbLine
 10
52.38649
 20
-19.142442
 30
0.0
 11
51.519512
 21
-16.972195
 31
0.0
  0
ARC
  5
79E
100
AcDbEntity
  8
STALPROFIL
100
AcDbCircle
 10
46.785573
 20
-19.105854
 30
0.0
 40
0.159583
100
AcDbArc
 50
212.942317
 51
341.519991
  0
ARC
  5
79F
100
AcDbEntity
  8
STALPROFIL
100
AcDbCircle
 10
49.665605
 20
-19.030951
 30
0.0
 40
0.25
100
AcDbArc
 50
199.580138
 51
340.897038
  0
ARC
  5
7A0
100
AcDbEntity
  8
STALPROFIL
100
AcDbCircle
 10
52.610253
 20
-19.030951
 30
0.0
 40
0.25
100
AcDbArc
 50
199.102962
 51
340.419862
  0
LINE
  5
7A1
100
AcDbEntity
  8
16
100
AcDbLine
 10
49.248922
 20
-11.42297
 30
0.0
 11
51.367841
 21
-9.782346
 31
0.0
  0
ARC
  5
7A2
100
AcDbEntity
  8
16
100
AcDbCircle
 10
48.209219
 20
-17.218848
 30
0.0
 40
0.440849
100
AcDbArc
 50
34.020904
 51
145.979096
  0
ARC
  5
7A3
100
AcDbEntity
  8
16
100
AcDbCircle
 10
50.017841
 20
-13.282346
 30
0.0
 40
0.5
100
AcDbArc
 50
270.0
 51
0.0
  0
LINE
  5
7A4
100
AcDbEntity
  8
16
100
AcDbLine
 10
49.676249
 20
-11.844149
 30
0.0
 11
50.34662
 21
-11.67322
 31
0.0
  0
LINE
  5
7A5
100
AcDbEntity
  8
16
100
AcDbLine
 10
50.017841
 20
-13.782346
 30
0.0
 11
48.817841
 21
-13.282346
 31
0.0
  0
ARC
  5
7A6
100
AcDbEntity
  8
16
100
AcDbCircle
 10
49.462585
 20
-11.633559
 30
0.0
 40
0.3
100
AcDbArc
 50
135.415182
 51
315.415182
  0
ARC
  5
7A7
100
AcDbEntity
  8
16
100
AcDbCircle
 10
47.167841
 20
-13.782346
 30
0.0
 40
0.5
100
AcDbArc
 50
90.0
 51
180.0
  0
LINE
  5
7A8
100
AcDbEntity
  8
16
100
AcDbLine
 10
47.167841
 20
-13.282346
 30
0.0
 11
48.817841
 21
-13.282346
 31
0.0
  0
LINE
  5
7A9
100
AcDbEntity
  8
16
100
AcDbLine
 10
50.517841
 20
-13.282346
 30
0.0
 11
50.517841
 21
-11.743416
 31
0.0
  0
LINE
  5
7AA
100
AcDbEntity
  8
16
100
AcDbLine
 10
50.517841
 20
-13.282346
 30
0.0
 11
50.517841
 21
-12.784063
 31
0.0
  0
ARC
  5
7AB
100
AcDbEntity
  8
STALPROFIL
100
AcDbCircle
 10
50.392978
 20
-11.804061
 30
0.0
 40
0.138811
100
AcDbArc
 50
25.905481
 51
109.509701
  0
LINE
  5
7AC
100
AcDbEntity
  8
16
100
AcDbLine
 10
51.517841
 20
-13.932346
 30
0.0
 11
51.517841
 21
-11.632346
 31
0.0
  0
ARC
  5
7AD
100
AcDbEntity
  8
16
100
AcDbCircle
 10
52.629157
 20
-11.93295
 30
0.0
 40
1.151254
100
AcDbArc
 50
88.074408
 51
164.864061
  0
LINE
  5
7AE
100
AcDbEntity
  8
16
100
AcDbLine
 10
52.667841
 20
-9.782346
 30
0.0
 11
51.367841
 21
-9.782346
 31
0.0
  0
ARC
  5
7AF
100
AcDbEntity
  8
16
100
AcDbCircle
 10
51.154122
 20
-17.218848
 30
0.0
 40
0.440849
100
AcDbArc
 50
34.020904
 51
145.979096
  0
ARC
  5
7B0
100
AcDbEntity
  8
16
100
AcDbCircle
 10
52.629157
 20
-13.631742
 30
0.0
 40
1.151254
100
AcDbArc
 50
195.135939
 51
271.925592
  0
LINE
  5
7B1
100
AcDbEntity
  8
16
100
AcDbLine
 10
58.667841
 20
-19.280949
 30
0.0
 11
58.667841
 21
-13.782346
 31
0.0
  0
LINE
  5
7B2
100
AcDbEntity
  8
16
100
AcDbLine
 10
55.392785
 20
-19.183372
 30
0.0
 11
54.46416
 21
-16.972195
 31
0.0
  0
LINE
  5
7B3
100
AcDbEntity
  8
16
100
AcDbLine
 10
55.590945
 20
-19.280949
 30
0.0
 11
58.468844
 21
-19.280949
 31
0.0
  0
ARC
  5
7B4
100
AcDbEntity
  8
STALPROFIL
100
AcDbCircle
 10
58.568844
 20
-19.280949
 30
0.0
 40
0.1
100
AcDbArc
 50
180.0
 51
0.0
  0
ARC
  5
7B5
100
AcDbEntity
  8
16
100
AcDbCircle
 10
55.590945
 20
-19.030949
 30
0.0
 40
0.25
100
AcDbArc
 50
217.567298
 51
270.0
  0
LINE
  5
7B6
100
AcDbEntity
  8
16
100
AcDbLine
 10
54.817841
 20
-13.282346
 30
0.0
 11
54.817841
 21
-11.743416
 31
0.0
  0
ARC
  5
7B7
100
AcDbEntity
  8
16
100
AcDbCircle
 10
55.317835
 20
-13.28478
 30
0.0
 40
0.5
100
AcDbArc
 50
179.721026
 51
269.721026
  0
LINE
  5
7B8
100
AcDbEntity
  8
16
100
AcDbLine
 10
55.317841
 20
-13.782346
 30
0.0
 11
56.517841
 21
-13.282346
 31
0.0
  0
LINE
  5
7B9
100
AcDbEntity
  8
16
100
AcDbLine
 10
55.610681
 20
-11.813965
 30
0.0
 11
54.989062
 21
-11.67322
 31
0.0
  0
ARC
  5
7BA
100
AcDbEntity
  8
16
100
AcDbCircle
 10
55.824345
 20
-11.603376
 30
0.0
 40
0.3
100
AcDbArc
 50
224.584818
 51
44.584818
  0
ARC
  5
7BB
100
AcDbEntity
  8
STALPROFIL
100
AcDbCircle
 10
54.931
 20
-11.775513
 30
0.0
 40
0.117623
100
AcDbArc
 50
60.420498
 51
164.16432
  0
LINE
  5
7BC
100
AcDbEntity
  8
16
100
AcDbLine
 10
56.517841
 20
-13.282346
 30
0.0
 11
58.167841
 21
-13.282346
 31
0.0
  0
ARC
  5
7BD
100
AcDbEntity
  8
16
100
AcDbCircle
 10
58.167841
 20
-13.782346
 30
0.0
 40
0.5
100
AcDbArc
 50
0.0
 51
90.0
  0
LINE
  5
7BE
100
AcDbEntity
  8
16
100
AcDbLine
 10
53.817841
 20
-13.932346
 30
0.0
 11
53.817841
 21
-11.632346
 31
0.0
  0
LINE
  5
7BF
100
AcDbEntity
  8
16
100
AcDbLine
 10
56.038009
 20
-11.392787
 30
0.0
 11
53.967841
 21
-9.782346
 31
0.0
  0
ARC
  5
7C0
100
AcDbEntity
  8
16
100
AcDbCircle
 10
54.098769
 20
-17.218848
 30
0.0
 40
0.440849
100
AcDbArc
 50
34.020904
 51
145.979096
  0
ENDBLK
  5
7C2
100
AcDbEntity
  8
0
100
AcDbBlockEnd
  0
BLOCK
  5
7D4
100
AcDbEntity
  8
0
100
AcDbBlockBegin
  2
SP_66254_66253_66352
 70
     0
 10
0.0
 20
0.0
 30
0.0
  3
SP_66254_66253_66352
  1

  0
INSERT
  5
7C6
100
AcDbEntity
  8
GLAS_MED_FOGNING
100
AcDbBlockReference
  2
C1
 10
0.485438
 20
0.0
 30
0.0
  0
ENDBLK
  5
7D5
100
AcDbEntity
  8
0
100
AcDbBlockEnd
  0
BLOCK
  5
5E6
100
AcDbEntity
  8
0
100
AcDbBlockBegin
  2
SP_66254
 70
     0
 10
0.0
 20
0.0
 30
0.0
  3
SP_66254
  1

  0
INSERT
  5
5E5
100
AcDbEntity
  8
GLAS_MED_FOGNING
100
AcDbBlockReference
  2
C2
 10
0.485438
 20
0.0
 30
0.0
  0
ENDBLK
  5
5E7
100
AcDbEntity
  8
0
100
AcDbBlockEnd
  0
BLOCK
  5
6A3
100
AcDbEntity
  8
0
100
AcDbBlockBegin
  2
SP_66253
 70
     0
 10
0.0
 20
0.0
 30
0.0
  3
SP_66253
  1

  0
INSERT
  5
5EC
100
AcDbEntity
  8
GLAS_MED_FOGNING
100
AcDbBlockReference
  2
C3
 10
0.485438
 20
0.0
 30
0.0
  0
ENDBLK
  5
6A4
100
AcDbEntity
  8
0
100
AcDbBlockEnd
  0
BLOCK
  5
32D
100
AcDbEntity
  8
0
100
AcDbBlockBegin
  2
B4
 70
     0
 10
0.0
 20
0.0
 30
0.0
  3
B4
  1

  0
INSERT
  5
29F
100
AcDbEntity
  8
GLAS_MED_FOGNING
100
AcDbBlockReference
  2
A3
 10
0.485438
 20
25.0
 30
0.0
  0
ARC
  5
32A
100
AcDbEntity
  8
STALPROFIL
100
AcDbCircle
 10
8.936841
 20
48.277074
 30
0.0
 40
0.147774
100
AcDbArc
 50
73.527093
 51
151.057725
  0
INSERT
  5
32B
100
AcDbEntity
  8
GLAS_MED_FOGNING
100
AcDbBlockReference
  2
A3
 10
59.240956
 20
25.0
 30
0.0
 41
-1.0
  0
ARC
  5
32C
100
AcDbEntity
  8
STALPROFIL
100
AcDbCircle
 10
50.793898
 20
48.287673
 30
0.0
 40
0.139027
100
AcDbArc
 50
25.984976
 51
109.430206
  0
ENDBLK
  5
32E
100
AcDbEntity
  8
0
100
AcDbBlockEnd
  0
BLOCK
  5
5AA
100
AcDbEntity
  8
0
100
AcDbBlockBegin
  2
SKRUV_TILL_66500
 70
     0
 10
0.0
 20
0.0
 30
0.0
  3
SKRUV_TILL_66500
  1

  0
INSERT
  5
5A5
100
AcDbEntity
  8
GLAS_MED_FOGNING
100
AcDbBlockReference
  2
SP_60000_SKRUV-KNOPP
 10
0.145829
 20
0.0
 30
0.0
  0
ENDBLK
  5
5AB
100
AcDbEntity
  8
0
100
AcDbBlockEnd
  0
BLOCK
  5
5D5
100
AcDbEntity
  8
0
100
AcDbBlockBegin
  2
A14
 70
     0
 10
0.0
 20
0.0
 30
0.0
  3
A14
  1

  0
LINE
  5
5BB
100
AcDbEntity
  8
GLAS_MED_FOGNING
100
AcDbLine
 10
43.61932
 20
39.735242
 30
0.0
 11
63.3891
 21
39.735242
 31
0.0
  0
LINE
  5
5BC
100
AcDbEntity
  8
GLAS_MED_FOGNING
100
AcDbLine
 10
43.61932
 20
41.735242
 30
0.0
 11
63.3891
 21
41.735242
 31
0.0
  0
LINE
  5
5BD
100
AcDbEntity
  8
GLAS_MED_FOGNING
 62
     2
100
AcDbLine
 10
43.663763
 20
32.250668
 30
0.0
 11
63.3891
 21
32.250668
 31
0.0
  0
LINE
  5
5BE
100
AcDbEntity
  8
GLAS_MED_FOGNING
 62
     2
100
AcDbLine
 10
43.663763
 20
30.250668
 30
0.0
 11
63.3891
 21
30.250668
 31
0.0
  0
LINE
  5
5BF
100
AcDbEntity
  8
GLAS_MED_FOGNING
 62
     2
100
AcDbLine
 10
43.61932
 20
41.735242
 30
0.0
 11
43.61932
 21
18.750668
 31
0.0
  0
LINE
  5
5C0
100
AcDbEntity
  8
GLAS_MED_FOGNING
 62
     2
100
AcDbLine
 10
43.663763
 20
20.750668
 30
0.0
 11
63.3891
 21
20.750668
 31
0.0
  0
LINE
  5
5C1
100
AcDbEntity
  8
GLAS_MED_FOGNING
 62
     2
100
AcDbLine
 10
43.663763
 20
18.750668
 30
0.0
 11
63.3891
 21
18.750668
 31
0.0
  0
LINE
  5
5C2
100
AcDbEntity
  8
16
100
AcDbLine
 10
73.480025
 20
45.937943
 30
0.0
 11
73.480025
 21
39.649524
 31
0.0
  0
LINE
  5
5C3
100
AcDbEntity
  8
16
100
AcDbLine
 10
73.480025
 20
35.54838
 30
0.0
 11
73.480025
 21
24.93175
 31
0.0
  0
LINE
  5
5C4
100
AcDbEntity
  8
16
100
AcDbLine
 10
73.480025
 20
38.282476
 30
0.0
 11
73.480025
 21
36.642019
 31
0.0
  0
LINE
  5
5C5
100
AcDbEntity
  8
16
100
AcDbLine
 10
73.480025
 20
23.789419
 30
0.0
 11
73.480025
 21
22.810277
 31
0.0
  0
LINE
  5
5C6
100
AcDbEntity
  8
16
100
AcDbLine
 10
73.480025
 20
21.504756
 30
0.0
 11
73.480025
 21
14.977148
 31
0.0
  0
LINE
  5
5C7
100
AcDbEntity
  8
GLAS_MED_FOGNING
100
AcDbLine
 10
16.38068
 20
39.735242
 30
0.0
 11
-3.3891
 21
39.735242
 31
0.0
  0
LINE
  5
5C8
100
AcDbEntity
  8
GLAS_MED_FOGNING
100
AcDbLine
 10
16.38068
 20
41.735242
 30
0.0
 11
-3.3891
 21
41.735242
 31
0.0
  0
LINE
  5
5C9
100
AcDbEntity
  8
GLAS_MED_FOGNING
 62
     2
100
AcDbLine
 10
16.336237
 20
32.250668
 30
0.0
 11
-3.3891
 21
32.250668
 31
0.0
  0
LINE
  5
5CA
100
AcDbEntity
  8
GLAS_MED_FOGNING
 62
     2
100
AcDbLine
 10
16.336237
 20
20.750668
 30
0.0
 11
-3.3891
 21
20.750668
 31
0.0
  0
LINE
  5
5CB
100
AcDbEntity
  8
GLAS_MED_FOGNING
 62
     2
100
AcDbLine
 10
16.336237
 20
18.750668
 30
0.0
 11
-3.3891
 21
18.750668
 31
0.0
  0
LINE
  5
5CC
100
AcDbEntity
  8
GLAS_MED_FOGNING
 62
     2
100
AcDbLine
 10
16.336237
 20
28.250668
 30
0.0
 11
-3.3891
 21
28.250668
 31
0.0
  0
LINE
  5
5CD
100
AcDbEntity
  8
GLAS_MED_FOGNING
 62
     2
100
AcDbLine
 10
16.336237
 20
30.250668
 30
0.0
 11
-3.3891
 21
30.250668
 31
0.0
  0
LINE
  5
5CE
100
AcDbEntity
  8
GLAS_MED_FOGNING
 62
     2
100
AcDbLine
 10
16.38068
 20
41.735242
 30
0.0
 11
16.38068
 21
18.750668
 31
0.0
  0
LINE
  5
5CF
100
AcDbEntity
  8
16
100
AcDbLine
 10
-13.480025
 20
45.937943
 30
0.0
 11
-13.480025
 21
39.649524
 31
0.0
  0
LINE
  5
5D0
100
AcDbEntity
  8
16
100
AcDbLine
 10
-13.480025
 20
38.282476
 30
0.0
 11
-13.480025
 21
36.642019
 31
0.0
  0
LINE
  5
5D1
100
AcDbEntity
  8
16
100
AcDbLine
 10
-13.480025
 20
21.504756
 30
0.0
 11
-13.480025
 21
14.977148
 31
0.0
  0
LINE
  5
5D2
100
AcDbEntity
  8
16
100
AcDbLine
 10
-13.480025
 20
23.789419
 30
0.0
 11
-13.480025
 21
22.810277
 31
0.0
  0
LINE
  5
5D3
100
AcDbEntity
  8
16
100
AcDbLine
 10
-13.480025
 20
35.54838
 30
0.0
 11
-13.480025
 21
24.93175
 31
0.0
  0
LINE
  5
5D4
100
AcDbEntity
  8
GLAS_MED_FOGNING
 62
     2
100
AcDbLine
 10
43.663763
 20
28.250668
 30
0.0
 11
63.3891
 21
28.250668
 31
0.0
  0
ENDBLK
  5
5D6
100
AcDbEntity
  8
0
100
AcDbBlockEnd
  0
BLOCK
  5
5DE
100
AcDbEntity
  8
0
100
AcDbBlockBegin
  2
SP_60000_GLAS_
 70
     0
 10
0.0
 20
0.0
 30
0.0
  3
SP_60000_GLAS_
  1

  0
LINE
  5
5B2
100
AcDbEntity
  8
GLAS_MED_FOGNING
100
AcDbLine
 10
-3.3891
 20
18.750668
 30
0.0
 11
-13.480025
 21
18.750668
 31
0.0
  0
LINE
  5
5B3
100
AcDbEntity
  8
GLAS_MED_FOGNING
100
AcDbLine
 10
-3.3891
 20
20.750668
 30
0.0
 11
-13.480025
 21
20.750668
 31
0.0
  0
LINE
  5
5B4
100
AcDbEntity
  8
GLAS_MED_FOGNING
100
AcDbLine
 10
-3.3891
 20
32.250668
 30
0.0
 11
-13.480025
 21
32.250668
 31
0.0
  0
LINE
  5
5B5
100
AcDbEntity
  8
GLAS_MED_FOGNING
100
AcDbLine
 10
-3.3891
 20
30.250668
 30
0.0
 11
-13.480025
 21
30.250668
 31
0.0
  0
LINE
  5
5B6
100
AcDbEntity
  8
GLAS_MED_FOGNING
100
AcDbLine
 10
-3.3891
 20
28.250668
 30
0.0
 11
-13.480025
 21
28.250668
 31
0.0
  0
LINE
  5
5B7
100
AcDbEntity
  8
GLAS_MED_FOGNING
100
AcDbLine
 10
-3.3891
 20
41.735242
 30
0.0
 11
-13.480025
 21
41.735242
 31
0.0
  0
LINE
  5
5B8
100
AcDbEntity
  8
GLAS_MED_FOGNING
100
AcDbLine
 10
-3.3891
 20
39.735242
 30
0.0
 11
-13.480025
 21
39.735242
 31
0.0
  0
INSERT
  5
5B9
100
AcDbEntity
  8
GLAS_MED_FOGNING
100
AcDbBlockReference
  2
A14
 10
0.0
 20
0.0
 30
0.0
  0
LINE
  5
5D7
100
AcDbEntity
  8
GLAS_MED_FOGNING
100
AcDbLine
 10
63.3891
 20
18.750668
 30
0.0
 11
73.480025
 21
18.750668
 31
0.0
  0
LINE
  5
5D8
100
AcDbEntity
  8
GLAS_MED_FOGNING
100
AcDbLine
 10
63.3891
 20
20.750668
 30
0.0
 11
73.480025
 21
20.750668
 31
0.0
  0
LINE
  5
5D9
100
AcDbEntity
  8
GLAS_MED_FOGNING
100
AcDbLine
 10
63.3891
 20
32.250668
 30
0.0
 11
73.480025
 21
32.250668
 31
0.0
  0
LINE
  5
5DA
100
AcDbEntity
  8
GLAS_MED_FOGNING
100
AcDbLine
 10
63.3891
 20
41.735242
 30
0.0
 11
73.480025
 21
41.735242
 31
0.0
  0
LINE
  5
5DB
100
AcDbEntity
  8
GLAS_MED_FOGNING
100
AcDbLine
 10
63.3891
 20
39.735242
 30
0.0
 11
73.480025
 21
39.735242
 31
0.0
  0
LINE
  5
5DC
100
AcDbEntity
  8
GLAS_MED_FOGNING
100
AcDbLine
 10
63.3891
 20
30.250668
 30
0.0
 11
73.480025
 21
30.250668
 31
0.0
  0
LINE
  5
5DD
100
AcDbEntity
  8
GLAS_MED_FOGNING
100
AcDbLine
 10
63.3891
 20
28.250668
 30
0.0
 11
73.480025
 21
28.250668
 31
0.0
  0
ENDBLK
  5
5DF
100
AcDbEntity
  8
0
100
AcDbBlockEnd
  0
BLOCK
  5
32F
100
AcDbEntity
  8
0
100
AcDbBlockBegin
  2
SP_66362_MODIFERAD
 70
     0
 10
0.0
 20
0.0
 30
0.0
  3
SP_66362_MODIFERAD
  1
SP_66352_MODIFERAD
  0
INSERT
  5
29D
100
AcDbEntity
  8
GLAS_MED_FOGNING
100
AcDbBlockReference
  2
B4
 10
0.0
 20
0.0
 30
0.0
  0
ENDBLK
  5
330
100
AcDbEntity
  8
0
100
AcDbBlockEnd
  0
BLOCK
  5
331
100
AcDbEntity
  8
0
100
AcDbBlockBegin
  2
SP_66254_66253_66362_SKRUV
 70
     0
 10
0.0
 20
0.0
 30
0.0
  3
SP_66254_66253_66362_SKRUV
  1

  0
INSERT
  5
13D
100
AcDbEntity
  8
GLAS_MED_FOGNING
100
AcDbBlockReference
  2
B9
 10
0.529661
 20
0.0
 30
0.0
 50
270.0
  0
INSERT
  5
29B
100
AcDbEntity
  8
GLAS_MED_FOGNING
100
AcDbBlockReference
  2
SP_66362_MODIFERAD
 10
0.529661
 20
0.0
 30
0.0
  0
ENDBLK
  5
332
100
AcDbEntity
  8
0
100
AcDbBlockEnd
  0
BLOCK
  5
139
100
AcDbEntity
  8
0
100
AcDbBlockBegin
  2
SP_66253_ISOL_V
 70
     0
 10
0.0
 20
0.0
 30
0.0
  3
SP_66253_ISOL_V
  1

  0
INSERT
  5
38
100
AcDbEntity
  8
GLAS_MED_FOGNING
100
AcDbBlockReference
  2
A11
 10
0.0
 20
0.0
 30
0.0
 50
270.0
  0
ENDBLK
  5
13A
100
AcDbEntity
  8
0
100
AcDbBlockEnd
  0
ENDSEC
  0
SECTION
  2
ENTITIES
  0
INSERT
  5
1E
100
AcDbEntity
  8
0
100
AcDbBlockReference
  2
SIDA
 10
0.0
 20
0.0
 30
0.0
  0
INSERT
  5
36
100
AcDbEntity
  8
GLAS_MED_FOGNING
100
AcDbBlockReference
  2
SP_66253_ISOL_V
 10
-235.0
 20
65.0
 30
0.0
  0
INSERT
  5
13B
100
AcDbEntity
  8
GLAS_MED_FOGNING
100
AcDbBlockReference
  2
SP_66254_66253_66362_SKRUV
 10
-350.0
 20
65.0
 30
0.0
  0
TEXT
  5
333
100
AcDbEntity
  8
TEXT
100
AcDbText
 10
-360.191412
 20
73.806148
 30
0.0
 40
3.75
  1
%%USP _66254_66253_66362_SCREW
 41
0.8
  7
ROMANS
 72
     1
 11
-320.344983
 21
73.806148
 31
0.0
100
AcDbText
  0
TEXT
  5
336
100
AcDbEntity
  8
TEXT
100
AcDbText
 10
-231.548555
 20
73.806148
 30
0.0
 40
3.75
  1
%%USP _66253_INSULATED
 41
0.8
  7
ROMANS
 72
     1
 11
-205.344983
 21
73.806148
 31
0.0
100
AcDbText
  0
INSERT
  5
337
100
AcDbEntity
  8
GLAS_MED_FOGNING
100
AcDbBlockReference
  2
SP_66350
 10
-350.0
 20
220.0
 30
0.0
  0
TEXT
  5
4A9
100
AcDbEntity
  8
TEXT
100
AcDbText
 10
-208.191412
 20
203.806148
 30
0.0
 40
3.75
  1
%%USP _66500
 41
0.8
  7
ROMANS
 72
     1
 11
-195.344983
 21
203.806148
 31
0.0
100
AcDbText
  0
TEXT
  5
4AA
100
AcDbEntity
  8
TEXT
100
AcDbText
 10
-333.191412
 20
203.806148
 30
0.0
 40
3.75
  1
%%USP _66350
 41
0.8
  7
ROMANS
 72
     1
 11
-320.344983
 21
203.806148
 31
0.0
100
AcDbText
  0
INSERT
  5
4AB
100
AcDbEntity
  8
GLAS_MED_FOGNING
100
AcDbBlockReference
  2
SP_66500_GLASKNOPP
 10
-225.0
 20
215.0
 30
0.0
  0
INSERT
  5
5A3
100
AcDbEntity
  8
GLAS_MED_FOGNING
100
AcDbBlockReference
  2
SKRUV_TILL_66500
 10
-125.0
 20
80.0
 30
0.0
  0
TEXT
  5
5AC
100
AcDbEntity
  8
TEXT
100
AcDbText
 10
-89.92381
 20
40.0
 30
0.0
 40
5.0
  1
SP 60000  %%UPAGE 21
 41
0.8
  7
ROMANS
 72
     2
 11
-25.0
 21
40.0
 31
0.0
100
AcDbText
  0
TEXT
  5
5AD
100
AcDbEntity
  8
TEXT
100
AcDbText
 10
-96.780952
 20
25.0
 30
0.0
 40
5.0
  1
File name  %%U600PAGE21
 41
0.8
  7
ROMANS
 72
     2
 11
-25.0
 21
25.0
 31
0.0
100
AcDbText
  0
TEXT
  5
5AE
100
AcDbEntity
  8
TEXT
100
AcDbText
 10
-117.405697
 20
93.806148
 30
0.0
 40
3.75
  1
%%USCREW_SP _66500
 41
0.8
  7
ROMANS
 72
     1
 11
-95.344983
 21
93.806148
 31
0.0
100
AcDbText
  0
TEXT
  5
5AF
100
AcDbEntity
  8
TEXT
100
AcDbText
 10
-116.76284
 20
203.806148
 30
0.0
 40
3.75
  1
%%USP _60000_GLASS
 41
0.8
  7
ROMANS
 72
     1
 11
-95.344983
 21
203.806148
 31
0.0
100
AcDbText
  0
INSERT
  5
5B0
100
AcDbEntity
  8
GLAS_MED_FOGNING
100
AcDbBlockReference
  2
SP_60000_GLAS_
 10
-119.74134
 20
198.719136
 30
0.0
  0
INSERT
  5
5E0
100
AcDbEntity
  8
GLAS_MED_FOGNING
100
AcDbBlockReference
  2
SP_66500_GLASKNOPP
 10
-235.0
 20
460.0
 30
0.0
  0
INSERT
  5
5E1
100
AcDbEntity
  8
GLAS_MED_FOGNING
100
AcDbBlockReference
  2
SP_60000_GLAS_
 10
-235.0
 20
460.0
 30
0.0
  0
TEXT
  5
5E2
100
AcDbEntity
  8
TEXT
100
AcDbText
 10
-351.119983
 20
478.806148
 30
0.0
 40
3.75
  1
%%USP _66362_STANDARD
 41
0.8
  7
ROMANS
 72
     1
 11
-325.344983
 21
478.806148
 31
0.0
100
AcDbText
  0
INSERT
  5
5E3
100
AcDbEntity
  8
GLAS_MED_FOGNING
100
AcDbBlockReference
  2
SP_66254
 10
-350.0
 20
310.0
 30
0.0
  0
TEXT
  5
5E8
100
AcDbEntity
  8
TEXT
100
AcDbText
 10
-333.26284
 20
343.806148
 30
0.0
 40
3.75
  1
%%USP _66254
 41
0.8
  7
ROMANS
 72
     1
 11
-320.344983
 21
343.806148
 31
0.0
100
AcDbText
  0
TEXT
  5
5E9
100
AcDbEntity
  8
TEXT
100
AcDbText
 10
-213.191412
 20
343.806148
 30
0.0
 40
3.75
  1
%%USP _66253
 41
0.8
  7
ROMANS
 72
     1
 11
-200.344983
 21
343.806148
 31
0.0
100
AcDbText
  0
INSERT
  5
5EA
100
AcDbEntity
  8
GLAS_MED_FOGNING
100
AcDbBlockReference
  2
SP_66253
 10
-230.0
 20
315.0
 30
0.0
  0
LINE
  5
6A6
100
AcDbEntity
  8
16
100
AcDbLine
 10
-252.542022
 20
449.036628
 30
0.0
 11
-162.542022
 21
449.036628
 31
0.0
  0
LWPOLYLINE
  5
6A8
100
AcDbEntity
  8
01
 62
     5
100
AcDbPolyline
 90
        2
 70
     0
 43
0.0
 10
-203.585786
 20
454.585787
 10
-198.79006
 20
459.381512
  0
LWPOLYLINE
  5
6AD
100
AcDbEntity
  8
01
 62
     5
100
AcDbPolyline
 90
        2
 70
     0
 43
2.0
 10
-198.053248
 20
458.705415
 42
0.271138
 10
-197.422134
 20
461.624735
 42
0.271138
  0
LWPOLYLINE
  5
6B1
100
AcDbEntity
  8
01
 62
     5
100
AcDbPolyline
 90
        2
 70
     0
 43
2.0
 10
-198.553525
 20
465.852953
 10
-197.406496
 20
461.572183
  0
LWPOLYLINE
  5
6B5
100
AcDbEntity
  8
01
 62
     5
100
AcDbPolyline
 90
        2
 70
     0
 43
2.0
 10
-202.878679
 20
453.87868
 10
-198.082953
 20
458.674405
  0
LWPOLYLINE
  5
6B9
100
AcDbEntity
  8
01
 62
     5
100
AcDbPolyline
 90
        5
 70
     0
 43
2.0
 10
-176.0
 20
449.756668
 10
-176.0
 20
467.5
 42
0.414214
 10
-177.5
 20
469.0
 10
-196.138711
 20
469.0
 42
0.493145
 10
-198.553526
 20
465.852952
 42
0.493145
  0
LWPOLYLINE
  5
6C0
100
AcDbEntity
  8
01
100
AcDbPolyline
 90
        5
 70
     0
 43
0.0
 10
-175.0
 20
449.756668
 10
-175.0
 20
467.5
 42
0.414214
 10
-177.5
 20
470.0
 10
-196.138711
 20
470.0
 42
0.493145
 10
-199.519451
 20
465.594133
  0
LINE
  5
6C7
100
AcDbEntity
  8
01
 62
     5
100
AcDbLine
 10
-202.171572
 20
453.171573
 30
0.0
 11
-197.375847
 21
457.967299
 31
0.0
  0
INSERT
  5
6C8
100
AcDbEntity
  8
GLAS_MED_FOGNING
100
AcDbBlockReference
  2
SP_66350
 10
-235.0
 20
460.0
 30
0.0
  0
LINE
  5
6C9
100
AcDbEntity
  8
01
 62
     5
100
AcDbLine
 10
-212.4124
 20
466.111772
 30
0.0
 11
-213.559428
 21
461.831002
 31
0.0
  0
LWPOLYLINE
  5
6CA
100
AcDbEntity
  8
01
 62
     5
100
AcDbPolyline
 90
        2
 70
     0
 43
2.0
 10
-211.446474
 20
465.852953
 10
-212.593503
 20
461.572183
  0
LINE
  5
6CE
100
AcDbEntity
  8
01
100
AcDbLine
 10
-233.0
 20
449.756668
 30
0.0
 11
-233.0
 21
467.5
 31
0.0
  0
LWPOLYLINE
  5
6CF
100
AcDbEntity
  8
01
 62
     5
100
AcDbPolyline
 90
        5
 70
     0
 43
2.0
 10
-211.446473
 20
465.852952
 42
0.493145
 10
-213.861288
 20
469.0
 10
-232.5
 20
469.0
 42
0.414214
 10
-234.0
 20
467.5
 10
-234.0
 20
449.756668
 42
0.414214
  0
LWPOLYLINE
  5
6D6
100
AcDbEntity
  8
01
100
AcDbPolyline
 90
        5
 70
     0
 43
0.0
 10
-210.480548
 20
465.594133
 42
0.493145
 10
-213.861288
 20
470.0
 10
-232.5
 20
470.0
 42
0.414214
 10
-235.0
 20
467.5
 10
-235.0
 20
449.756668
 42
0.414214
  0
ARC
  5
6DF
100
AcDbEntity
  8
01
 62
     5
100
AcDbCircle
 10
-205.0
 20
456.0
 30
0.0
 40
4.0
100
AcDbArc
 50
225.0
 51
270.0
  0
LWPOLYLINE
  5
6E0
100
AcDbEntity
  8
01
 62
     5
100
AcDbPolyline
 90
        2
 70
     0
 43
2.0
 10
-205.0
 20
453.0
 42
0.198912
 10
-202.87868
 20
453.87868
 42
0.198912
  0
ARC
  5
6E4
100
AcDbEntity
  8
01
 62
     5
100
AcDbCircle
 10
-205.0
 20
456.0
 30
0.0
 40
4.0
100
AcDbArc
 50
270.0
 51
315.0
  0
LWPOLYLINE
  5
6E5
100
AcDbEntity
  8
01
 62
     5
100
AcDbPolyline
 90
        2
 70
     0
 43
2.0
 10
-207.12132
 20
453.87868
 42
0.198912
 10
-205.0
 20
453.0
 42
0.198912
  0
POINT
  5
6E9
100
AcDbEntity
  8
DEFPOINTS
  6
BYBLOCK
 62
     0
100
AcDbPoint
 10
-205.0
 20
452.0
 30
0.0
  0
LINE
  5
6EA
100
AcDbEntity
  8
01
 62
     5
100
AcDbLine
 10
-206.414213
 20
454.585787
 30
0.0
 11
-211.209939
 21
459.381512
 31
0.0
  0
LWPOLYLINE
  5
6EB
100
AcDbEntity
  8
01
 62
     5
100
AcDbPolyline
 90
        2
 70
     0
 43
2.0
 10
-207.12132
 20
453.87868
 10
-211.917046
 20
458.674405
  0
LINE
  5
6EF
100
AcDbEntity
  8
01
100
AcDbLine
 10
-207.828427
 20
453.171573
 30
0.0
 11
-212.624152
 21
457.967299
 31
0.0
  0
LWPOLYLINE
  5
6F0
100
AcDbEntity
  8
01
 62
     5
100
AcDbPolyline
 90
        2
 70
     0
 43
2.0
 10
-212.577865
 20
461.624735
 42
0.271138
 10
-211.946751
 20
458.705415
 42
0.271138
  0
ARC
  5
6F4
100
AcDbEntity
  8
01
 62
     5
100
AcDbCircle
 10
-205.0
 20
456.0
 30
0.0
 40
2.0
100
AcDbArc
 50
225.0
 51
270.0
  0
ARC
  5
6F5
100
AcDbEntity
  8
01
 62
     5
100
AcDbCircle
 10
-205.0
 20
456.0
 30
0.0
 40
2.0
100
AcDbArc
 50
270.0
 51
315.0
  0
LINE
  5
6F6
100
AcDbEntity
  8
GLASFOGNINGAR
100
AcDbLine
 10
-232.5
 20
470.0
 30
0.0
 11
-242.439436
 21
470.0
 31
0.0
  0
LINE
  5
6F7
100
AcDbEntity
  8
GLASFOGNINGAR
100
AcDbLine
 10
-235.0
 20
467.5
 30
0.0
 11
-235.0
 21
472.57882
 31
0.0
  0
LINE
  5
6F8
100
AcDbEntity
  8
01
 62
     5
100
AcDbLine
 10
-197.5876
 20
466.111772
 30
0.0
 11
-196.440571
 21
461.831002
 31
0.0
  0
LINE
  5
6F9
100
AcDbEntity
  8
01
100
AcDbLine
 10
-177.0
 20
449.756668
 30
0.0
 11
-177.0
 21
467.5
 31
0.0
  0
ARC
  5
6FA
100
AcDbEntity
  8
01
 62
     5
100
AcDbCircle
 10
-200.231537
 20
460.704208
 30
0.0
 40
3.956369
100
AcDbArc
 50
317.46058
 51
18.141858
  0
ARC
  5
6FB
100
AcDbEntity
  8
KON
 62
     2
100
AcDbCircle
 10
-194.070298
 20
469.742718
 30
0.0
 40
0.2
100
AcDbArc
 50
45.0
 51
90.0
  0
INSERT
  5
6FC
100
AcDbEntity
  8
GLAS_MED_FOGNING
100
AcDbBlockReference
  2
SP_66362_STANDARD
 10
-355.0
 20
515.0
 30
0.0
  0
TEXT
  5
7C3
100
AcDbEntity
  8
TEXT
100
AcDbText
 10
-251.736883
 20
534.716293
 30
0.0
 40
5.0
  1
BLOCK NAME SP 60 000 
 41
0.8
  7
ROMANS
 72
     1
 11
-210.689264
 21
534.716293
 31
0.0
100
AcDbText
  0
INSERT
  5
7C4
100
AcDbEntity
  8
GLAS_MED_FOGNING
100
AcDbBlockReference
  2
SP_66254_66253_66352
 10
-235.0
 20
460.0
 30
0.0
  0
INSERT
  5
7D6
100
AcDbEntity
  8
GLAS_MED_FOGNING
100
AcDbBlockReference
  2
SKRUV_TILL_66500
 10
-235.0
 20
460.0
 30
0.0
  0
INSERT
  5
7D7
100
AcDbEntity
  8
GLAS_MED_FOGNING
100
AcDbBlockReference
  2
SP_66254_66253_66352
 10
-105.0
 20
320.0
 30
0.0
  0
TEXT
  5
7D8
100
AcDbEntity
  8
TEXT
100
AcDbText
 10
-105.905697
 20
343.806148
 30
0.0
 40
3.75
  1
%%USP _66254_66253_66352
 41
0.8
  7
ROMANS
 72
     1
 11
-75.344983
 21
343.806148
 31
0.0
100
AcDbText
  0
TEXT
  5
7D9
100
AcDbEntity
  8
TEXT
100
AcDbText
 10
-109.977126
 20
478.806148
 30
0.0
 40
3.75
  1
%%USP _66362_MODIFIED
 41
0.8
  7
ROMANS
 72
     1
 11
-85.344983
 21
478.806148
 31
0.0
100
AcDbText
  0
INSERT
  5
7DA
100
AcDbEntity
  8
GLAS_MED_FOGNING
100
AcDbBlockReference
  2
SP_66362_MODIFERAD
 10
-115.0
 20
455.0
 30
0.0
  0
ENDSEC
  0
SECTION
  2
OBJECTS
  0
DICTIONARY
  5
1B
100
AcDbDictionary
  3
ACAD_GROUP
350
19
  3
ACAD_LAYOUT
350
7EC
  3
ACAD_MLINESTYLE
350
1A
  3
ACAD_PLOTSETTINGS
350
7ED
  3
ACAD_PLOTSTYLENAME
350
7EA
  3
ACDBHEADERROUNDTRIPXREC
350
7F8
  0
DICTIONARY
  5
7F6
100
AcDbDictionary
280
     1
  3
ACAD_XREC_ROUNDTRIP
360
7F7
  0
DICTIONARY
  5
81C
100
AcDbDictionary
280
     1
  3
ACAD_XREC_ROUNDTRIP
360
81D
  0
DICTIONARY
  5
818
100
AcDbDictionary
280
     1
  3
ACAD_LAYOUTSELFREF
360
819
  0
DICTIONARY
  5
81A
100
AcDbDictionary
280
     1
  3
ACAD_LAYOUTSELFREF
360
81B
  0
DICTIONARY
  5
7F4
100
AcDbDictionary
280
     1
  3
ACAD_XREC_ROUNDTRIP
360
7F5
  0
DICTIONARY
  5
19
102
{ACAD_REACTORS
330
1B
102
}
100
AcDbDictionary
  0
DICTIONARY
  5
7EC
102
{ACAD_XDICTIONARY
360
81E
102
}
102
{ACAD_REACTORS
330
1B
102
}
100
AcDbDictionary
  3
LAYOUT1
350
7EF
  3
MODEL
350
7EE
  0
DICTIONARY
  5
1A
102
{ACAD_REACTORS
330
1B
102
}
100
AcDbDictionary
  3
STANDARD
350
1C
  0
DICTIONARY
  5
7ED
102
{ACAD_REACTORS
330
1B
102
}
100
AcDbDictionary
  0
ACAD_PROXY_OBJECT
  5
7EA
102
{ACAD_REACTORS
330
1B
102
}
100
AcDbProxyObject
 90
      499
 91
      501
 93
       86
310
405010041939BDC9B585B0
350
7EB
340
7EB
 94
        0
  0
DICTIONARY
  5
7F8
102
{ACAD_REACTORS
330
1B
102
}
100
AcDbDictionary
  3
CEPSNTYPE
350
802
  3
FINGERPRINTGUID
350
803
  3
HYPERLINKBASE
350
7FB
  3
INSUNITS
350
801
  3
LAYOUTDICT
350
7FD
  3
LWETCUNION
350
800
  3
PLOTSETDICT
350
7FE
  3
PLOTSTYLNAMDICT
350
7FF
  3
PSVPSCALE
350
805
  3
PUCSBASE
350
808
  3
PUCSORGBACK
350
80E
  3
PUCSORGBOTTOM
350
80A
  3
PUCSORGFRONT
350
80D
  3
PUCSORGLEFT
350
80B
  3
PUCSORGRIGHT
350
80C
  3
PUCSORGTOP
350
809
  3
PUCSORTHOREF
350
806
  3
PUCSORTHOVIEW
350
807
  3
STYLESHEET
350
7FC
  3
TSTACKALIGN
350
7F9
  3
TSTACKSIZE
350
7FA
  3
UCSBASE
350
811
  3
UCSORGBACK
350
817
  3
UCSORGBOTTOM
350
813
  3
UCSORGFRONT
350
816
  3
UCSORGLEFT
350
814
  3
UCSORGRIGHT
350
815
  3
UCSORGTOP
350
812
  3
UCSORTHOREF
350
80F
  3
UCSORTHOVIEW
350
810
  3
VERSIONGUID
350
804
  0
XRECORD
  5
7F7
102
{ACAD_REACTORS
330
7F6
102
}
100
AcDbXrecord
102
EXTNAMES
  1
*ACTIVE
  2
*Active
102
UCS
 74
     0
 71
     1
 10
0.0
 20
0.0
 30
0.0
 10
1.0
 20
0.0
 30
0.0
 10
0.0
 20
1.0
 30
0.0
146
0.0
 79
     0
102
VIEW
281
     0
  0
XRECORD
  5
81D
102
{ACAD_REACTORS
330
81C
102
}
100
AcDbXrecord
102
PLOTBIT
280
     0
  0
XRECORD
  5
819
102
{ACAD_REACTORS
330
818
102
}
100
AcDbXrecord
340
2
  0
XRECORD
  5
81B
102
{ACAD_REACTORS
330
81A
102
}
100
AcDbXrecord
340
8
  0
XRECORD
  5
7F5
102
{ACAD_REACTORS
330
7F4
102
}
100
AcDbXrecord
102
EXTNAMES
  1
SP_66254_66253_66362_SKRUV
  2
SP_66254_66253_66362_SKRUV_V
  0
DICTIONARY
  5
81E
100
AcDbDictionary
280
     1
  3
ACAD_XREC_ROUNDTRIP
360
81F
  0
ACAD_PROXY_OBJECT
  5
7EF
102
{ACAD_REACTORS
330
7EC
102
}
100
AcDbProxyObject
 90
      499
 91
      503
 93
     1092
310
91D4850204C617365724A65742034562F344D5620506F73745363726970742C00AAAAAA416AA591069074C61796F75743140501A800000000000000000000000000000000000000000101E900000000000241C902A6A6A10232D5E076BC5510408CB5781DAF154410232D5E076BC5510408CB5781DAF15C410232D5E076BC5
310
710408CB5781DAF15C4F
330
8
330
0
340
0
340
0
 94
        0
  0
ACAD_PROXY_OBJECT
  5
7EE
102
{ACAD_REACTORS
330
7EC
102
}
100
AcDbProxyObject
 90
      499
 91
      503
 93
      668
310
91D4850204C617365724A65742034562F344D5620506F73745363726970742C01AAAAAAAAA5A69054D6F64656C901A800000000000000000000000000000000000000000000A1000000000000008902A6A6AAAAC
330
2
330
0
340
0
340
0
 94
        0
  0
MLINESTYLE
  5
1C
102
{ACAD_REACTORS
330
1A
102
}
100
AcDbMlineStyle
  2
STANDARD
 70
     0
  3

 62
     0
 51
90.0
 52
90.0
 71
     2
 49
0.5
 62
   256
  6
BYLAYER
 49
-0.5
 62
   256
  6
BYLAYER
  0
ACAD_PROXY_OBJECT
  5
7EB
102
{ACAD_REACTORS
330
7EA
102
}
100
AcDbProxyObject
 90
      499
 91
      502
 93
        0
 94
        0
  0
XRECORD
  5
802
102
{ACAD_REACTORS
330
7F8
102
}
100
AcDbXrecord
 90
        0
  0
XRECORD
  5
803
102
{ACAD_REACTORS
330
7F8
102
}
100
AcDbXrecord
  1
{DCFA09BA-0BE8-11D6-AA0B-00D0B7E2A69D}
  0
XRECORD
  5
7FB
102
{ACAD_REACTORS
330
7F8
102
}
100
AcDbXrecord
  1

  0
XRECORD
  5
801
102
{ACAD_REACTORS
330
7F8
102
}
100
AcDbXrecord
 90
        0
  0
XRECORD
  5
7FD
102
{ACAD_REACTORS
330
7F8
102
}
100
AcDbXrecord
340
7EC
  0
XRECORD
  5
800
102
{ACAD_REACTORS
330
7F8
102
}
100
AcDbXrecord
 90
    14877
  0
XRECORD
  5
7FE
102
{ACAD_REACTORS
330
7F8
102
}
100
AcDbXrecord
340
7ED
  0
XRECORD
  5
7FF
102
{ACAD_REACTORS
330
7F8
102
}
100
AcDbXrecord
340
7EA
  0
XRECORD
  5
805
102
{ACAD_REACTORS
330
7F8
102
}
100
AcDbXrecord
 40
0.0
  0
XRECORD
  5
808
102
{ACAD_REACTORS
330
7F8
102
}
100
AcDbXrecord
340
0
  0
XRECORD
  5
80E
102
{ACAD_REACTORS
330
7F8
102
}
100
AcDbXrecord
 10
0.0
 20
0.0
 30
0.0
  0
XRECORD
  5
80A
102
{ACAD_REACTORS
330
7F8
102
}
100
AcDbXrecord
 10
0.0
 20
0.0
 30
0.0
  0
XRECORD
  5
80D
102
{ACAD_REACTORS
330
7F8
102
}
100
AcDbXrecord
 10
0.0
 20
0.0
 30
0.0
  0
XRECORD
  5
80B
102
{ACAD_REACTORS
330
7F8
102
}
100
AcDbXrecord
 10
0.0
 20
0.0
 30
0.0
  0
XRECORD
  5
80C
102
{ACAD_REACTORS
330
7F8
102
}
100
AcDbXrecord
 10
0.0
 20
0.0
 30
0.0
  0
XRECORD
  5
809
102
{ACAD_REACTORS
330
7F8
102
}
100
AcDbXrecord
 10
0.0
 20
0.0
 30
0.0
  0
XRECORD
  5
806
102
{ACAD_REACTORS
330
7F8
102
}
100
AcDbXrecord
340
0
  0
XRECORD
  5
807
102
{ACAD_REACTORS
330
7F8
102
}
100
AcDbXrecord
 70
     0
  0
XRECORD
  5
7FC
102
{ACAD_REACTORS
330
7F8
102
}
100
AcDbXrecord
  1

  0
XRECORD
  5
7F9
102
{ACAD_REACTORS
330
7F8
102
}
100
AcDbXrecord
 90
        1
  0
XRECORD
  5
7FA
102
{ACAD_REACTORS
330
7F8
102
}
100
AcDbXrecord
 90
       70
  0
XRECORD
  5
811
102
{ACAD_REACTORS
330
7F8
102
}
100
AcDbXrecord
340
0
  0
XRECORD
  5
817
102
{ACAD_REACTORS
330
7F8
102
}
100
AcDbXrecord
 10
0.0
 20
0.0
 30
0.0
  0
XRECORD
  5
813
102
{ACAD_REACTORS
330
7F8
102
}
100
AcDbXrecord
 10
0.0
 20
0.0
 30
0.0
  0
XRECORD
  5
816
102
{ACAD_REACTORS
330
7F8
102
}
100
AcDbXrecord
 10
0.0
 20
0.0
 30
0.0
  0
XRECORD
  5
814
102
{ACAD_REACTORS
330
7F8
102
}
100
AcDbXrecord
 10
0.0
 20
0.0
 30
0.0
  0
XRECORD
  5
815
102
{ACAD_REACTORS
330
7F8
102
}
100
AcDbXrecord
 10
0.0
 20
0.0
 30
0.0
  0
XRECORD
  5
812
102
{ACAD_REACTORS
330
7F8
102
}
100
AcDbXrecord
 10
0.0
 20
0.0
 30
0.0
  0
XRECORD
  5
80F
102
{ACAD_REACTORS
330
7F8
102
}
100
AcDbXrecord
340
0
  0
XRECORD
  5
810
102
{ACAD_REACTORS
330
7F8
102
}
100
AcDbXrecord
 70
     0
  0
XRECORD
  5
804
102
{ACAD_REACTORS
330
7F8
102
}
100
AcDbXrecord
  1
{DCFA09BC-0BE8-11D6-AA0B-00D0B7E2A69D}
  0
XRECORD
  5
81F
102
{ACAD_REACTORS
330
81E
102
}
100
AcDbXrecord
102
EXTNAMES
  1
LAYOUT1
  2
Layout1
  1
MODEL
  2
Model
  0
ENDSEC
  0
EOF
