  0
SECTION
  2
HEADER
  9
$ACADVER
  1
AC1014
  9
$ACADMAINTVER
 70
     0
  9
$DWGCODEPAGE
  3
ANSI_1252
  9
$INSBASE
 10
1420.0
 20
-80.0
 30
0.0
  9
$EXTMIN
 10
1419.76994
 20
-40.23006
 30
0.0
  9
$EXTMAX
 10
2010.517767
 20
425.517767
 30
0.0
  9
$LIMMIN
 10
0.0
 20
0.0
  9
$LIMMAX
 10
840.0
 20
600.0
  9
$ORTHOMODE
 70
     0
  9
$REGENMODE
 70
     1
  9
$FILLMODE
 70
     1
  9
$QTEXTMODE
 70
     0
  9
$MIRRTEXT
 70
     1
  9
$DRAGMODE
 70
     2
  9
$LTSCALE
 40
5.0
  9
$OSMODE
 70
   547
  9
$ATTMODE
 70
     1
  9
$TEXTSIZE
 40
3.15
  9
$TRACEWID
 40
0.05
  9
$TEXTSTYLE
  7
STANDARD
  9
$CLAYER
  8
RAM
  9
$CELTYPE
  6
BYLAYER
  9
$CECOLOR
 62
   256
  9
$CELTSCALE
 40
1.0
  9
$DELOBJ
 70
     1
  9
$DISPSILH
 70
     0
  9
$DIMSCALE
 40
2.0
  9
$DIMASZ
 40
2.0
  9
$DIMEXO
 40
1.0
  9
$DIMDLI
 40
10.0
  9
$DIMRND
 40
0.0
  9
$DIMDLE
 40
0.0
  9
$DIMEXE
 40
2.0
  9
$DIMTP
 40
0.0
  9
$DIMTM
 40
0.0
  9
$DIMTXT
 40
3.5
  9
$DIMCEN
 40
2.5
  9
$DIMTSZ
 40
0.0
  9
$DIMTOL
 70
     0
  9
$DIMLIM
 70
     0
  9
$DIMTIH
 70
     0
  9
$DIMTOH
 70
     0
  9
$DIMSE1
 70
     0
  9
$DIMSE2
 70
     0
  9
$DIMTAD
 70
     1
  9
$DIMZIN
 70
     8
  9
$DIMBLK
  1

  9
$DIMASO
 70
     1
  9
$DIMSHO
 70
     1
  9
$DIMPOST
  1

  9
$DIMAPOST
  1

  9
$DIMALT
 70
     0
  9
$DIMALTD
 70
     2
  9
$DIMALTF
 40
25.4
  9
$DIMLFAC
 40
1.0
  9
$DIMTOFL
 70
     1
  9
$DIMTVP
 40
0.0
  9
$DIMTIX
 70
     0
  9
$DIMSOXD
 70
     0
  9
$DIMSAH
 70
     0
  9
$DIMBLK1
  1

  9
$DIMBLK2
  1

  9
$DIMSTYLE
  2
STANDARD
  9
$DIMCLRD
 70
     0
  9
$DIMCLRE
 70
     0
  9
$DIMCLRT
 70
     6
  9
$DIMTFAC
 40
1.0
  9
$DIMGAP
 40
0.1
  9
$DIMJUST
 70
     0
  9
$DIMSD1
 70
     0
  9
$DIMSD2
 70
     0
  9
$DIMTOLJ
 70
     1
  9
$DIMTZIN
 70
     0
  9
$DIMALTZ
 70
     0
  9
$DIMALTTZ
 70
     0
  9
$DIMFIT
 70
     3
  9
$DIMUPT
 70
     0
  9
$DIMUNIT
 70
     2
  9
$DIMDEC
 70
     4
  9
$DIMTDEC
 70
     4
  9
$DIMALTU
 70
     2
  9
$DIMALTTD
 70
     2
  9
$DIMTXSTY
  7
STANDARD
  9
$DIMAUNIT
 70
     0
  9
$LUNITS
 70
     2
  9
$LUPREC
 70
     2
  9
$SKETCHINC
 40
0.1
  9
$FILLETRAD
 40
0.5
  9
$AUNITS
 70
     0
  9
$AUPREC
 70
     4
  9
$MENU
  1
acad
  9
$ELEVATION
 40
0.0
  9
$PELEVATION
 40
0.0
  9
$THICKNESS
 40
0.0
  9
$LIMCHECK
 70
     0
  9
$BLIPMODE
 70
     0
  9
$CHAMFERA
 40
10.0
  9
$CHAMFERB
 40
10.0
  9
$CHAMFERC
 40
0.0
  9
$CHAMFERD
 40
0.0
  9
$SKPOLY
 70
     0
  9
$TDCREATE
 40
2450610.855542014
  9
$TDUPDATE
 40
2452293.490839930
  9
$TDINDWG
 40
0.0400949074
  9
$TDUSRTIMER
 40
0.0400949074
  9
$USRTIMER
 70
     1
  9
$ANGBASE
 50
0.0
  9
$ANGDIR
 70
     0
  9
$PDMODE
 70
    35
  9
$PDSIZE
 40
-3.0
  9
$PLINEWID
 40
0.0
  9
$COORDS
 70
     1
  9
$SPLFRAME
 70
     0
  9
$SPLINETYPE
 70
     6
  9
$SPLINESEGS
 70
     8
  9
$ATTDIA
 70
     0
  9
$ATTREQ
 70
     1
  9
$HANDLING
 70
     1
  9
$HANDSEED
  5
60F
  9
$SURFTAB1
 70
     6
  9
$SURFTAB2
 70
     6
  9
$SURFTYPE
 70
     6
  9
$SURFU
 70
     6
  9
$SURFV
 70
     6
  9
$UCSNAME
  2

  9
$UCSORG
 10
0.0
 20
0.0
 30
0.0
  9
$UCSXDIR
 10
1.0
 20
0.0
 30
0.0
  9
$UCSYDIR
 10
0.0
 20
1.0
 30
0.0
  9
$PUCSNAME
  2

  9
$PUCSORG
 10
0.0
 20
0.0
 30
0.0
  9
$PUCSXDIR
 10
1.0
 20
0.0
 30
0.0
  9
$PUCSYDIR
 10
0.0
 20
1.0
 30
0.0
  9
$USERI1
 70
     0
  9
$USERI2
 70
     0
  9
$USERI3
 70
     0
  9
$USERI4
 70
     0
  9
$USERI5
 70
     0
  9
$USERR1
 40
0.0
  9
$USERR2
 40
0.0
  9
$USERR3
 40
0.0
  9
$USERR4
 40
0.0
  9
$USERR5
 40
0.0
  9
$WORLDVIEW
 70
     1
  9
$SHADEDGE
 70
     3
  9
$SHADEDIF
 70
    70
  9
$TILEMODE
 70
     1
  9
$MAXACTVP
 70
    16
  9
$PINSBASE
 10
0.0
 20
0.0
 30
0.0
  9
$PLIMCHECK
 70
     0
  9
$PEXTMIN
 10
1.000000E+20
 20
1.000000E+20
 30
1.000000E+20
  9
$PEXTMAX
 10
-1.000000E+20
 20
-1.000000E+20
 30
-1.000000E+20
  9
$PLIMMIN
 10
0.0
 20
0.0
  9
$PLIMMAX
 10
420.0
 20
297.0
  9
$UNITMODE
 70
     0
  9
$VISRETAIN
 70
     0
  9
$PLINEGEN
 70
     0
  9
$PSLTSCALE
 70
     1
  9
$TREEDEPTH
 70
  3020
  9
$PICKSTYLE
 70
     1
  9
$CMLSTYLE
  2
STANDARD
  9
$CMLJUST
 70
     0
  9
$CMLSCALE
 40
1.0
  9
$PROXYGRAPHICS
 70
     1
  9
$MEASUREMENT
 70
     0
  0
ENDSEC
  0
SECTION
  2
CLASSES
  0
CLASS
  1
LWPOLYLINE
  2
AcDbPolyline
  3
"AutoCAD"
 90
        0
280
     0
281
     1
  0
CLASS
  1
DICTIONARYVAR
  2
AcDbDictionaryVar
  3
"AutoCAD"
 90
        0
280
     0
281
     0
  0
CLASS
  1
HATCH
  2
AcDbHatch
  3
"ACAD_SEDONA"
 90
        0
280
     0
281
     1
  0
CLASS
  1
ACDBDICTIONARYWDFLT
  2
AcDbDictionaryWithDefault
  3
AutoCAD 2000
 90
        0
280
     0
281
     0
  0
CLASS
  1
ACDBPLACEHOLDER
  2
AcDbPlaceHolder
  3
AutoCAD 2000
 90
        0
280
     0
281
     0
  0
CLASS
  1
LAYOUT
  2
AcDbLayout
  3
AutoCAD 2000
 90
        0
280
     0
281
     0
  0
CLASS
  1
LONG_TRANSACTION
  2
AcDbLongTransaction
  3
AutoCAD 2000
 90
        0
280
     0
281
     0
  0
CLASS
  1
LWPOLYLINE
  2
AcDbPolyline
  3
"AutoCAD"
 90
        0
280
     0
281
     1
  0
CLASS
  1
HATCH
  2
AcDbHatch
  3
"ACAD_SEDONA"
 90
        0
280
     0
281
     1
  0
CLASS
  1
XRECORD
  2
AcDbXrecord
  3
"<Built In>"
 90
        0
280
     0
281
     0
  0
ENDSEC
  0
SECTION
  2
TABLES
  0
TABLE
  2
VPORT
  5
12
100
AcDbSymbolTable
 70
     1
  0
VPORT
  5
5E1
102
{ACAD_XDICTIONARY
360
5E2
102
}
100
AcDbSymbolTableRecord
100
AcDbViewportTableRecord
  2
*ACTIVE
 70
     0
 10
0.0
 20
0.0
 11
1.0
 21
1.0
 12
1772.042089
 22
221.917486
 13
0.0
 23
0.0
 14
5.0
 24
5.0
 15
10.0
 25
10.0
 16
0.0
 26
0.0
 36
1.0
 17
0.0
 27
0.0
 37
0.0
 40
782.797872
 41
1.630435
 42
50.0
 43
0.0
 44
0.0
 50
0.0
 51
0.0
 71
     0
 72
   100
 73
     1
 74
     1
 75
     1
 76
     0
 77
     0
 78
     0
  0
ENDTAB
  0
TABLE
  2
LTYPE
  5
D
100
AcDbSymbolTable
 70
     1
  0
LTYPE
  5
E
100
AcDbSymbolTableRecord
100
AcDbLinetypeTableRecord
  2
BYBLOCK
 70
     0
  3

 72
    65
 73
     0
 40
0.0
  0
LTYPE
  5
F
100
AcDbSymbolTableRecord
100
AcDbLinetypeTableRecord
  2
BYLAYER
 70
     0
  3

 72
    65
 73
     0
 40
0.0
  0
LTYPE
  5
5
100
AcDbSymbolTableRecord
100
AcDbLinetypeTableRecord
  2
CONTINUOUS
 70
     0
  3
Solid line
 72
    65
 73
     0
 40
0.0
  0
ENDTAB
  0
TABLE
  2
LAYER
  5
A
100
AcDbSymbolTable
 70
    13
  0
LAYER
  5
4
100
AcDbSymbolTableRecord
100
AcDbLayerTableRecord
  2
0
 70
     0
 62
     7
  6
CONTINUOUS
  0
LAYER
  5
41D
100
AcDbSymbolTableRecord
100
AcDbLayerTableRecord
  2
TEXT
 70
     0
 62
     6
  6
CONTINUOUS
  0
LAYER
  5
1B
100
AcDbSymbolTableRecord
100
AcDbLayerTableRecord
  2
RAM
 70
     0
 62
     5
  6
CONTINUOUS
  0
LAYER
  5
29
100
AcDbSymbolTableRecord
100
AcDbLayerTableRecord
  2
KONTUR
 70
     0
 62
     7
  6
CONTINUOUS
  0
LAYER
  5
50
100
AcDbSymbolTableRecord
100
AcDbLayerTableRecord
  2
TPROFKONTUR
 70
     0
 62
     7
  6
CONTINUOUS
  0
LAYER
  5
4D
100
AcDbSymbolTableRecord
100
AcDbLayerTableRecord
  2
HATCH
 70
     0
 62
   201
  6
CONTINUOUS
  0
LAYER
  5
16D
100
AcDbSymbolTableRecord
100
AcDbLayerTableRecord
  2
16
 70
     0
 62
     1
  6
CONTINUOUS
  0
LAYER
  5
32
100
AcDbSymbolTableRecord
100
AcDbLayerTableRecord
  2
01
 70
     0
 62
     7
  6
CONTINUOUS
  0
LAYER
  5
26
100
AcDbSymbolTableRecord
100
AcDbLayerTableRecord
  2
SPKONTUR
 70
     0
 62
     7
  6
CONTINUOUS
  0
LAYER
  5
2C
100
AcDbSymbolTableRecord
100
AcDbLayerTableRecord
  2
PROFIL
 70
     0
 62
     1
  6
CONTINUOUS
  0
LAYER
  5
2A7
100
AcDbSymbolTableRecord
100
AcDbLayerTableRecord
  2
2
 70
     0
 62
     2
  6
CONTINUOUS
  0
LAYER
  5
4A
100
AcDbSymbolTableRecord
100
AcDbLayerTableRecord
  2
GLASMFOGNING
 70
     0
 62
     2
  6
CONTINUOUS
  0
LAYER
  5
199
100
AcDbSymbolTableRecord
100
AcDbLayerTableRecord
  2
DOT
 70
     0
 62
     3
  6
CONTINUOUS
  0
ENDTAB
  0
TABLE
  2
STYLE
  5
B
100
AcDbSymbolTable
 70
     2
  0
STYLE
  5
C
100
AcDbSymbolTableRecord
100
AcDbTextStyleTableRecord
  2
STANDARD
 70
     0
 40
0.0
 41
1.0
 50
0.0
 71
     0
 42
5.0
  3
txt
  4

  0
STYLE
  5
41E
100
AcDbSymbolTableRecord
100
AcDbTextStyleTableRecord
  2
ROMANS
 70
     0
 40
0.0
 41
0.8
 50
0.0
 71
     0
 42
5.0
  3
romans
  4

  0
ENDTAB
  0
TABLE
  2
VIEW
  5
10
100
AcDbSymbolTable
 70
     0
  0
ENDTAB
  0
TABLE
  2
UCS
  5
11
100
AcDbSymbolTable
 70
     0
  0
ENDTAB
  0
TABLE
  2
APPID
  5
14
100
AcDbSymbolTable
 70
     2
  0
APPID
  5
15
100
AcDbSymbolTableRecord
100
AcDbRegAppTableRecord
  2
ACAD
 70
     0
  0
APPID
  5
366
100
AcDbSymbolTableRecord
100
AcDbRegAppTableRecord
  2
CONTENTBLOCKICON
 70
     0
  0
ENDTAB
  0
TABLE
  2
DIMSTYLE
  5
16
100
AcDbSymbolTable
 70
     1
  0
DIMSTYLE
105
1D
100
AcDbSymbolTableRecord
100
AcDbDimStyleTableRecord
  2
STANDARD
 70
     0
  3

  4

  5

  6

  7

 40
1.0
 41
0.18
 42
0.0625
 43
0.38
 44
0.18
 45
0.0
 46
0.0
 47
0.0
 48
0.0
140
0.18
141
0.09
142
0.0
143
25.4
144
1.0
145
0.0
146
1.0
147
0.09
 71
     0
 72
     0
 73
     1
 74
     1
 75
     0
 76
     0
 77
     0
 78
     0
170
     0
171
     2
172
     0
173
     0
174
     0
175
     0
176
     0
177
     0
178
     0
270
     2
271
     4
272
     4
273
     2
274
     2
340
C
275
     0
280
     0
281
     0
282
     0
283
     1
284
     0
285
     0
286
     0
287
     3
288
     0
  0
ENDTAB
  0
TABLE
  2
BLOCK_RECORD
  5
1
100
AcDbSymbolTable
 70
    13
  0
BLOCK_RECORD
  5
2
102
{ACAD_XDICTIONARY
360
604
102
}
100
AcDbSymbolTableRecord
100
AcDbBlockTableRecord
  2
*MODEL_SPACE
  0
BLOCK_RECORD
  5
7
102
{ACAD_XDICTIONARY
360
606
102
}
100
AcDbSymbolTableRecord
100
AcDbBlockTableRecord
  2
*PAPER_SPACE
  0
BLOCK_RECORD
  5
4E
100
AcDbSymbolTableRecord
100
AcDbBlockTableRecord
  2
SP6260
  0
BLOCK_RECORD
  5
52
100
AcDbSymbolTableRecord
100
AcDbBlockTableRecord
  2
*X1
  0
BLOCK_RECORD
  5
27
100
AcDbSymbolTableRecord
100
AcDbBlockTableRecord
  2
SP6050
  0
BLOCK_RECORD
  5
1A9
100
AcDbSymbolTableRecord
100
AcDbBlockTableRecord
  2
*X3
  0
BLOCK_RECORD
  5
1FF
100
AcDbSymbolTableRecord
100
AcDbBlockTableRecord
  2
*X4
  0
BLOCK_RECORD
  5
30B
100
AcDbSymbolTableRecord
100
AcDbBlockTableRecord
  2
*X5
  0
BLOCK_RECORD
  5
2AB
100
AcDbSymbolTableRecord
100
AcDbBlockTableRecord
  2
*X6
  0
BLOCK_RECORD
  5
4B
100
AcDbSymbolTableRecord
100
AcDbBlockTableRecord
  2
SP6000_6260_FASAD
  0
BLOCK_RECORD
  5
240
100
AcDbSymbolTableRecord
100
AcDbBlockTableRecord
  2
*X8
  0
BLOCK_RECORD
  5
34C
100
AcDbSymbolTableRecord
100
AcDbBlockTableRecord
  2
*X9
  0
BLOCK_RECORD
  5
170
100
AcDbSymbolTableRecord
100
AcDbBlockTableRecord
  2
*X10
  0
BLOCK_RECORD
  5
2E7
100
AcDbSymbolTableRecord
100
AcDbBlockTableRecord
  2
*X11
  0
BLOCK_RECORD
  5
164
100
AcDbSymbolTableRecord
100
AcDbBlockTableRecord
  2
GLAS22MM
1001
CONTENTBLOCKICON
1071
        0
1004
2800000020000000200000000100040000000000000200000000000000000000000000000000000000000000000080000080000000808000800000008000800080800000C0C0C000808080000000FF0000FF000000FFFF00FF000000FF00FF00FFFF0000FFFFFF00FFFFFFFFFFFFFFFFFFFFFFFFFFFFFFFFFFFFFFFFFFFFFF
1004
FFFFFFFFFFFFFFFFFFFFFFFFFFFFFFFFFFFFFFFFFFFFFFFFFFFFFFFFFFFFFFFFFFFFFFFFFFFFFFFFFFFFFFFFFFFFFFFFFFFFFFFFFFFFFFFFFFFFFFFFFFFFFFFFFFFFFFFFFFFFFFFFFFFFFFFFFFFFFFFFFFFFFFFFFFFFFFFFFFFFFFFFFFFFFFFFFFFFFFFFFFFFFFFFFFFFFFFFFFFFFFFFFFFFFFFFFFFFFFFFFFFFFFFFFFFFFF
1004
FFFFFFFFFFFFFFFFFFFFFFFFFFFFFFFFFF9889FFFFFFFFFFFFFFFFFFFFFFFFFFFF9899FFFFFFFFFFFFFFFFFFFFFFFFFFFF9889FFFFFFFFFFFFFFFFFFFFFBBBBBFF98899FBBBBBFFFFFFFABBBBBBBBBBBF9F98B9FBBBBBBBBBBBAABBBBBBBBBBBB999999BBBBBBBBBBBBAAFFFFFFFFFFFBFF99F9BFFFFFFFFFFFAFFFFFFFFFF
1004
FFBFF99F9BFFFFFFFFFFFFFFFFFFFFFFFFBFF99F9BFFFFFFFFFFFFAFFFFFFFFFFFBFF99F9BFFFFFFFFFFFAABBBBBBBBBBB9999FF9BBBBBBBBBBBBAFFFFFFFBBBBB99999F9FBBBBBFFFFFFAAFFFFFFFFFFFFFFFFF99FFFFFFFFFFFAFFFFFFFFFFFFFFFFFF9FFFFFFFFFFFFFFFFFFFFFFFFFFFFFFFFFFFFFFFFFFFFFFFFFFFFF
1004
FFFFFFFFFFFFFFFFFFFFFFFFFFFFFFFFFFFFFFFFFFFFFFFFFFFFFFFFFFFFFFFFFFFFFFFFFFFFFFFFFFFFFFFFFFFFFFFFFFFFFFFFFFFFFFFFFFFFFFFFFFFFFFFFFFFFFFFFFFFFFFFFFFFFFFFFFFFFFFFFFFFFFFFFFFFFFFFFFFFFFFFFFFFFFFFFFFFFFFFFFFFFFFFFFFFFFFFF
  0
ENDTAB
  0
ENDSEC
  0
SECTION
  2
BLOCKS
  0
BLOCK
  5
3
100
AcDbEntity
  8
0
100
AcDbBlockBegin
  2
*MODEL_SPACE
 70
     0
 10
0.0
 20
0.0
 30
0.0
  3
*MODEL_SPACE
  1

  0
ENDBLK
  5
6
100
AcDbEntity
  8
0
100
AcDbBlockEnd
  0
BLOCK
  5
8
100
AcDbEntity
 67
     1
  8
0
100
AcDbBlockBegin
  2
*PAPER_SPACE
 70
     0
 10
0.0
 20
0.0
 30
0.0
  3
*PAPER_SPACE
  1

  0
ENDBLK
  5
9
100
AcDbEntity
 67
     1
  8
0
100
AcDbBlockEnd
  0
BLOCK
  5
15F
100
AcDbEntity
  8
0
100
AcDbBlockBegin
  2
SP6260
 70
     0
 10
0.0
 20
0.0
 30
0.0
  3
SP6260
  1

  0
LWPOLYLINE
  5
4F
100
AcDbEntity
  8
TPROFKONTUR
 62
     7
100
AcDbPolyline
 90
       34
 70
     1
 43
0.0
 10
15.472286
 20
10.751934
 10
29.972286
 20
10.751934
 10
44.472286
 20
10.751934
 42
-0.414214
 10
44.972286
 20
10.251934
 10
44.972286
 20
4.501934
 42
-0.414214
 10
44.472286
 20
4.001934
 10
43.472286
 20
4.001934
 42
-0.414214
 10
42.972286
 20
4.501934
 10
42.972286
 20
4.701934
 42
0.414214
 10
42.672286
 20
5.001934
 10
41.272286
 20
5.001934
 42
0.414214
 10
40.972286
 20
4.701934
 10
40.972286
 20
2.001934
 42
0.414214
 10
42.972286
 20
0.001934
 10
59.472286
 20
0.001934
 42
0.414214
 10
59.972286
 20
0.501934
 10
59.972286
 20
11.001934
 42
0.414214
 10
58.972286
 20
12.001934
 10
29.972286
 20
12.001934
 10
0.972286
 20
12.001934
 42
0.414214
 10
-0.027714
 20
11.001934
 10
-0.027714
 20
0.501934
 42
0.414214
 10
0.472286
 20
0.001934
 10
16.972286
 20
0.001934
 42
0.414214
 10
18.972286
 20
2.001934
 10
18.972286
 20
4.701934
 42
0.414214
 10
18.672286
 20
5.001934
 10
17.272286
 20
5.001934
 42
0.414214
 10
16.972286
 20
4.701934
 10
16.972286
 20
4.501934
 42
-0.414214
 10
16.472286
 20
4.001934
 10
15.472286
 20
4.001934
 42
-0.414214
 10
14.972286
 20
4.501934
 10
14.972286
 20
10.251934
 42
-0.414214
  0
INSERT
  5
51
100
AcDbEntity
  8
HATCH
100
AcDbBlockReference
  2
*X1
 10
-699.993454
 20
-138.026594
 30
0.0
1001
ACAD
1000
HATCH
1002
{
1070
    16
1000
ANSI31
1040
3.0
1040
0.0
1002
}
  0
LWPOLYLINE
  5
15B
100
AcDbEntity
  8
TPROFKONTUR
 62
     7
100
AcDbPolyline
 90
       14
 70
     0
 43
0.0
 10
17.722286
 20
2.251934
 42
0.414214
 10
17.222286
 20
2.751934
 10
15.472286
 20
2.751934
 10
14.722286
 20
2.751934
 42
-0.414214
 10
13.722286
 20
3.751934
 10
13.722286
 20
4.501934
 10
13.722286
 20
10.251934
 42
0.414214
 10
13.222286
 20
10.751934
 10
1.722286
 20
10.751934
 42
0.414214
 10
1.222286
 20
10.251934
 10
1.222286
 20
1.751934
 42
0.414214
 10
1.722286
 20
1.251934
 10
16.722386
 20
1.251934
 42
0.414214
 10
17.722286
 20
2.251834
  0
LINE
  5
15C
100
AcDbEntity
  8
TPROFKONTUR
 62
     7
100
AcDbLine
 10
17.722286
 20
2.251834
 30
0.0
 11
17.722286
 21
2.251934
 31
0.0
  0
LWPOLYLINE
  5
15D
100
AcDbEntity
  8
TPROFKONTUR
 62
     7
100
AcDbPolyline
 90
       14
 70
     0
 43
0.0
 10
42.222286
 20
2.251934
 42
-0.414214
 10
42.722286
 20
2.751934
 10
44.472286
 20
2.751934
 10
45.222286
 20
2.751934
 42
0.414214
 10
46.222286
 20
3.751934
 10
46.222286
 20
4.501934
 10
46.222286
 20
10.251934
 42
-0.414214
 10
46.722286
 20
10.751934
 10
58.222286
 20
10.751934
 42
-0.414214
 10
58.722286
 20
10.251934
 10
58.722286
 20
1.751934
 42
-0.414214
 10
58.222286
 20
1.251934
 10
43.222186
 20
1.251934
 42
-0.414214
 10
42.222286
 20
2.251834
  0
LINE
  5
15E
100
AcDbEntity
  8
TPROFKONTUR
 62
     7
100
AcDbLine
 10
42.222286
 20
2.251834
 30
0.0
 11
42.222286
 21
2.251934
 31
0.0
  0
ENDBLK
  5
160
100
AcDbEntity
  8
0
100
AcDbBlockEnd
  0
BLOCK
  5
159
100
AcDbEntity
  8
0
100
AcDbBlockBegin
  2
*X1
 70
     1
 10
0.0
 20
0.0
 30
0.0
  3
*X1
  1

  0
LINE
  5
53
100
AcDbEntity
  8
0
 62
     0
100
AcDbLine
 10
734.262943
 20
148.778528
 30
0.0
 11
735.512943
 21
150.028528
 31
0.0
  0
LINE
  5
54
100
AcDbEntity
  8
0
 62
     0
100
AcDbLine
 10
733.732613
 20
148.778528
 30
0.0
 11
734.982613
 21
150.028528
 31
0.0
  0
LINE
  5
55
100
AcDbEntity
  8
0
 62
     0
100
AcDbLine
 10
733.202283
 20
148.778528
 30
0.0
 11
734.452283
 21
150.028528
 31
0.0
  0
LINE
  5
56
100
AcDbEntity
  8
0
 62
     0
100
AcDbLine
 10
732.671953
 20
148.778528
 30
0.0
 11
733.921953
 21
150.028528
 31
0.0
  0
LINE
  5
57
100
AcDbEntity
  8
0
 62
     0
100
AcDbLine
 10
732.141623
 20
148.778528
 30
0.0
 11
733.391623
 21
150.028528
 31
0.0
  0
LINE
  5
58
100
AcDbEntity
  8
0
 62
     0
100
AcDbLine
 10
731.611292
 20
148.778528
 30
0.0
 11
732.861292
 21
150.028528
 31
0.0
  0
LINE
  5
59
100
AcDbEntity
  8
0
 62
     0
100
AcDbLine
 10
731.080962
 20
148.778528
 30
0.0
 11
732.330962
 21
150.028528
 31
0.0
  0
LINE
  5
5A
100
AcDbEntity
  8
0
 62
     0
100
AcDbLine
 10
730.550632
 20
148.778528
 30
0.0
 11
731.800632
 21
150.028528
 31
0.0
  0
LINE
  5
5B
100
AcDbEntity
  8
0
 62
     0
100
AcDbLine
 10
730.020302
 20
148.778528
 30
0.0
 11
731.270302
 21
150.028528
 31
0.0
  0
LINE
  5
5C
100
AcDbEntity
  8
0
 62
     0
100
AcDbLine
 10
729.489972
 20
148.778528
 30
0.0
 11
730.739972
 21
150.028528
 31
0.0
  0
LINE
  5
5D
100
AcDbEntity
  8
0
 62
     0
100
AcDbLine
 10
728.959642
 20
148.778528
 30
0.0
 11
730.209642
 21
150.028528
 31
0.0
  0
LINE
  5
5E
100
AcDbEntity
  8
0
 62
     0
100
AcDbLine
 10
717.923613
 20
138.272829
 30
0.0
 11
718.721439
 21
139.070655
 31
0.0
  0
LINE
  5
5F
100
AcDbEntity
  8
0
 62
     0
100
AcDbLine
 10
728.429312
 20
148.778528
 30
0.0
 11
729.679312
 21
150.028528
 31
0.0
  0
LINE
  5
60
100
AcDbEntity
  8
0
 62
     0
100
AcDbLine
 10
717.15827
 20
138.037817
 30
0.0
 11
718.956451
 21
139.835997
 31
0.0
  0
LINE
  5
61
100
AcDbEntity
  8
0
 62
     0
100
AcDbLine
 10
727.898982
 20
148.778528
 30
0.0
 11
729.148982
 21
150.028528
 31
0.0
  0
LINE
  5
62
100
AcDbEntity
  8
0
 62
     0
100
AcDbLine
 10
716.618652
 20
138.028528
 30
0.0
 11
718.96574
 21
140.375616
 31
0.0
  0
LINE
  5
63
100
AcDbEntity
  8
0
 62
     0
100
AcDbLine
 10
727.368652
 20
148.778528
 30
0.0
 11
728.618652
 21
150.028528
 31
0.0
  0
LINE
  5
64
100
AcDbEntity
  8
0
 62
     0
100
AcDbLine
 10
716.088322
 20
138.028528
 30
0.0
 11
718.96574
 21
140.905946
 31
0.0
  0
LINE
  5
65
100
AcDbEntity
  8
0
 62
     0
100
AcDbLine
 10
726.838322
 20
148.778528
 30
0.0
 11
728.088322
 21
150.028528
 31
0.0
  0
LINE
  5
66
100
AcDbEntity
  8
0
 62
     0
100
AcDbLine
 10
715.557992
 20
138.028528
 30
0.0
 11
716.812693
 21
139.28323
 31
0.0
  0
LINE
  5
67
100
AcDbEntity
  8
0
 62
     0
100
AcDbLine
 10
726.307992
 20
148.778528
 30
0.0
 11
727.557992
 21
150.028528
 31
0.0
  0
LINE
  5
68
100
AcDbEntity
  8
0
 62
     0
100
AcDbLine
 10
717.711038
 20
140.181574
 30
0.0
 11
718.96574
 21
141.436276
 31
0.0
  0
LINE
  5
69
100
AcDbEntity
  8
0
 62
     0
100
AcDbLine
 10
715.027661
 20
138.028528
 30
0.0
 11
716.277661
 21
139.278528
 31
0.0
  0
LINE
  5
6A
100
AcDbEntity
  8
0
 62
     0
100
AcDbLine
 10
725.777661
 20
148.778528
 30
0.0
 11
727.027661
 21
150.028528
 31
0.0
  0
LINE
  5
6B
100
AcDbEntity
  8
0
 62
     0
100
AcDbLine
 10
717.598896
 20
140.599762
 30
0.0
 11
718.96574
 21
141.966606
 31
0.0
  0
LINE
  5
6C
100
AcDbEntity
  8
0
 62
     0
100
AcDbLine
 10
714.497331
 20
138.028528
 30
0.0
 11
715.747331
 21
139.278528
 31
0.0
  0
LINE
  5
6D
100
AcDbEntity
  8
0
 62
     0
100
AcDbLine
 10
725.247331
 20
148.778528
 30
0.0
 11
726.497331
 21
150.028528
 31
0.0
  0
LINE
  5
6E
100
AcDbEntity
  8
0
 62
     0
100
AcDbLine
 10
717.246391
 20
140.777588
 30
0.0
 11
718.96574
 21
142.496936
 31
0.0
  0
LINE
  5
6F
100
AcDbEntity
  8
0
 62
     0
100
AcDbLine
 10
713.967001
 20
138.028528
 30
0.0
 11
715.217001
 21
139.278528
 31
0.0
  0
LINE
  5
70
100
AcDbEntity
  8
0
 62
     0
100
AcDbLine
 10
724.717001
 20
148.778528
 30
0.0
 11
725.967001
 21
150.028528
 31
0.0
  0
LINE
  5
71
100
AcDbEntity
  8
0
 62
     0
100
AcDbLine
 10
716.717001
 20
140.778528
 30
0.0
 11
718.878502
 21
142.940028
 31
0.0
  0
LINE
  5
72
100
AcDbEntity
  8
0
 62
     0
100
AcDbLine
 10
713.436671
 20
138.028528
 30
0.0
 11
714.686671
 21
139.278528
 31
0.0
  0
LINE
  5
73
100
AcDbEntity
  8
0
 62
     0
100
AcDbLine
 10
724.186671
 20
148.778528
 30
0.0
 11
725.436671
 21
150.028528
 31
0.0
  0
LINE
  5
74
100
AcDbEntity
  8
0
 62
     0
100
AcDbLine
 10
716.186671
 20
140.778528
 30
0.0
 11
718.436671
 21
143.028528
 31
0.0
  0
LINE
  5
75
100
AcDbEntity
  8
0
 62
     0
100
AcDbLine
 10
712.906341
 20
138.028528
 30
0.0
 11
714.156341
 21
139.278528
 31
0.0
  0
LINE
  5
76
100
AcDbEntity
  8
0
 62
     0
100
AcDbLine
 10
723.656341
 20
148.778528
 30
0.0
 11
724.906341
 21
150.028528
 31
0.0
  0
LINE
  5
77
100
AcDbEntity
  8
0
 62
     0
100
AcDbLine
 10
715.656341
 20
140.778528
 30
0.0
 11
717.906341
 21
143.028528
 31
0.0
  0
LINE
  5
78
100
AcDbEntity
  8
0
 62
     0
100
AcDbLine
 10
712.376011
 20
138.028528
 30
0.0
 11
713.626011
 21
139.278528
 31
0.0
  0
LINE
  5
79
100
AcDbEntity
  8
0
 62
     0
100
AcDbLine
 10
723.126011
 20
148.778528
 30
0.0
 11
724.376011
 21
150.028528
 31
0.0
  0
LINE
  5
7A
100
AcDbEntity
  8
0
 62
     0
100
AcDbLine
 10
715.126011
 20
140.778528
 30
0.0
 11
716.376011
 21
142.028528
 31
0.0
  0
LINE
  5
7B
100
AcDbEntity
  8
0
 62
     0
100
AcDbLine
 10
716.96574
 20
142.618257
 30
0.0
 11
717.376011
 21
143.028528
 31
0.0
  0
LINE
  5
7C
100
AcDbEntity
  8
0
 62
     0
100
AcDbLine
 10
711.845681
 20
138.028528
 30
0.0
 11
713.095681
 21
139.278528
 31
0.0
  0
LINE
  5
7D
100
AcDbEntity
  8
0
 62
     0
100
AcDbLine
 10
722.595681
 20
148.778528
 30
0.0
 11
723.845681
 21
150.028528
 31
0.0
  0
LINE
  5
7E
100
AcDbEntity
  8
0
 62
     0
100
AcDbLine
 10
714.602153
 20
140.785
 30
0.0
 11
715.845681
 21
142.028528
 31
0.0
  0
LINE
  5
7F
100
AcDbEntity
  8
0
 62
     0
100
AcDbLine
 10
711.315351
 20
138.028528
 30
0.0
 11
712.565351
 21
139.278528
 31
0.0
  0
LINE
  5
80
100
AcDbEntity
  8
0
 62
     0
100
AcDbLine
 10
722.065351
 20
148.778528
 30
0.0
 11
723.315351
 21
150.028528
 31
0.0
  0
LINE
  5
81
100
AcDbEntity
  8
0
 62
     0
100
AcDbLine
 10
714.205386
 20
140.918563
 30
0.0
 11
715.33323
 21
142.046407
 31
0.0
  0
LINE
  5
82
100
AcDbEntity
  8
0
 62
     0
100
AcDbLine
 10
710.785021
 20
138.028528
 30
0.0
 11
712.035021
 21
139.278528
 31
0.0
  0
LINE
  5
83
100
AcDbEntity
  8
0
 62
     0
100
AcDbLine
 10
721.535021
 20
148.778528
 30
0.0
 11
722.785021
 21
150.028528
 31
0.0
  0
LINE
  5
84
100
AcDbEntity
  8
0
 62
     0
100
AcDbLine
 10
713.924071
 20
141.167578
 30
0.0
 11
715.033569
 21
142.277076
 31
0.0
  0
LINE
  5
85
100
AcDbEntity
  8
0
 62
     0
100
AcDbLine
 10
710.254691
 20
138.028528
 30
0.0
 11
711.504691
 21
139.278528
 31
0.0
  0
LINE
  5
86
100
AcDbEntity
  8
0
 62
     0
100
AcDbLine
 10
721.004691
 20
148.778528
 30
0.0
 11
722.254691
 21
150.028528
 31
0.0
  0
LINE
  5
87
100
AcDbEntity
  8
0
 62
     0
100
AcDbLine
 10
713.748985
 20
141.522822
 30
0.0
 11
714.96574
 21
142.739577
 31
0.0
  0
LINE
  5
88
100
AcDbEntity
  8
0
 62
     0
100
AcDbLine
 10
709.724361
 20
138.028528
 30
0.0
 11
710.974361
 21
139.278528
 31
0.0
  0
LINE
  5
89
100
AcDbEntity
  8
0
 62
     0
100
AcDbLine
 10
720.474361
 20
148.778528
 30
0.0
 11
721.724361
 21
150.028528
 31
0.0
  0
LINE
  5
8A
100
AcDbEntity
  8
0
 62
     0
100
AcDbLine
 10
713.71574
 20
142.019907
 30
0.0
 11
714.96574
 21
143.269907
 31
0.0
  0
LINE
  5
8B
100
AcDbEntity
  8
0
 62
     0
100
AcDbLine
 10
709.194031
 20
138.028528
 30
0.0
 11
710.444031
 21
139.278528
 31
0.0
  0
LINE
  5
8C
100
AcDbEntity
  8
0
 62
     0
100
AcDbLine
 10
719.944031
 20
148.778528
 30
0.0
 11
721.194031
 21
150.028528
 31
0.0
  0
LINE
  5
8D
100
AcDbEntity
  8
0
 62
     0
100
AcDbLine
 10
713.71574
 20
142.550237
 30
0.0
 11
714.96574
 21
143.800237
 31
0.0
  0
LINE
  5
8E
100
AcDbEntity
  8
0
 62
     0
100
AcDbLine
 10
708.6637
 20
138.028528
 30
0.0
 11
709.9137
 21
139.278528
 31
0.0
  0
LINE
  5
8F
100
AcDbEntity
  8
0
 62
     0
100
AcDbLine
 10
719.4137
 20
148.778528
 30
0.0
 11
720.6637
 21
150.028528
 31
0.0
  0
LINE
  5
90
100
AcDbEntity
  8
0
 62
     0
100
AcDbLine
 10
713.71574
 20
143.080567
 30
0.0
 11
714.96574
 21
144.330567
 31
0.0
  0
LINE
  5
91
100
AcDbEntity
  8
0
 62
     0
100
AcDbLine
 10
708.13337
 20
138.028528
 30
0.0
 11
709.38337
 21
139.278528
 31
0.0
  0
LINE
  5
92
100
AcDbEntity
  8
0
 62
     0
100
AcDbLine
 10
718.88337
 20
148.778528
 30
0.0
 11
720.13337
 21
150.028528
 31
0.0
  0
LINE
  5
93
100
AcDbEntity
  8
0
 62
     0
100
AcDbLine
 10
713.71574
 20
143.610897
 30
0.0
 11
714.96574
 21
144.860897
 31
0.0
  0
LINE
  5
94
100
AcDbEntity
  8
0
 62
     0
100
AcDbLine
 10
707.60304
 20
138.028528
 30
0.0
 11
708.85304
 21
139.278528
 31
0.0
  0
LINE
  5
95
100
AcDbEntity
  8
0
 62
     0
100
AcDbLine
 10
718.35304
 20
148.778528
 30
0.0
 11
719.60304
 21
150.028528
 31
0.0
  0
LINE
  5
96
100
AcDbEntity
  8
0
 62
     0
100
AcDbLine
 10
713.71574
 20
144.141228
 30
0.0
 11
714.96574
 21
145.391228
 31
0.0
  0
LINE
  5
97
100
AcDbEntity
  8
0
 62
     0
100
AcDbLine
 10
707.07271
 20
138.028528
 30
0.0
 11
708.32271
 21
139.278528
 31
0.0
  0
LINE
  5
98
100
AcDbEntity
  8
0
 62
     0
100
AcDbLine
 10
717.82271
 20
148.778528
 30
0.0
 11
719.07271
 21
150.028528
 31
0.0
  0
LINE
  5
99
100
AcDbEntity
  8
0
 62
     0
100
AcDbLine
 10
713.71574
 20
144.671558
 30
0.0
 11
714.96574
 21
145.921558
 31
0.0
  0
LINE
  5
9A
100
AcDbEntity
  8
0
 62
     0
100
AcDbLine
 10
706.54238
 20
138.028528
 30
0.0
 11
707.79238
 21
139.278528
 31
0.0
  0
LINE
  5
9B
100
AcDbEntity
  8
0
 62
     0
100
AcDbLine
 10
717.29238
 20
148.778528
 30
0.0
 11
718.54238
 21
150.028528
 31
0.0
  0
LINE
  5
9C
100
AcDbEntity
  8
0
 62
     0
100
AcDbLine
 10
713.71574
 20
145.201888
 30
0.0
 11
714.96574
 21
146.451888
 31
0.0
  0
LINE
  5
9D
100
AcDbEntity
  8
0
 62
     0
100
AcDbLine
 10
706.01205
 20
138.028528
 30
0.0
 11
707.26205
 21
139.278528
 31
0.0
  0
LINE
  5
9E
100
AcDbEntity
  8
0
 62
     0
100
AcDbLine
 10
716.76205
 20
148.778528
 30
0.0
 11
718.01205
 21
150.028528
 31
0.0
  0
LINE
  5
9F
100
AcDbEntity
  8
0
 62
     0
100
AcDbLine
 10
713.71574
 20
145.732218
 30
0.0
 11
714.96574
 21
146.982218
 31
0.0
  0
LINE
  5
A0
100
AcDbEntity
  8
0
 62
     0
100
AcDbLine
 10
705.48172
 20
138.028528
 30
0.0
 11
706.73172
 21
139.278528
 31
0.0
  0
LINE
  5
A1
100
AcDbEntity
  8
0
 62
     0
100
AcDbLine
 10
716.23172
 20
148.778528
 30
0.0
 11
717.48172
 21
150.028528
 31
0.0
  0
LINE
  5
A2
100
AcDbEntity
  8
0
 62
     0
100
AcDbLine
 10
713.71574
 20
146.262548
 30
0.0
 11
714.96574
 21
147.512548
 31
0.0
  0
LINE
  5
A3
100
AcDbEntity
  8
0
 62
     0
100
AcDbLine
 10
704.95139
 20
138.028528
 30
0.0
 11
706.20139
 21
139.278528
 31
0.0
  0
LINE
  5
A4
100
AcDbEntity
  8
0
 62
     0
100
AcDbLine
 10
715.70139
 20
148.778528
 30
0.0
 11
716.95139
 21
150.028528
 31
0.0
  0
LINE
  5
A5
100
AcDbEntity
  8
0
 62
     0
100
AcDbLine
 10
713.71574
 20
146.792878
 30
0.0
 11
714.96574
 21
148.042878
 31
0.0
  0
LINE
  5
A6
100
AcDbEntity
  8
0
 62
     0
100
AcDbLine
 10
704.42106
 20
138.028528
 30
0.0
 11
705.67106
 21
139.278528
 31
0.0
  0
LINE
  5
A7
100
AcDbEntity
  8
0
 62
     0
100
AcDbLine
 10
713.71574
 20
147.323208
 30
0.0
 11
716.42106
 21
150.028528
 31
0.0
  0
LINE
  5
A8
100
AcDbEntity
  8
0
 62
     0
100
AcDbLine
 10
703.89073
 20
138.028528
 30
0.0
 11
705.14073
 21
139.278528
 31
0.0
  0
LINE
  5
A9
100
AcDbEntity
  8
0
 62
     0
100
AcDbLine
 10
713.71574
 20
147.853538
 30
0.0
 11
715.89073
 21
150.028528
 31
0.0
  0
LINE
  5
AA
100
AcDbEntity
  8
0
 62
     0
100
AcDbLine
 10
703.3604
 20
138.028528
 30
0.0
 11
704.6104
 21
139.278528
 31
0.0
  0
LINE
  5
AB
100
AcDbEntity
  8
0
 62
     0
100
AcDbLine
 10
713.706431
 20
148.37456
 30
0.0
 11
715.3604
 21
150.028528
 31
0.0
  0
LINE
  5
AC
100
AcDbEntity
  8
0
 62
     0
100
AcDbLine
 10
702.83007
 20
138.028528
 30
0.0
 11
704.08007
 21
139.278528
 31
0.0
  0
LINE
  5
AD
100
AcDbEntity
  8
0
 62
     0
100
AcDbLine
 10
713.494889
 20
148.693348
 30
0.0
 11
714.83007
 21
150.028528
 31
0.0
  0
LINE
  5
AE
100
AcDbEntity
  8
0
 62
     0
100
AcDbLine
 10
702.299739
 20
138.028528
 30
0.0
 11
703.549739
 21
139.278528
 31
0.0
  0
LINE
  5
AF
100
AcDbEntity
  8
0
 62
     0
100
AcDbLine
 10
713.049739
 20
148.778528
 30
0.0
 11
714.299739
 21
150.028528
 31
0.0
  0
LINE
  5
B0
100
AcDbEntity
  8
0
 62
     0
100
AcDbLine
 10
701.769409
 20
138.028528
 30
0.0
 11
703.019409
 21
139.278528
 31
0.0
  0
LINE
  5
B1
100
AcDbEntity
  8
0
 62
     0
100
AcDbLine
 10
712.519409
 20
148.778528
 30
0.0
 11
713.769409
 21
150.028528
 31
0.0
  0
LINE
  5
B2
100
AcDbEntity
  8
0
 62
     0
100
AcDbLine
 10
701.239079
 20
138.028528
 30
0.0
 11
702.489079
 21
139.278528
 31
0.0
  0
LINE
  5
B3
100
AcDbEntity
  8
0
 62
     0
100
AcDbLine
 10
711.989079
 20
148.778528
 30
0.0
 11
713.239079
 21
150.028528
 31
0.0
  0
LINE
  5
B4
100
AcDbEntity
  8
0
 62
     0
100
AcDbLine
 10
700.708749
 20
138.028528
 30
0.0
 11
701.958749
 21
139.278528
 31
0.0
  0
LINE
  5
B5
100
AcDbEntity
  8
0
 62
     0
100
AcDbLine
 10
711.458749
 20
148.778528
 30
0.0
 11
712.708749
 21
150.028528
 31
0.0
  0
LINE
  5
B6
100
AcDbEntity
  8
0
 62
     0
100
AcDbLine
 10
700.234897
 20
138.085006
 30
0.0
 11
701.484897
 21
139.335006
 31
0.0
  0
LINE
  5
B7
100
AcDbEntity
  8
0
 62
     0
100
AcDbLine
 10
710.928419
 20
148.778528
 30
0.0
 11
712.178419
 21
150.028528
 31
0.0
  0
LINE
  5
B8
100
AcDbEntity
  8
0
 62
     0
100
AcDbLine
 10
699.991043
 20
138.371482
 30
0.0
 11
701.241043
 21
139.621482
 31
0.0
  0
LINE
  5
B9
100
AcDbEntity
  8
0
 62
     0
100
AcDbLine
 10
710.398089
 20
148.778528
 30
0.0
 11
711.648089
 21
150.028528
 31
0.0
  0
LINE
  5
BA
100
AcDbEntity
  8
0
 62
     0
100
AcDbLine
 10
699.96574
 20
138.876509
 30
0.0
 11
701.21574
 21
140.126509
 31
0.0
  0
LINE
  5
BB
100
AcDbEntity
  8
0
 62
     0
100
AcDbLine
 10
709.867759
 20
148.778528
 30
0.0
 11
711.117759
 21
150.028528
 31
0.0
  0
LINE
  5
BC
100
AcDbEntity
  8
0
 62
     0
100
AcDbLine
 10
699.96574
 20
139.406839
 30
0.0
 11
701.21574
 21
140.656839
 31
0.0
  0
LINE
  5
BD
100
AcDbEntity
  8
0
 62
     0
100
AcDbLine
 10
709.337429
 20
148.778528
 30
0.0
 11
710.587429
 21
150.028528
 31
0.0
  0
LINE
  5
BE
100
AcDbEntity
  8
0
 62
     0
100
AcDbLine
 10
699.96574
 20
139.937169
 30
0.0
 11
701.21574
 21
141.187169
 31
0.0
  0
LINE
  5
BF
100
AcDbEntity
  8
0
 62
     0
100
AcDbLine
 10
708.807099
 20
148.778528
 30
0.0
 11
710.057099
 21
150.028528
 31
0.0
  0
LINE
  5
C0
100
AcDbEntity
  8
0
 62
     0
100
AcDbLine
 10
699.96574
 20
140.467499
 30
0.0
 11
701.21574
 21
141.717499
 31
0.0
  0
LINE
  5
C1
100
AcDbEntity
  8
0
 62
     0
100
AcDbLine
 10
708.276769
 20
148.778528
 30
0.0
 11
709.526769
 21
150.028528
 31
0.0
  0
LINE
  5
C2
100
AcDbEntity
  8
0
 62
     0
100
AcDbLine
 10
699.96574
 20
140.997829
 30
0.0
 11
701.21574
 21
142.247829
 31
0.0
  0
LINE
  5
C3
100
AcDbEntity
  8
0
 62
     0
100
AcDbLine
 10
707.746439
 20
148.778528
 30
0.0
 11
708.996439
 21
150.028528
 31
0.0
  0
LINE
  5
C4
100
AcDbEntity
  8
0
 62
     0
100
AcDbLine
 10
699.96574
 20
141.528159
 30
0.0
 11
701.21574
 21
142.778159
 31
0.0
  0
LINE
  5
C5
100
AcDbEntity
  8
0
 62
     0
100
AcDbLine
 10
707.216108
 20
148.778528
 30
0.0
 11
708.466108
 21
150.028528
 31
0.0
  0
LINE
  5
C6
100
AcDbEntity
  8
0
 62
     0
100
AcDbLine
 10
699.96574
 20
142.058489
 30
0.0
 11
701.21574
 21
143.308489
 31
0.0
  0
LINE
  5
C7
100
AcDbEntity
  8
0
 62
     0
100
AcDbLine
 10
706.685778
 20
148.778528
 30
0.0
 11
707.935778
 21
150.028528
 31
0.0
  0
LINE
  5
C8
100
AcDbEntity
  8
0
 62
     0
100
AcDbLine
 10
699.96574
 20
142.588819
 30
0.0
 11
701.21574
 21
143.838819
 31
0.0
  0
LINE
  5
C9
100
AcDbEntity
  8
0
 62
     0
100
AcDbLine
 10
706.155448
 20
148.778528
 30
0.0
 11
707.405448
 21
150.028528
 31
0.0
  0
LINE
  5
CA
100
AcDbEntity
  8
0
 62
     0
100
AcDbLine
 10
699.96574
 20
143.11915
 30
0.0
 11
701.21574
 21
144.36915
 31
0.0
  0
LINE
  5
CB
100
AcDbEntity
  8
0
 62
     0
100
AcDbLine
 10
705.625118
 20
148.778528
 30
0.0
 11
706.875118
 21
150.028528
 31
0.0
  0
LINE
  5
CC
100
AcDbEntity
  8
0
 62
     0
100
AcDbLine
 10
699.96574
 20
143.64948
 30
0.0
 11
701.21574
 21
144.89948
 31
0.0
  0
LINE
  5
CD
100
AcDbEntity
  8
0
 62
     0
100
AcDbLine
 10
705.094788
 20
148.778528
 30
0.0
 11
706.344788
 21
150.028528
 31
0.0
  0
LINE
  5
CE
100
AcDbEntity
  8
0
 62
     0
100
AcDbLine
 10
699.96574
 20
144.17981
 30
0.0
 11
701.21574
 21
145.42981
 31
0.0
  0
LINE
  5
CF
100
AcDbEntity
  8
0
 62
     0
100
AcDbLine
 10
704.564458
 20
148.778528
 30
0.0
 11
705.814458
 21
150.028528
 31
0.0
  0
LINE
  5
D0
100
AcDbEntity
  8
0
 62
     0
100
AcDbLine
 10
699.96574
 20
144.71014
 30
0.0
 11
701.21574
 21
145.96014
 31
0.0
  0
LINE
  5
D1
100
AcDbEntity
  8
0
 62
     0
100
AcDbLine
 10
704.034128
 20
148.778528
 30
0.0
 11
705.284128
 21
150.028528
 31
0.0
  0
LINE
  5
D2
100
AcDbEntity
  8
0
 62
     0
100
AcDbLine
 10
699.96574
 20
145.24047
 30
0.0
 11
701.21574
 21
146.49047
 31
0.0
  0
LINE
  5
D3
100
AcDbEntity
  8
0
 62
     0
100
AcDbLine
 10
703.503798
 20
148.778528
 30
0.0
 11
704.753798
 21
150.028528
 31
0.0
  0
LINE
  5
D4
100
AcDbEntity
  8
0
 62
     0
100
AcDbLine
 10
699.96574
 20
145.7708
 30
0.0
 11
701.21574
 21
147.0208
 31
0.0
  0
LINE
  5
D5
100
AcDbEntity
  8
0
 62
     0
100
AcDbLine
 10
702.973468
 20
148.778528
 30
0.0
 11
704.223468
 21
150.028528
 31
0.0
  0
LINE
  5
D6
100
AcDbEntity
  8
0
 62
     0
100
AcDbLine
 10
699.96574
 20
146.30113
 30
0.0
 11
701.21574
 21
147.55113
 31
0.0
  0
LINE
  5
D7
100
AcDbEntity
  8
0
 62
     0
100
AcDbLine
 10
702.443138
 20
148.778528
 30
0.0
 11
703.693138
 21
150.028528
 31
0.0
  0
LINE
  5
D8
100
AcDbEntity
  8
0
 62
     0
100
AcDbLine
 10
699.96574
 20
146.83146
 30
0.0
 11
701.21574
 21
148.08146
 31
0.0
  0
LINE
  5
D9
100
AcDbEntity
  8
0
 62
     0
100
AcDbLine
 10
701.912808
 20
148.778528
 30
0.0
 11
703.162808
 21
150.028528
 31
0.0
  0
LINE
  5
DA
100
AcDbEntity
  8
0
 62
     0
100
AcDbLine
 10
699.96574
 20
147.36179
 30
0.0
 11
702.632478
 21
150.028528
 31
0.0
  0
LINE
  5
DB
100
AcDbEntity
  8
0
 62
     0
100
AcDbLine
 10
699.96574
 20
147.89212
 30
0.0
 11
702.102147
 21
150.028528
 31
0.0
  0
LINE
  5
DC
100
AcDbEntity
  8
0
 62
     0
100
AcDbLine
 10
699.96574
 20
148.42245
 30
0.0
 11
701.571817
 21
150.028528
 31
0.0
  0
LINE
  5
DD
100
AcDbEntity
  8
0
 62
     0
100
AcDbLine
 10
699.96574
 20
148.952781
 30
0.0
 11
701.041487
 21
150.028528
 31
0.0
  0
LINE
  5
DE
100
AcDbEntity
  8
0
 62
     0
100
AcDbLine
 10
734.793273
 20
148.778528
 30
0.0
 11
736.043273
 21
150.028528
 31
0.0
  0
LINE
  5
DF
100
AcDbEntity
  8
0
 62
     0
100
AcDbLine
 10
735.323603
 20
148.778528
 30
0.0
 11
736.573603
 21
150.028528
 31
0.0
  0
LINE
  5
E0
100
AcDbEntity
  8
0
 62
     0
100
AcDbLine
 10
735.853933
 20
148.778528
 30
0.0
 11
737.103933
 21
150.028528
 31
0.0
  0
LINE
  5
E1
100
AcDbEntity
  8
0
 62
     0
100
AcDbLine
 10
736.384263
 20
148.778528
 30
0.0
 11
737.634263
 21
150.028528
 31
0.0
  0
LINE
  5
E2
100
AcDbEntity
  8
0
 62
     0
100
AcDbLine
 10
736.914593
 20
148.778528
 30
0.0
 11
738.164593
 21
150.028528
 31
0.0
  0
LINE
  5
E3
100
AcDbEntity
  8
0
 62
     0
100
AcDbLine
 10
737.444923
 20
148.778528
 30
0.0
 11
738.694923
 21
150.028528
 31
0.0
  0
LINE
  5
E4
100
AcDbEntity
  8
0
 62
     0
100
AcDbLine
 10
737.975253
 20
148.778528
 30
0.0
 11
739.225253
 21
150.028528
 31
0.0
  0
LINE
  5
E5
100
AcDbEntity
  8
0
 62
     0
100
AcDbLine
 10
738.505584
 20
148.778528
 30
0.0
 11
739.755584
 21
150.028528
 31
0.0
  0
LINE
  5
E6
100
AcDbEntity
  8
0
 62
     0
100
AcDbLine
 10
739.035914
 20
148.778528
 30
0.0
 11
740.285914
 21
150.028528
 31
0.0
  0
LINE
  5
E7
100
AcDbEntity
  8
0
 62
     0
100
AcDbLine
 10
739.566244
 20
148.778528
 30
0.0
 11
740.816244
 21
150.028528
 31
0.0
  0
LINE
  5
E8
100
AcDbEntity
  8
0
 62
     0
100
AcDbLine
 10
740.096574
 20
148.778528
 30
0.0
 11
741.346574
 21
150.028528
 31
0.0
  0
LINE
  5
E9
100
AcDbEntity
  8
0
 62
     0
100
AcDbLine
 10
740.626904
 20
148.778528
 30
0.0
 11
741.876904
 21
150.028528
 31
0.0
  0
LINE
  5
EA
100
AcDbEntity
  8
0
 62
     0
100
AcDbLine
 10
741.157234
 20
148.778528
 30
0.0
 11
742.407234
 21
150.028528
 31
0.0
  0
LINE
  5
EB
100
AcDbEntity
  8
0
 62
     0
100
AcDbLine
 10
741.687564
 20
148.778528
 30
0.0
 11
742.937564
 21
150.028528
 31
0.0
  0
LINE
  5
EC
100
AcDbEntity
  8
0
 62
     0
100
AcDbLine
 10
742.217894
 20
148.778528
 30
0.0
 11
743.467894
 21
150.028528
 31
0.0
  0
LINE
  5
ED
100
AcDbEntity
  8
0
 62
     0
100
AcDbLine
 10
742.748224
 20
148.778528
 30
0.0
 11
743.998224
 21
150.028528
 31
0.0
  0
LINE
  5
EE
100
AcDbEntity
  8
0
 62
     0
100
AcDbLine
 10
743.278554
 20
148.778528
 30
0.0
 11
744.528554
 21
150.028528
 31
0.0
  0
LINE
  5
EF
100
AcDbEntity
  8
0
 62
     0
100
AcDbLine
 10
743.808884
 20
148.778528
 30
0.0
 11
745.058884
 21
150.028528
 31
0.0
  0
LINE
  5
F0
100
AcDbEntity
  8
0
 62
     0
100
AcDbLine
 10
744.339215
 20
148.778528
 30
0.0
 11
745.589215
 21
150.028528
 31
0.0
  0
LINE
  5
F1
100
AcDbEntity
  8
0
 62
     0
100
AcDbLine
 10
744.767909
 20
148.676892
 30
0.0
 11
746.119545
 21
150.028528
 31
0.0
  0
LINE
  5
F2
100
AcDbEntity
  8
0
 62
     0
100
AcDbLine
 10
744.96188
 20
148.340534
 30
0.0
 11
746.649875
 21
150.028528
 31
0.0
  0
LINE
  5
F3
100
AcDbEntity
  8
0
 62
     0
100
AcDbLine
 10
744.96574
 20
147.814063
 30
0.0
 11
747.180205
 21
150.028528
 31
0.0
  0
LINE
  5
F4
100
AcDbEntity
  8
0
 62
     0
100
AcDbLine
 10
744.96574
 20
147.283733
 30
0.0
 11
747.710535
 21
150.028528
 31
0.0
  0
LINE
  5
F5
100
AcDbEntity
  8
0
 62
     0
100
AcDbLine
 10
740.966869
 20
142.754532
 30
0.0
 11
741.239736
 21
143.027399
 31
0.0
  0
LINE
  5
F6
100
AcDbEntity
  8
0
 62
     0
100
AcDbLine
 10
746.990865
 20
148.778528
 30
0.0
 11
748.240865
 21
150.028528
 31
0.0
  0
LINE
  5
F7
100
AcDbEntity
  8
0
 62
     0
100
AcDbLine
 10
744.96574
 20
146.753403
 30
0.0
 11
746.21574
 21
148.003403
 31
0.0
  0
LINE
  5
F8
100
AcDbEntity
  8
0
 62
     0
100
AcDbLine
 10
740.96574
 20
142.223073
 30
0.0
 11
741.771195
 21
143.028528
 31
0.0
  0
LINE
  5
F9
100
AcDbEntity
  8
0
 62
     0
100
AcDbLine
 10
747.521195
 20
148.778528
 30
0.0
 11
748.771195
 21
150.028528
 31
0.0
  0
LINE
  5
FA
100
AcDbEntity
  8
0
 62
     0
100
AcDbLine
 10
744.96574
 20
146.223073
 30
0.0
 11
746.21574
 21
147.473073
 31
0.0
  0
LINE
  5
FB
100
AcDbEntity
  8
0
 62
     0
100
AcDbLine
 10
740.96574
 20
141.692743
 30
0.0
 11
742.301525
 21
143.028528
 31
0.0
  0
LINE
  5
FC
100
AcDbEntity
  8
0
 62
     0
100
AcDbLine
 10
748.051525
 20
148.778528
 30
0.0
 11
749.301525
 21
150.028528
 31
0.0
  0
LINE
  5
FD
100
AcDbEntity
  8
0
 62
     0
100
AcDbLine
 10
744.96574
 20
145.692743
 30
0.0
 11
746.21574
 21
146.942743
 31
0.0
  0
LINE
  5
FE
100
AcDbEntity
  8
0
 62
     0
100
AcDbLine
 10
740.96574
 20
141.162413
 30
0.0
 11
742.80009
 21
142.996763
 31
0.0
  0
LINE
  5
FF
100
AcDbEntity
  8
0
 62
     0
100
AcDbLine
 10
748.581855
 20
148.778528
 30
0.0
 11
749.831855
 21
150.028528
 31
0.0
  0
LINE
  5
100
100
AcDbEntity
  8
0
 62
     0
100
AcDbLine
 10
744.96574
 20
145.162413
 30
0.0
 11
746.21574
 21
146.412413
 31
0.0
  0
LINE
  5
101
100
AcDbEntity
  8
0
 62
     0
100
AcDbLine
 10
740.96574
 20
140.632083
 30
0.0
 11
742.96574
 21
142.632083
 31
0.0
  0
LINE
  5
102
100
AcDbEntity
  8
0
 62
     0
100
AcDbLine
 10
749.112185
 20
148.778528
 30
0.0
 11
750.362185
 21
150.028528
 31
0.0
  0
LINE
  5
103
100
AcDbEntity
  8
0
 62
     0
100
AcDbLine
 10
744.96574
 20
144.632083
 30
0.0
 11
746.21574
 21
145.882083
 31
0.0
  0
LINE
  5
104
100
AcDbEntity
  8
0
 62
     0
100
AcDbLine
 10
740.96574
 20
140.101752
 30
0.0
 11
743.077475
 21
142.213488
 31
0.0
  0
LINE
  5
105
100
AcDbEntity
  8
0
 62
     0
100
AcDbLine
 10
749.642515
 20
148.778528
 30
0.0
 11
750.892515
 21
150.028528
 31
0.0
  0
LINE
  5
106
100
AcDbEntity
  8
0
 62
     0
100
AcDbLine
 10
744.96574
 20
144.101752
 30
0.0
 11
746.21574
 21
145.351752
 31
0.0
  0
LINE
  5
107
100
AcDbEntity
  8
0
 62
     0
100
AcDbLine
 10
741.009021
 20
139.614703
 30
0.0
 11
743.424545
 21
142.030228
 31
0.0
  0
LINE
  5
108
100
AcDbEntity
  8
0
 62
     0
100
AcDbLine
 10
750.172845
 20
148.778528
 30
0.0
 11
751.422845
 21
150.028528
 31
0.0
  0
LINE
  5
109
100
AcDbEntity
  8
0
 62
     0
100
AcDbLine
 10
744.96574
 20
143.571422
 30
0.0
 11
746.21574
 21
144.821422
 31
0.0
  0
LINE
  5
10A
100
AcDbEntity
  8
0
 62
     0
100
AcDbLine
 10
741.138973
 20
139.214326
 30
0.0
 11
742.215902
 21
140.291254
 31
0.0
  0
LINE
  5
10B
100
AcDbEntity
  8
0
 62
     0
100
AcDbLine
 10
750.703176
 20
148.778528
 30
0.0
 11
751.953176
 21
150.028528
 31
0.0
  0
LINE
  5
10C
100
AcDbEntity
  8
0
 62
     0
100
AcDbLine
 10
742.703014
 20
140.778366
 30
0.0
 11
743.953176
 21
142.028528
 31
0.0
  0
LINE
  5
10D
100
AcDbEntity
  8
0
 62
     0
100
AcDbLine
 10
744.96574
 20
143.041092
 30
0.0
 11
746.21574
 21
144.291092
 31
0.0
  0
LINE
  5
10E
100
AcDbEntity
  8
0
 62
     0
100
AcDbLine
 10
741.331115
 20
138.876138
 30
0.0
 11
742.30987
 21
139.854893
 31
0.0
  0
LINE
  5
10F
100
AcDbEntity
  8
0
 62
     0
100
AcDbLine
 10
751.233506
 20
148.778528
 30
0.0
 11
752.483506
 21
150.028528
 31
0.0
  0
LINE
  5
110
100
AcDbEntity
  8
0
 62
     0
100
AcDbLine
 10
743.233506
 20
140.778528
 30
0.0
 11
744.483833
 21
142.028856
 31
0.0
  0
LINE
  5
111
100
AcDbEntity
  8
0
 62
     0
100
AcDbLine
 10
744.965412
 20
142.510435
 30
0.0
 11
746.21574
 21
143.760762
 31
0.0
  0
LINE
  5
112
100
AcDbEntity
  8
0
 62
     0
100
AcDbLine
 10
741.575779
 20
138.590471
 30
0.0
 11
742.533061
 21
139.547753
 31
0.0
  0
LINE
  5
113
100
AcDbEntity
  8
0
 62
     0
100
AcDbLine
 10
751.763836
 20
148.778528
 30
0.0
 11
753.013836
 21
150.028528
 31
0.0
  0
LINE
  5
114
100
AcDbEntity
  8
0
 62
     0
100
AcDbLine
 10
743.763836
 20
140.778528
 30
0.0
 11
746.21574
 21
143.230432
 31
0.0
  0
LINE
  5
115
100
AcDbEntity
  8
0
 62
     0
100
AcDbLine
 10
741.870628
 20
138.35499
 30
0.0
 11
742.859674
 21
139.344036
 31
0.0
  0
LINE
  5
116
100
AcDbEntity
  8
0
 62
     0
100
AcDbLine
 10
752.294166
 20
148.778528
 30
0.0
 11
753.544166
 21
150.028528
 31
0.0
  0
LINE
  5
117
100
AcDbEntity
  8
0
 62
     0
100
AcDbLine
 10
744.294166
 20
140.778528
 30
0.0
 11
746.21574
 21
142.700102
 31
0.0
  0
LINE
  5
118
100
AcDbEntity
  8
0
 62
     0
100
AcDbLine
 10
742.219093
 20
138.173125
 30
0.0
 11
743.324496
 21
139.278528
 31
0.0
  0
LINE
  5
119
100
AcDbEntity
  8
0
 62
     0
100
AcDbLine
 10
752.824496
 20
148.778528
 30
0.0
 11
754.074496
 21
150.028528
 31
0.0
  0
LINE
  5
11A
100
AcDbEntity
  8
0
 62
     0
100
AcDbLine
 10
744.824496
 20
140.778528
 30
0.0
 11
746.21574
 21
142.169772
 31
0.0
  0
LINE
  5
11B
100
AcDbEntity
  8
0
 62
     0
100
AcDbLine
 10
742.632743
 20
138.056445
 30
0.0
 11
743.854826
 21
139.278528
 31
0.0
  0
LINE
  5
11C
100
AcDbEntity
  8
0
 62
     0
100
AcDbLine
 10
753.354826
 20
148.778528
 30
0.0
 11
754.604826
 21
150.028528
 31
0.0
  0
LINE
  5
11D
100
AcDbEntity
  8
0
 62
     0
100
AcDbLine
 10
745.366212
 20
140.789914
 30
0.0
 11
746.204354
 21
141.628056
 31
0.0
  0
LINE
  5
11E
100
AcDbEntity
  8
0
 62
     0
100
AcDbLine
 10
743.135156
 20
138.028528
 30
0.0
 11
744.385156
 21
139.278528
 31
0.0
  0
LINE
  5
11F
100
AcDbEntity
  8
0
 62
     0
100
AcDbLine
 10
753.885156
 20
148.778528
 30
0.0
 11
755.135156
 21
150.028528
 31
0.0
  0
LINE
  5
120
100
AcDbEntity
  8
0
 62
     0
100
AcDbLine
 10
743.665486
 20
138.028528
 30
0.0
 11
744.915486
 21
139.278528
 31
0.0
  0
LINE
  5
121
100
AcDbEntity
  8
0
 62
     0
100
AcDbLine
 10
754.415486
 20
148.778528
 30
0.0
 11
755.665486
 21
150.028528
 31
0.0
  0
LINE
  5
122
100
AcDbEntity
  8
0
 62
     0
100
AcDbLine
 10
744.195816
 20
138.028528
 30
0.0
 11
745.445816
 21
139.278528
 31
0.0
  0
LINE
  5
123
100
AcDbEntity
  8
0
 62
     0
100
AcDbLine
 10
754.945816
 20
148.778528
 30
0.0
 11
756.195816
 21
150.028528
 31
0.0
  0
LINE
  5
124
100
AcDbEntity
  8
0
 62
     0
100
AcDbLine
 10
744.726146
 20
138.028528
 30
0.0
 11
745.976146
 21
139.278528
 31
0.0
  0
LINE
  5
125
100
AcDbEntity
  8
0
 62
     0
100
AcDbLine
 10
755.476146
 20
148.778528
 30
0.0
 11
756.726146
 21
150.028528
 31
0.0
  0
LINE
  5
126
100
AcDbEntity
  8
0
 62
     0
100
AcDbLine
 10
745.256476
 20
138.028528
 30
0.0
 11
746.506476
 21
139.278528
 31
0.0
  0
LINE
  5
127
100
AcDbEntity
  8
0
 62
     0
100
AcDbLine
 10
756.006476
 20
148.778528
 30
0.0
 11
757.256476
 21
150.028528
 31
0.0
  0
LINE
  5
128
100
AcDbEntity
  8
0
 62
     0
100
AcDbLine
 10
745.786806
 20
138.028528
 30
0.0
 11
747.036806
 21
139.278528
 31
0.0
  0
LINE
  5
129
100
AcDbEntity
  8
0
 62
     0
100
AcDbLine
 10
756.536806
 20
148.778528
 30
0.0
 11
757.786806
 21
150.028528
 31
0.0
  0
LINE
  5
12A
100
AcDbEntity
  8
0
 62
     0
100
AcDbLine
 10
746.317137
 20
138.028528
 30
0.0
 11
747.567137
 21
139.278528
 31
0.0
  0
LINE
  5
12B
100
AcDbEntity
  8
0
 62
     0
100
AcDbLine
 10
757.067137
 20
148.778528
 30
0.0
 11
758.317137
 21
150.028528
 31
0.0
  0
LINE
  5
12C
100
AcDbEntity
  8
0
 62
     0
100
AcDbLine
 10
746.847467
 20
138.028528
 30
0.0
 11
748.097467
 21
139.278528
 31
0.0
  0
LINE
  5
12D
100
AcDbEntity
  8
0
 62
     0
100
AcDbLine
 10
757.597467
 20
148.778528
 30
0.0
 11
758.847467
 21
150.028528
 31
0.0
  0
LINE
  5
12E
100
AcDbEntity
  8
0
 62
     0
100
AcDbLine
 10
747.377797
 20
138.028528
 30
0.0
 11
748.627797
 21
139.278528
 31
0.0
  0
LINE
  5
12F
100
AcDbEntity
  8
0
 62
     0
100
AcDbLine
 10
758.127797
 20
148.778528
 30
0.0
 11
759.314871
 21
149.965602
 31
0.0
  0
LINE
  5
130
100
AcDbEntity
  8
0
 62
     0
100
AcDbLine
 10
747.908127
 20
138.028528
 30
0.0
 11
749.158127
 21
139.278528
 31
0.0
  0
LINE
  5
131
100
AcDbEntity
  8
0
 62
     0
100
AcDbLine
 10
758.539311
 20
148.659712
 30
0.0
 11
759.643453
 21
149.763854
 31
0.0
  0
LINE
  5
132
100
AcDbEntity
  8
0
 62
     0
100
AcDbLine
 10
748.438457
 20
138.028528
 30
0.0
 11
749.688457
 21
139.278528
 31
0.0
  0
LINE
  5
133
100
AcDbEntity
  8
0
 62
     0
100
AcDbLine
 10
758.715033
 20
148.305104
 30
0.0
 11
759.868533
 21
149.458604
 31
0.0
  0
LINE
  5
134
100
AcDbEntity
  8
0
 62
     0
100
AcDbLine
 10
748.968787
 20
138.028528
 30
0.0
 11
750.218787
 21
139.278528
 31
0.0
  0
LINE
  5
135
100
AcDbEntity
  8
0
 62
     0
100
AcDbLine
 10
758.71574
 20
147.775481
 30
0.0
 11
759.96574
 21
149.025481
 31
0.0
  0
LINE
  5
136
100
AcDbEntity
  8
0
 62
     0
100
AcDbLine
 10
749.499117
 20
138.028528
 30
0.0
 11
750.749117
 21
139.278528
 31
0.0
  0
LINE
  5
137
100
AcDbEntity
  8
0
 62
     0
100
AcDbLine
 10
758.71574
 20
147.245151
 30
0.0
 11
759.96574
 21
148.495151
 31
0.0
  0
LINE
  5
138
100
AcDbEntity
  8
0
 62
     0
100
AcDbLine
 10
750.029447
 20
138.028528
 30
0.0
 11
751.279447
 21
139.278528
 31
0.0
  0
LINE
  5
139
100
AcDbEntity
  8
0
 62
     0
100
AcDbLine
 10
758.71574
 20
146.714821
 30
0.0
 11
759.96574
 21
147.964821
 31
0.0
  0
LINE
  5
13A
100
AcDbEntity
  8
0
 62
     0
100
AcDbLine
 10
750.559777
 20
138.028528
 30
0.0
 11
751.809777
 21
139.278528
 31
0.0
  0
LINE
  5
13B
100
AcDbEntity
  8
0
 62
     0
100
AcDbLine
 10
758.71574
 20
146.184491
 30
0.0
 11
759.96574
 21
147.434491
 31
0.0
  0
LINE
  5
13C
100
AcDbEntity
  8
0
 62
     0
100
AcDbLine
 10
751.090107
 20
138.028528
 30
0.0
 11
752.340107
 21
139.278528
 31
0.0
  0
LINE
  5
13D
100
AcDbEntity
  8
0
 62
     0
100
AcDbLine
 10
758.71574
 20
145.65416
 30
0.0
 11
759.96574
 21
146.90416
 31
0.0
  0
LINE
  5
13E
100
AcDbEntity
  8
0
 62
     0
100
AcDbLine
 10
751.620437
 20
138.028528
 30
0.0
 11
752.870437
 21
139.278528
 31
0.0
  0
LINE
  5
13F
100
AcDbEntity
  8
0
 62
     0
100
AcDbLine
 10
758.71574
 20
145.12383
 30
0.0
 11
759.96574
 21
146.37383
 31
0.0
  0
LINE
  5
140
100
AcDbEntity
  8
0
 62
     0
100
AcDbLine
 10
752.150768
 20
138.028528
 30
0.0
 11
753.400768
 21
139.278528
 31
0.0
  0
LINE
  5
141
100
AcDbEntity
  8
0
 62
     0
100
AcDbLine
 10
758.71574
 20
144.5935
 30
0.0
 11
759.96574
 21
145.8435
 31
0.0
  0
LINE
  5
142
100
AcDbEntity
  8
0
 62
     0
100
AcDbLine
 10
752.681098
 20
138.028528
 30
0.0
 11
753.931098
 21
139.278528
 31
0.0
  0
LINE
  5
143
100
AcDbEntity
  8
0
 62
     0
100
AcDbLine
 10
758.71574
 20
144.06317
 30
0.0
 11
759.96574
 21
145.31317
 31
0.0
  0
LINE
  5
144
100
AcDbEntity
  8
0
 62
     0
100
AcDbLine
 10
753.211428
 20
138.028528
 30
0.0
 11
754.461428
 21
139.278528
 31
0.0
  0
LINE
  5
145
100
AcDbEntity
  8
0
 62
     0
100
AcDbLine
 10
758.71574
 20
143.53284
 30
0.0
 11
759.96574
 21
144.78284
 31
0.0
  0
LINE
  5
146
100
AcDbEntity
  8
0
 62
     0
100
AcDbLine
 10
753.741758
 20
138.028528
 30
0.0
 11
754.991758
 21
139.278528
 31
0.0
  0
LINE
  5
147
100
AcDbEntity
  8
0
 62
     0
100
AcDbLine
 10
758.71574
 20
143.00251
 30
0.0
 11
759.96574
 21
144.25251
 31
0.0
  0
LINE
  5
148
100
AcDbEntity
  8
0
 62
     0
100
AcDbLine
 10
754.272088
 20
138.028528
 30
0.0
 11
755.522088
 21
139.278528
 31
0.0
  0
LINE
  5
149
100
AcDbEntity
  8
0
 62
     0
100
AcDbLine
 10
758.71574
 20
142.47218
 30
0.0
 11
759.96574
 21
143.72218
 31
0.0
  0
LINE
  5
14A
100
AcDbEntity
  8
0
 62
     0
100
AcDbLine
 10
754.802418
 20
138.028528
 30
0.0
 11
756.052418
 21
139.278528
 31
0.0
  0
LINE
  5
14B
100
AcDbEntity
  8
0
 62
     0
100
AcDbLine
 10
758.71574
 20
141.94185
 30
0.0
 11
759.96574
 21
143.19185
 31
0.0
  0
LINE
  5
14C
100
AcDbEntity
  8
0
 62
     0
100
AcDbLine
 10
755.332748
 20
138.028528
 30
0.0
 11
756.582748
 21
139.278528
 31
0.0
  0
LINE
  5
14D
100
AcDbEntity
  8
0
 62
     0
100
AcDbLine
 10
758.71574
 20
141.41152
 30
0.0
 11
759.96574
 21
142.66152
 31
0.0
  0
LINE
  5
14E
100
AcDbEntity
  8
0
 62
     0
100
AcDbLine
 10
755.863078
 20
138.028528
 30
0.0
 11
757.113078
 21
139.278528
 31
0.0
  0
LINE
  5
14F
100
AcDbEntity
  8
0
 62
     0
100
AcDbLine
 10
758.71574
 20
140.88119
 30
0.0
 11
759.96574
 21
142.13119
 31
0.0
  0
LINE
  5
150
100
AcDbEntity
  8
0
 62
     0
100
AcDbLine
 10
756.393408
 20
138.028528
 30
0.0
 11
757.643408
 21
139.278528
 31
0.0
  0
LINE
  5
151
100
AcDbEntity
  8
0
 62
     0
100
AcDbLine
 10
758.71574
 20
140.35086
 30
0.0
 11
759.96574
 21
141.60086
 31
0.0
  0
LINE
  5
152
100
AcDbEntity
  8
0
 62
     0
100
AcDbLine
 10
756.923738
 20
138.028528
 30
0.0
 11
758.173738
 21
139.278528
 31
0.0
  0
LINE
  5
153
100
AcDbEntity
  8
0
 62
     0
100
AcDbLine
 10
758.71574
 20
139.82053
 30
0.0
 11
759.96574
 21
141.07053
 31
0.0
  0
LINE
  5
154
100
AcDbEntity
  8
0
 62
     0
100
AcDbLine
 10
757.454068
 20
138.028528
 30
0.0
 11
759.96574
 21
140.540199
 31
0.0
  0
LINE
  5
155
100
AcDbEntity
  8
0
 62
     0
100
AcDbLine
 10
757.984398
 20
138.028528
 30
0.0
 11
759.96574
 21
140.009869
 31
0.0
  0
LINE
  5
156
100
AcDbEntity
  8
0
 62
     0
100
AcDbLine
 10
758.514729
 20
138.028528
 30
0.0
 11
759.96574
 21
139.479539
 31
0.0
  0
LINE
  5
157
100
AcDbEntity
  8
0
 62
     0
100
AcDbLine
 10
759.045059
 20
138.028528
 30
0.0
 11
759.96574
 21
138.949209
 31
0.0
  0
LINE
  5
158
100
AcDbEntity
  8
0
 62
     0
100
AcDbLine
 10
759.59145
 20
138.044589
 30
0.0
 11
759.949679
 21
138.402818
 31
0.0
  0
ENDBLK
  5
15A
100
AcDbEntity
  8
0
100
AcDbBlockEnd
  0
BLOCK
  5
47
100
AcDbEntity
  8
0
100
AcDbBlockBegin
  2
SP6050
 70
     0
 10
0.0
 20
0.0
 30
0.0
  3
SP6050
  1

  0
LWPOLYLINE
  5
28
100
AcDbEntity
  8
KONTUR
100
AcDbPolyline
 90
       12
 70
     0
 43
0.0
 10
37.4124
 20
6.111771
 42
-0.493145
 10
38.861289
 20
8.0
 10
57.5
 20
8.0
 42
-0.414214
 10
58.0
 20
7.5
 10
58.0
 20
-37.5
 42
-0.414214
 10
57.5
 20
-38.0
 10
2.5
 20
-38.0
 42
-0.414214
 10
2.0
 20
-37.5
 10
2.0
 20
7.5
 42
-0.414214
 10
2.5
 20
8.0
 10
21.138712
 20
8.0
 42
-0.493145
 10
22.587601
 20
6.111771
 42
-0.493145
  0
LWPOLYLINE
  5
2A
100
AcDbEntity
  8
KONTUR
100
AcDbPolyline
 90
       13
 70
     0
 43
0.0
 10
35.480549
 20
5.594133
 42
-0.493145
 10
38.861289
 20
10.0
 10
57.5
 20
10.0
 42
-0.414214
 10
60.0
 20
7.5
 10
60.0
 20
-37.5
 42
-0.414214
 10
57.5
 20
-40.0
 10
30.0
 20
-40.0
 10
2.5
 20
-40.0
 42
-0.414214
 10
0.0
 20
-37.5
 10
0.0
 20
7.5
 42
-0.414214
 10
2.5
 20
10.0
 10
21.138712
 20
10.0
 42
-0.493145
 10
24.519452
 20
5.594133
  0
LWPOLYLINE
  5
2B
100
AcDbEntity
  8
PROFIL
100
AcDbPolyline
 90
       12
 70
     0
 43
2.0
 10
36.446474
 20
5.852952
 42
-0.493145
 10
38.861289
 20
9.0
 10
57.5
 20
9.0
 42
-0.414214
 10
59.0
 20
7.5
 10
59.0
 20
-37.5
 42
-0.414214
 10
57.5
 20
-39.0
 10
2.5
 20
-39.0
 42
-0.414214
 10
1.0
 20
-37.5
 10
1.0
 20
7.5
 42
-0.414214
 10
2.5
 20
9.0
 10
21.138712
 20
9.0
 42
-0.493145
 10
23.553527
 20
5.852952
 42
-0.493145
  0
LWPOLYLINE
  5
2D
100
AcDbEntity
  8
KONTUR
100
AcDbPolyline
 90
        2
 70
     0
 43
0.0
 10
28.585787
 20
-5.414213
 10
23.790061
 20
-0.618488
  0
LWPOLYLINE
  5
2E
100
AcDbEntity
  8
PROFIL
100
AcDbPolyline
 90
        2
 70
     0
 43
2.0
 10
27.87868
 20
-6.12132
 10
23.082954
 20
-1.325595
  0
ARC
  5
2F
100
AcDbEntity
  8
KONTUR
100
AcDbCircle
 10
30.0
 20
-4.0
 30
0.0
 40
4.0
100
AcDbArc
 50
225.0
 51
270.0
  0
LWPOLYLINE
  5
30
100
AcDbEntity
  8
PROFIL
100
AcDbPolyline
 90
        2
 70
     0
 43
2.0
 10
27.87868
 20
-6.12132
 42
0.198912
 10
30.0
 20
-7.0
 42
0.198912
  0
ARC
  5
31
100
AcDbEntity
  8
01
100
AcDbCircle
 10
2.5
 20
7.5
 30
0.0
 40
0.5
100
AcDbArc
 50
90.0
 51
180.0
  0
LINE
  5
33
100
AcDbEntity
  8
KONTUR
100
AcDbLine
 10
22.5876
 20
6.111772
 30
0.0
 11
21.440571
 21
1.831002
 31
0.0
  0
LINE
  5
34
100
AcDbEntity
  8
KONTUR
100
AcDbLine
 10
24.519452
 20
5.594134
 30
0.0
 11
23.372423
 21
1.313364
 31
0.0
  0
LWPOLYLINE
  5
35
100
AcDbEntity
  8
PROFIL
100
AcDbPolyline
 90
        2
 70
     0
 43
2.0
 10
23.553526
 20
5.852953
 10
22.406497
 20
1.572183
  0
ARC
  5
36
100
AcDbEntity
  8
KONTUR
100
AcDbCircle
 10
25.231538
 20
0.704208
 30
0.0
 40
3.956369
100
AcDbArc
 50
161.858142
 51
222.53942
  0
ARC
  5
37
100
AcDbEntity
  8
KONTUR
100
AcDbCircle
 10
25.231538
 20
0.704208
 30
0.0
 40
1.956369
100
AcDbArc
 50
161.858142
 51
222.53942
  0
LWPOLYLINE
  5
38
100
AcDbEntity
  8
PROFIL
100
AcDbPolyline
 90
        2
 70
     0
 43
2.0
 10
22.422135
 20
1.624735
 42
0.271138
 10
23.053249
 20
-1.294585
 42
0.271138
  0
LWPOLYLINE
  5
39
100
AcDbEntity
  8
KONTUR
100
AcDbPolyline
 90
        2
 70
     0
 43
0.0
 10
27.171574
 20
-6.828427
 10
22.375848
 20
-2.032702
  0
LWPOLYLINE
  5
3A
100
AcDbEntity
  8
KONTUR
100
AcDbPolyline
 90
        2
 70
     0
 43
0.0
 10
37.412401
 20
6.111772
 10
38.55943
 20
1.831002
  0
LWPOLYLINE
  5
3B
100
AcDbEntity
  8
KONTUR
100
AcDbPolyline
 90
        2
 70
     0
 43
0.0
 10
35.480549
 20
5.594134
 10
36.627578
 20
1.313364
  0
LWPOLYLINE
  5
3C
100
AcDbEntity
  8
PROFIL
100
AcDbPolyline
 90
        2
 70
     0
 43
2.0
 10
36.446475
 20
5.852953
 10
37.593504
 20
1.572183
  0
ARC
  5
3D
100
AcDbEntity
  8
KONTUR
100
AcDbCircle
 10
30.0
 20
-4.0
 30
0.0
 40
4.0
100
AcDbArc
 50
270.0
 51
315.0
  0
ARC
  5
3E
100
AcDbEntity
  8
KONTUR
100
AcDbCircle
 10
30.0
 20
-4.0
 30
0.0
 40
2.0
100
AcDbArc
 50
270.0
 51
315.0
  0
ARC
  5
3F
100
AcDbEntity
  8
KONTUR
100
AcDbCircle
 10
34.768463
 20
0.704208
 30
0.0
 40
3.956369
100
AcDbArc
 50
317.46058
 51
18.141858
  0
ARC
  5
40
100
AcDbEntity
  8
KONTUR
100
AcDbCircle
 10
34.768463
 20
0.704208
 30
0.0
 40
1.956369
100
AcDbArc
 50
317.46058
 51
18.141858
  0
LWPOLYLINE
  5
41
100
AcDbEntity
  8
PROFIL
100
AcDbPolyline
 90
        2
 70
     0
 43
2.0
 10
36.946752
 20
-1.294585
 42
0.271138
 10
37.577866
 20
1.624735
 42
0.271138
  0
LINE
  5
42
100
AcDbEntity
  8
KONTUR
100
AcDbLine
 10
32.828427
 20
-6.828427
 30
0.0
 11
37.624153
 21
-2.032702
 31
0.0
  0
LINE
  5
43
100
AcDbEntity
  8
KONTUR
100
AcDbLine
 10
31.414214
 20
-5.414213
 30
0.0
 11
36.20994
 21
-0.618488
 31
0.0
  0
LWPOLYLINE
  5
44
100
AcDbEntity
  8
PROFIL
100
AcDbPolyline
 90
        2
 70
     0
 43
2.0
 10
32.121321
 20
-6.12132
 10
36.917047
 20
-1.325595
  0
ARC
  5
45
100
AcDbEntity
  8
KONTUR
100
AcDbCircle
 10
30.0
 20
-4.0
 30
0.0
 40
2.0
100
AcDbArc
 50
225.0
 51
270.0
  0
LWPOLYLINE
  5
46
100
AcDbEntity
  8
PROFIL
100
AcDbPolyline
 90
        2
 70
     0
 43
2.0
 10
30.0
 20
-7.0
 42
0.198912
 10
32.12132
 20
-6.12132
 42
0.198912
  0
ENDBLK
  5
48
100
AcDbEntity
  8
0
100
AcDbBlockEnd
  0
BLOCK
  5
1E2
100
AcDbEntity
  8
0
100
AcDbBlockBegin
  2
*X3
 70
     1
 10
0.0
 20
0.0
 30
0.0
  3
*X3
  1

  0
LINE
  5
1AA
100
AcDbEntity
  8
0
 62
     0
100
AcDbLine
 10
1577.770778
 20
725.0
 30
0.0
 11
1580.733083
 21
727.962305
 31
0.0
  0
LINE
  5
1AB
100
AcDbEntity
  8
0
 62
     0
100
AcDbLine
 10
1577.063671
 20
725.0
 30
0.0
 11
1580.025976
 21
727.962305
 31
0.0
  0
LINE
  5
1AC
100
AcDbEntity
  8
0
 62
     0
100
AcDbLine
 10
1576.356565
 20
725.0
 30
0.0
 11
1579.318869
 21
727.962305
 31
0.0
  0
LINE
  5
1AD
100
AcDbEntity
  8
0
 62
     0
100
AcDbLine
 10
1575.649458
 20
725.0
 30
0.0
 11
1578.611762
 21
727.962305
 31
0.0
  0
LINE
  5
1AE
100
AcDbEntity
  8
0
 62
     0
100
AcDbLine
 10
1575.0
 20
725.057649
 30
0.0
 11
1577.904656
 21
727.962305
 31
0.0
  0
LINE
  5
1AF
100
AcDbEntity
  8
0
 62
     0
100
AcDbLine
 10
1575.0
 20
725.764756
 30
0.0
 11
1577.197549
 21
727.962305
 31
0.0
  0
LINE
  5
1B0
100
AcDbEntity
  8
0
 62
     0
100
AcDbLine
 10
1575.0
 20
726.471863
 30
0.0
 11
1576.490442
 21
727.962305
 31
0.0
  0
LINE
  5
1B1
100
AcDbEntity
  8
0
 62
     0
100
AcDbLine
 10
1575.0
 20
727.178969
 30
0.0
 11
1575.783335
 21
727.962305
 31
0.0
  0
LINE
  5
1B2
100
AcDbEntity
  8
0
 62
     0
100
AcDbLine
 10
1575.0
 20
727.886076
 30
0.0
 11
1575.076228
 21
727.962305
 31
0.0
  0
LINE
  5
1B3
100
AcDbEntity
  8
0
 62
     0
100
AcDbLine
 10
1578.477885
 20
725.0
 30
0.0
 11
1581.440189
 21
727.962305
 31
0.0
  0
LINE
  5
1B4
100
AcDbEntity
  8
0
 62
     0
100
AcDbLine
 10
1579.184992
 20
725.0
 30
0.0
 11
1582.147296
 21
727.962305
 31
0.0
  0
LINE
  5
1B5
100
AcDbEntity
  8
0
 62
     0
100
AcDbLine
 10
1579.892098
 20
725.0
 30
0.0
 11
1582.854403
 21
727.962305
 31
0.0
  0
LINE
  5
1B6
100
AcDbEntity
  8
0
 62
     0
100
AcDbLine
 10
1580.599205
 20
725.0
 30
0.0
 11
1583.56151
 21
727.962305
 31
0.0
  0
LINE
  5
1B7
100
AcDbEntity
  8
0
 62
     0
100
AcDbLine
 10
1581.306312
 20
725.0
 30
0.0
 11
1584.268617
 21
727.962305
 31
0.0
  0
LINE
  5
1B8
100
AcDbEntity
  8
0
 62
     0
100
AcDbLine
 10
1582.013419
 20
725.0
 30
0.0
 11
1584.818757
 21
727.805338
 31
0.0
  0
LINE
  5
1B9
100
AcDbEntity
  8
0
 62
     0
100
AcDbLine
 10
1582.720526
 20
725.0
 30
0.0
 11
1584.818757
 21
727.098231
 31
0.0
  0
LINE
  5
1BA
100
AcDbEntity
  8
0
 62
     0
100
AcDbLine
 10
1583.427632
 20
725.0
 30
0.0
 11
1584.818757
 21
726.391125
 31
0.0
  0
LINE
  5
1BB
100
AcDbEntity
  8
0
 62
     0
100
AcDbLine
 10
1584.134739
 20
725.0
 30
0.0
 11
1584.818757
 21
725.684018
 31
0.0
  0
LINE
  5
1BC
100
AcDbEntity
  8
0
 62
     0
100
AcDbLine
 10
1580.737209
 20
725.138004
 30
0.0
 11
1579.853326
 21
726.021888
 31
0.0
  0
LINE
  5
1BD
100
AcDbEntity
  8
0
 62
     0
100
AcDbLine
 10
1579.322996
 20
726.552218
 30
0.0
 11
1578.439112
 21
727.436101
 31
0.0
  0
LINE
  5
1BE
100
AcDbEntity
  8
0
 62
     0
100
AcDbLine
 10
1579.676549
 20
725.491557
 30
0.0
 11
1578.792666
 21
726.375441
 31
0.0
  0
LINE
  5
1BF
100
AcDbEntity
  8
0
 62
     0
100
AcDbLine
 10
1578.262336
 20
726.905771
 30
0.0
 11
1577.378452
 21
727.789655
 31
0.0
  0
LINE
  5
1C0
100
AcDbEntity
  8
0
 62
     0
100
AcDbLine
 10
1579.461
 20
725.0
 30
0.0
 11
1579.146219
 21
725.314781
 31
0.0
  0
LINE
  5
1C1
100
AcDbEntity
  8
0
 62
     0
100
AcDbLine
 10
1578.615889
 20
725.845111
 30
0.0
 11
1577.732006
 21
726.728994
 31
0.0
  0
LINE
  5
1C2
100
AcDbEntity
  8
0
 62
     0
100
AcDbLine
 10
1577.201675
 20
727.259324
 30
0.0
 11
1576.498695
 21
727.962305
 31
0.0
  0
LINE
  5
1C3
100
AcDbEntity
  8
0
 62
     0
100
AcDbLine
 10
1578.753893
 20
725.0
 30
0.0
 11
1578.085559
 21
725.668334
 31
0.0
  0
LINE
  5
1C4
100
AcDbEntity
  8
0
 62
     0
100
AcDbLine
 10
1577.555229
 20
726.198664
 30
0.0
 11
1576.671345
 21
727.082548
 31
0.0
  0
LINE
  5
1C5
100
AcDbEntity
  8
0
 62
     0
100
AcDbLine
 10
1576.141015
 20
727.612878
 30
0.0
 11
1575.791589
 21
727.962305
 31
0.0
  0
LINE
  5
1C6
100
AcDbEntity
  8
0
 62
     0
100
AcDbLine
 10
1577.908782
 20
725.138004
 30
0.0
 11
1577.024899
 21
726.021888
 31
0.0
  0
LINE
  5
1C7
100
AcDbEntity
  8
0
 62
     0
100
AcDbLine
 10
1576.494569
 20
726.552218
 30
0.0
 11
1575.610685
 21
727.436101
 31
0.0
  0
LINE
  5
1C8
100
AcDbEntity
  8
0
 62
     0
100
AcDbLine
 10
1576.848122
 20
725.491557
 30
0.0
 11
1575.964239
 21
726.375441
 31
0.0
  0
LINE
  5
1C9
100
AcDbEntity
  8
0
 62
     0
100
AcDbLine
 10
1575.433908
 20
726.905771
 30
0.0
 11
1575.0
 21
727.33968
 31
0.0
  0
LINE
  5
1CA
100
AcDbEntity
  8
0
 62
     0
100
AcDbLine
 10
1576.632573
 20
725.0
 30
0.0
 11
1576.317792
 21
725.314781
 31
0.0
  0
LINE
  5
1CB
100
AcDbEntity
  8
0
 62
     0
100
AcDbLine
 10
1575.787462
 20
725.845111
 30
0.0
 11
1575.0
 21
726.632573
 31
0.0
  0
LINE
  5
1CC
100
AcDbEntity
  8
0
 62
     0
100
AcDbLine
 10
1575.925466
 20
725.0
 30
0.0
 11
1575.257132
 21
725.668334
 31
0.0
  0
LINE
  5
1CD
100
AcDbEntity
  8
0
 62
     0
100
AcDbLine
 10
1575.080355
 20
725.138004
 30
0.0
 11
1575.0
 21
725.218359
 31
0.0
  0
LINE
  5
1CE
100
AcDbEntity
  8
0
 62
     0
100
AcDbLine
 10
1581.58232
 20
725.0
 30
0.0
 11
1580.913986
 21
725.668334
 31
0.0
  0
LINE
  5
1CF
100
AcDbEntity
  8
0
 62
     0
100
AcDbLine
 10
1580.383656
 20
726.198664
 30
0.0
 11
1579.499772
 21
727.082548
 31
0.0
  0
LINE
  5
1D0
100
AcDbEntity
  8
0
 62
     0
100
AcDbLine
 10
1578.969442
 20
727.612878
 30
0.0
 11
1578.620016
 21
727.962305
 31
0.0
  0
LINE
  5
1D1
100
AcDbEntity
  8
0
 62
     0
100
AcDbLine
 10
1582.289427
 20
725.0
 30
0.0
 11
1581.974646
 21
725.314781
 31
0.0
  0
LINE
  5
1D2
100
AcDbEntity
  8
0
 62
     0
100
AcDbLine
 10
1581.444316
 20
725.845111
 30
0.0
 11
1580.560433
 21
726.728994
 31
0.0
  0
LINE
  5
1D3
100
AcDbEntity
  8
0
 62
     0
100
AcDbLine
 10
1580.030103
 20
727.259324
 30
0.0
 11
1579.327122
 21
727.962305
 31
0.0
  0
LINE
  5
1D4
100
AcDbEntity
  8
0
 62
     0
100
AcDbLine
 10
1582.504976
 20
725.491557
 30
0.0
 11
1581.621093
 21
726.375441
 31
0.0
  0
LINE
  5
1D5
100
AcDbEntity
  8
0
 62
     0
100
AcDbLine
 10
1581.090763
 20
726.905771
 30
0.0
 11
1580.206879
 21
727.789655
 31
0.0
  0
LINE
  5
1D6
100
AcDbEntity
  8
0
 62
     0
100
AcDbLine
 10
1583.565636
 20
725.138004
 30
0.0
 11
1582.681753
 21
726.021888
 31
0.0
  0
LINE
  5
1D7
100
AcDbEntity
  8
0
 62
     0
100
AcDbLine
 10
1582.151423
 20
726.552218
 30
0.0
 11
1581.267539
 21
727.436101
 31
0.0
  0
LINE
  5
1D8
100
AcDbEntity
  8
0
 62
     0
100
AcDbLine
 10
1584.410747
 20
725.0
 30
0.0
 11
1583.742413
 21
725.668334
 31
0.0
  0
LINE
  5
1D9
100
AcDbEntity
  8
0
 62
     0
100
AcDbLine
 10
1583.212083
 20
726.198664
 30
0.0
 11
1582.3282
 21
727.082548
 31
0.0
  0
LINE
  5
1DA
100
AcDbEntity
  8
0
 62
     0
100
AcDbLine
 10
1581.79787
 20
727.612878
 30
0.0
 11
1581.448443
 21
727.962305
 31
0.0
  0
LINE
  5
1DB
100
AcDbEntity
  8
0
 62
     0
100
AcDbLine
 10
1584.818757
 20
725.299097
 30
0.0
 11
1584.803073
 21
725.314781
 31
0.0
  0
LINE
  5
1DC
100
AcDbEntity
  8
0
 62
     0
100
AcDbLine
 10
1584.272743
 20
725.845111
 30
0.0
 11
1583.38886
 21
726.728994
 31
0.0
  0
LINE
  5
1DD
100
AcDbEntity
  8
0
 62
     0
100
AcDbLine
 10
1582.85853
 20
727.259324
 30
0.0
 11
1582.15555
 21
727.962305
 31
0.0
  0
LINE
  5
1DE
100
AcDbEntity
  8
0
 62
     0
100
AcDbLine
 10
1584.818757
 20
726.006204
 30
0.0
 11
1584.44952
 21
726.375441
 31
0.0
  0
LINE
  5
1DF
100
AcDbEntity
  8
0
 62
     0
100
AcDbLine
 10
1583.91919
 20
726.905771
 30
0.0
 11
1583.035306
 21
727.789655
 31
0.0
  0
LINE
  5
1E0
100
AcDbEntity
  8
0
 62
     0
100
AcDbLine
 10
1584.818757
 20
726.713311
 30
0.0
 11
1584.095967
 21
727.436101
 31
0.0
  0
LINE
  5
1E1
100
AcDbEntity
  8
0
 62
     0
100
AcDbLine
 10
1584.626297
 20
727.612878
 30
0.0
 11
1584.27687
 21
727.962305
 31
0.0
  0
ENDBLK
  5
1E3
100
AcDbEntity
  8
0
100
AcDbBlockEnd
  0
BLOCK
  5
23C
100
AcDbEntity
  8
0
100
AcDbBlockBegin
  2
*X4
 70
     1
 10
0.0
 20
0.0
 30
0.0
  3
*X4
  1

  0
LINE
  5
200
100
AcDbEntity
  8
0
 62
     0
100
AcDbLine
 10
1578.009484
 20
745.037695
 30
0.0
 11
1580.971788
 21
748.0
 31
0.0
  0
LINE
  5
201
100
AcDbEntity
  8
0
 62
     0
100
AcDbLine
 10
1577.302377
 20
745.037695
 30
0.0
 11
1580.264681
 21
748.0
 31
0.0
  0
LINE
  5
202
100
AcDbEntity
  8
0
 62
     0
100
AcDbLine
 10
1576.59527
 20
745.037695
 30
0.0
 11
1579.557575
 21
748.0
 31
0.0
  0
LINE
  5
203
100
AcDbEntity
  8
0
 62
     0
100
AcDbLine
 10
1575.888163
 20
745.037695
 30
0.0
 11
1578.850468
 21
748.0
 31
0.0
  0
LINE
  5
204
100
AcDbEntity
  8
0
 62
     0
100
AcDbLine
 10
1575.181057
 20
745.037695
 30
0.0
 11
1578.143361
 21
748.0
 31
0.0
  0
LINE
  5
205
100
AcDbEntity
  8
0
 62
     0
100
AcDbLine
 10
1575.0
 20
745.563746
 30
0.0
 11
1577.436254
 21
748.0
 31
0.0
  0
LINE
  5
206
100
AcDbEntity
  8
0
 62
     0
100
AcDbLine
 10
1575.0
 20
746.270852
 30
0.0
 11
1576.729148
 21
748.0
 31
0.0
  0
LINE
  5
207
100
AcDbEntity
  8
0
 62
     0
100
AcDbLine
 10
1575.0
 20
746.977959
 30
0.0
 11
1576.022041
 21
748.0
 31
0.0
  0
LINE
  5
208
100
AcDbEntity
  8
0
 62
     0
100
AcDbLine
 10
1575.0
 20
747.685066
 30
0.0
 11
1575.314934
 21
748.0
 31
0.0
  0
LINE
  5
209
100
AcDbEntity
  8
0
 62
     0
100
AcDbLine
 10
1578.71659
 20
745.037695
 30
0.0
 11
1581.678895
 21
748.0
 31
0.0
  0
LINE
  5
20A
100
AcDbEntity
  8
0
 62
     0
100
AcDbLine
 10
1579.423697
 20
745.037695
 30
0.0
 11
1582.386002
 21
748.0
 31
0.0
  0
LINE
  5
20B
100
AcDbEntity
  8
0
 62
     0
100
AcDbLine
 10
1580.130804
 20
745.037695
 30
0.0
 11
1583.093109
 21
748.0
 31
0.0
  0
LINE
  5
20C
100
AcDbEntity
  8
0
 62
     0
100
AcDbLine
 10
1580.837911
 20
745.037695
 30
0.0
 11
1583.800215
 21
748.0
 31
0.0
  0
LINE
  5
20D
100
AcDbEntity
  8
0
 62
     0
100
AcDbLine
 10
1581.545018
 20
745.037695
 30
0.0
 11
1584.507322
 21
748.0
 31
0.0
  0
LINE
  5
20E
100
AcDbEntity
  8
0
 62
     0
100
AcDbLine
 10
1582.252124
 20
745.037695
 30
0.0
 11
1584.818757
 21
747.604328
 31
0.0
  0
LINE
  5
20F
100
AcDbEntity
  8
0
 62
     0
100
AcDbLine
 10
1582.959231
 20
745.037695
 30
0.0
 11
1584.818757
 21
746.897221
 31
0.0
  0
LINE
  5
210
100
AcDbEntity
  8
0
 62
     0
100
AcDbLine
 10
1583.666338
 20
745.037695
 30
0.0
 11
1584.818757
 21
746.190114
 31
0.0
  0
LINE
  5
211
100
AcDbEntity
  8
0
 62
     0
100
AcDbLine
 10
1584.373445
 20
745.037695
 30
0.0
 11
1584.818757
 21
745.483008
 31
0.0
  0
LINE
  5
212
100
AcDbEntity
  8
0
 62
     0
100
AcDbLine
 10
1581.343615
 20
745.037695
 30
0.0
 11
1580.913986
 21
745.467324
 31
0.0
  0
LINE
  5
213
100
AcDbEntity
  8
0
 62
     0
100
AcDbLine
 10
1580.383656
 20
745.997654
 30
0.0
 11
1579.499772
 21
746.881538
 31
0.0
  0
LINE
  5
214
100
AcDbEntity
  8
0
 62
     0
100
AcDbLine
 10
1578.969442
 20
747.411868
 30
0.0
 11
1578.38131
 21
748.0
 31
0.0
  0
LINE
  5
215
100
AcDbEntity
  8
0
 62
     0
100
AcDbLine
 10
1580.636508
 20
745.037695
 30
0.0
 11
1579.853326
 21
745.820877
 31
0.0
  0
LINE
  5
216
100
AcDbEntity
  8
0
 62
     0
100
AcDbLine
 10
1579.322996
 20
746.351208
 30
0.0
 11
1578.439112
 21
747.235091
 31
0.0
  0
LINE
  5
217
100
AcDbEntity
  8
0
 62
     0
100
AcDbLine
 10
1577.908782
 20
747.765421
 30
0.0
 11
1577.674203
 21
748.0
 31
0.0
  0
LINE
  5
218
100
AcDbEntity
  8
0
 62
     0
100
AcDbLine
 10
1579.676549
 20
745.290547
 30
0.0
 11
1578.792666
 21
746.174431
 31
0.0
  0
LINE
  5
219
100
AcDbEntity
  8
0
 62
     0
100
AcDbLine
 10
1578.262336
 20
746.704761
 30
0.0
 11
1577.378452
 21
747.588644
 31
0.0
  0
LINE
  5
21A
100
AcDbEntity
  8
0
 62
     0
100
AcDbLine
 10
1579.222294
 20
745.037695
 30
0.0
 11
1579.146219
 21
745.113771
 31
0.0
  0
LINE
  5
21B
100
AcDbEntity
  8
0
 62
     0
100
AcDbLine
 10
1578.615889
 20
745.644101
 30
0.0
 11
1577.732006
 21
746.527984
 31
0.0
  0
LINE
  5
21C
100
AcDbEntity
  8
0
 62
     0
100
AcDbLine
 10
1577.201675
 20
747.058314
 30
0.0
 11
1576.317792
 21
747.942198
 31
0.0
  0
LINE
  5
21D
100
AcDbEntity
  8
0
 62
     0
100
AcDbLine
 10
1578.515188
 20
745.037695
 30
0.0
 11
1578.085559
 21
745.467324
 31
0.0
  0
LINE
  5
21E
100
AcDbEntity
  8
0
 62
     0
100
AcDbLine
 10
1577.555229
 20
745.997654
 30
0.0
 11
1576.671345
 21
746.881538
 31
0.0
  0
LINE
  5
21F
100
AcDbEntity
  8
0
 62
     0
100
AcDbLine
 10
1576.141015
 20
747.411868
 30
0.0
 11
1575.552883
 21
748.0
 31
0.0
  0
LINE
  5
220
100
AcDbEntity
  8
0
 62
     0
100
AcDbLine
 10
1577.808081
 20
745.037695
 30
0.0
 11
1577.024899
 21
745.820877
 31
0.0
  0
LINE
  5
221
100
AcDbEntity
  8
0
 62
     0
100
AcDbLine
 10
1576.494569
 20
746.351208
 30
0.0
 11
1575.610685
 21
747.235091
 31
0.0
  0
LINE
  5
222
100
AcDbEntity
  8
0
 62
     0
100
AcDbLine
 10
1575.080355
 20
747.765421
 30
0.0
 11
1575.0
 21
747.845776
 31
0.0
  0
LINE
  5
223
100
AcDbEntity
  8
0
 62
     0
100
AcDbLine
 10
1576.848122
 20
745.290547
 30
0.0
 11
1575.964239
 21
746.174431
 31
0.0
  0
LINE
  5
224
100
AcDbEntity
  8
0
 62
     0
100
AcDbLine
 10
1575.433908
 20
746.704761
 30
0.0
 11
1575.0
 21
747.138669
 31
0.0
  0
LINE
  5
225
100
AcDbEntity
  8
0
 62
     0
100
AcDbLine
 10
1576.393867
 20
745.037695
 30
0.0
 11
1576.317792
 21
745.113771
 31
0.0
  0
LINE
  5
226
100
AcDbEntity
  8
0
 62
     0
100
AcDbLine
 10
1575.787462
 20
745.644101
 30
0.0
 11
1575.0
 21
746.431563
 31
0.0
  0
LINE
  5
227
100
AcDbEntity
  8
0
 62
     0
100
AcDbLine
 10
1575.68676
 20
745.037695
 30
0.0
 11
1575.257132
 21
745.467324
 31
0.0
  0
LINE
  5
228
100
AcDbEntity
  8
0
 62
     0
100
AcDbLine
 10
1582.050721
 20
745.037695
 30
0.0
 11
1581.974646
 21
745.113771
 31
0.0
  0
LINE
  5
229
100
AcDbEntity
  8
0
 62
     0
100
AcDbLine
 10
1581.444316
 20
745.644101
 30
0.0
 11
1580.560433
 21
746.527984
 31
0.0
  0
LINE
  5
22A
100
AcDbEntity
  8
0
 62
     0
100
AcDbLine
 10
1580.030103
 20
747.058314
 30
0.0
 11
1579.146219
 21
747.942198
 31
0.0
  0
LINE
  5
22B
100
AcDbEntity
  8
0
 62
     0
100
AcDbLine
 10
1582.504976
 20
745.290547
 30
0.0
 11
1581.621093
 21
746.174431
 31
0.0
  0
LINE
  5
22C
100
AcDbEntity
  8
0
 62
     0
100
AcDbLine
 10
1581.090763
 20
746.704761
 30
0.0
 11
1580.206879
 21
747.588644
 31
0.0
  0
LINE
  5
22D
100
AcDbEntity
  8
0
 62
     0
100
AcDbLine
 10
1583.464935
 20
745.037695
 30
0.0
 11
1582.681753
 21
745.820877
 31
0.0
  0
LINE
  5
22E
100
AcDbEntity
  8
0
 62
     0
100
AcDbLine
 10
1582.151423
 20
746.351208
 30
0.0
 11
1581.267539
 21
747.235091
 31
0.0
  0
LINE
  5
22F
100
AcDbEntity
  8
0
 62
     0
100
AcDbLine
 10
1580.737209
 20
747.765421
 30
0.0
 11
1580.50263
 21
748.0
 31
0.0
  0
LINE
  5
230
100
AcDbEntity
  8
0
 62
     0
100
AcDbLine
 10
1584.172042
 20
745.037695
 30
0.0
 11
1583.742413
 21
745.467324
 31
0.0
  0
LINE
  5
231
100
AcDbEntity
  8
0
 62
     0
100
AcDbLine
 10
1583.212083
 20
745.997654
 30
0.0
 11
1582.3282
 21
746.881538
 31
0.0
  0
LINE
  5
232
100
AcDbEntity
  8
0
 62
     0
100
AcDbLine
 10
1581.79787
 20
747.411868
 30
0.0
 11
1581.209737
 21
748.0
 31
0.0
  0
LINE
  5
233
100
AcDbEntity
  8
0
 62
     0
100
AcDbLine
 10
1584.818757
 20
745.098087
 30
0.0
 11
1584.803073
 21
745.113771
 31
0.0
  0
LINE
  5
234
100
AcDbEntity
  8
0
 62
     0
100
AcDbLine
 10
1584.272743
 20
745.644101
 30
0.0
 11
1583.38886
 21
746.527984
 31
0.0
  0
LINE
  5
235
100
AcDbEntity
  8
0
 62
     0
100
AcDbLine
 10
1582.85853
 20
747.058314
 30
0.0
 11
1581.974646
 21
747.942198
 31
0.0
  0
LINE
  5
236
100
AcDbEntity
  8
0
 62
     0
100
AcDbLine
 10
1584.818757
 20
745.805194
 30
0.0
 11
1584.44952
 21
746.174431
 31
0.0
  0
LINE
  5
237
100
AcDbEntity
  8
0
 62
     0
100
AcDbLine
 10
1583.91919
 20
746.704761
 30
0.0
 11
1583.035306
 21
747.588644
 31
0.0
  0
LINE
  5
238
100
AcDbEntity
  8
0
 62
     0
100
AcDbLine
 10
1584.818757
 20
746.512301
 30
0.0
 11
1584.095967
 21
747.235091
 31
0.0
  0
LINE
  5
239
100
AcDbEntity
  8
0
 62
     0
100
AcDbLine
 10
1583.565636
 20
747.765421
 30
0.0
 11
1583.331058
 21
748.0
 31
0.0
  0
LINE
  5
23A
100
AcDbEntity
  8
0
 62
     0
100
AcDbLine
 10
1584.626297
 20
747.411868
 30
0.0
 11
1584.038164
 21
748.0
 31
0.0
  0
LINE
  5
23B
100
AcDbEntity
  8
0
 62
     0
100
AcDbLine
 10
1584.818757
 20
747.926514
 30
0.0
 11
1584.803073
 21
747.942198
 31
0.0
  0
ENDBLK
  5
23D
100
AcDbEntity
  8
0
100
AcDbBlockEnd
  0
BLOCK
  5
347
100
AcDbEntity
  8
0
100
AcDbBlockBegin
  2
*X5
 70
     1
 10
0.0
 20
0.0
 30
0.0
  3
*X5
  1

  0
LINE
  5
30C
100
AcDbEntity
  8
0
 62
     0
100
AcDbLine
 10
1618.31457
 20
745.037695
 30
0.0
 11
1621.276875
 21
748.0
 31
0.0
  0
LINE
  5
30D
100
AcDbEntity
  8
0
 62
     0
100
AcDbLine
 10
1617.607463
 20
745.037695
 30
0.0
 11
1620.569768
 21
748.0
 31
0.0
  0
LINE
  5
30E
100
AcDbEntity
  8
0
 62
     0
100
AcDbLine
 10
1616.900357
 20
745.037695
 30
0.0
 11
1619.862661
 21
748.0
 31
0.0
  0
LINE
  5
30F
100
AcDbEntity
  8
0
 62
     0
100
AcDbLine
 10
1616.19325
 20
745.037695
 30
0.0
 11
1619.155554
 21
748.0
 31
0.0
  0
LINE
  5
310
100
AcDbEntity
  8
0
 62
     0
100
AcDbLine
 10
1615.486143
 20
745.037695
 30
0.0
 11
1618.448448
 21
748.0
 31
0.0
  0
LINE
  5
311
100
AcDbEntity
  8
0
 62
     0
100
AcDbLine
 10
1615.181243
 20
745.439902
 30
0.0
 11
1617.741341
 21
748.0
 31
0.0
  0
LINE
  5
312
100
AcDbEntity
  8
0
 62
     0
100
AcDbLine
 10
1615.181243
 20
746.147009
 30
0.0
 11
1617.034234
 21
748.0
 31
0.0
  0
LINE
  5
313
100
AcDbEntity
  8
0
 62
     0
100
AcDbLine
 10
1615.181243
 20
746.854116
 30
0.0
 11
1616.327127
 21
748.0
 31
0.0
  0
LINE
  5
314
100
AcDbEntity
  8
0
 62
     0
100
AcDbLine
 10
1615.181243
 20
747.561223
 30
0.0
 11
1615.620021
 21
748.0
 31
0.0
  0
LINE
  5
315
100
AcDbEntity
  8
0
 62
     0
100
AcDbLine
 10
1619.021677
 20
745.037695
 30
0.0
 11
1621.983982
 21
748.0
 31
0.0
  0
LINE
  5
316
100
AcDbEntity
  8
0
 62
     0
100
AcDbLine
 10
1619.728784
 20
745.037695
 30
0.0
 11
1622.691088
 21
748.0
 31
0.0
  0
LINE
  5
317
100
AcDbEntity
  8
0
 62
     0
100
AcDbLine
 10
1620.435891
 20
745.037695
 30
0.0
 11
1623.398195
 21
748.0
 31
0.0
  0
LINE
  5
318
100
AcDbEntity
  8
0
 62
     0
100
AcDbLine
 10
1621.142997
 20
745.037695
 30
0.0
 11
1624.105302
 21
748.0
 31
0.0
  0
LINE
  5
319
100
AcDbEntity
  8
0
 62
     0
100
AcDbLine
 10
1621.850104
 20
745.037695
 30
0.0
 11
1624.812409
 21
748.0
 31
0.0
  0
LINE
  5
31A
100
AcDbEntity
  8
0
 62
     0
100
AcDbLine
 10
1622.557211
 20
745.037695
 30
0.0
 11
1625.0
 21
747.480485
 31
0.0
  0
LINE
  5
31B
100
AcDbEntity
  8
0
 62
     0
100
AcDbLine
 10
1623.264318
 20
745.037695
 30
0.0
 11
1625.0
 21
746.773378
 31
0.0
  0
LINE
  5
31C
100
AcDbEntity
  8
0
 62
     0
100
AcDbLine
 10
1623.971424
 20
745.037695
 30
0.0
 11
1625.0
 21
746.066271
 31
0.0
  0
LINE
  5
31D
100
AcDbEntity
  8
0
 62
     0
100
AcDbLine
 10
1624.678531
 20
745.037695
 30
0.0
 11
1625.0
 21
745.359164
 31
0.0
  0
LINE
  5
31E
100
AcDbEntity
  8
0
 62
     0
100
AcDbLine
 10
1620.941594
 20
745.037695
 30
0.0
 11
1620.511966
 21
745.467324
 31
0.0
  0
LINE
  5
31F
100
AcDbEntity
  8
0
 62
     0
100
AcDbLine
 10
1619.981636
 20
745.997654
 30
0.0
 11
1619.097752
 21
746.881538
 31
0.0
  0
LINE
  5
320
100
AcDbEntity
  8
0
 62
     0
100
AcDbLine
 10
1618.567422
 20
747.411868
 30
0.0
 11
1617.97929
 21
748.0
 31
0.0
  0
LINE
  5
321
100
AcDbEntity
  8
0
 62
     0
100
AcDbLine
 10
1620.234488
 20
745.037695
 30
0.0
 11
1619.451306
 21
745.820877
 31
0.0
  0
LINE
  5
322
100
AcDbEntity
  8
0
 62
     0
100
AcDbLine
 10
1618.920976
 20
746.351208
 30
0.0
 11
1618.037092
 21
747.235091
 31
0.0
  0
LINE
  5
323
100
AcDbEntity
  8
0
 62
     0
100
AcDbLine
 10
1617.506762
 20
747.765421
 30
0.0
 11
1617.272183
 21
748.0
 31
0.0
  0
LINE
  5
324
100
AcDbEntity
  8
0
 62
     0
100
AcDbLine
 10
1619.274529
 20
745.290547
 30
0.0
 11
1618.390645
 21
746.174431
 31
0.0
  0
LINE
  5
325
100
AcDbEntity
  8
0
 62
     0
100
AcDbLine
 10
1617.860315
 20
746.704761
 30
0.0
 11
1616.976432
 21
747.588644
 31
0.0
  0
LINE
  5
326
100
AcDbEntity
  8
0
 62
     0
100
AcDbLine
 10
1618.820274
 20
745.037695
 30
0.0
 11
1618.744199
 21
745.113771
 31
0.0
  0
LINE
  5
327
100
AcDbEntity
  8
0
 62
     0
100
AcDbLine
 10
1618.213869
 20
745.644101
 30
0.0
 11
1617.329985
 21
746.527984
 31
0.0
  0
LINE
  5
328
100
AcDbEntity
  8
0
 62
     0
100
AcDbLine
 10
1616.799655
 20
747.058314
 30
0.0
 11
1615.915772
 21
747.942198
 31
0.0
  0
LINE
  5
329
100
AcDbEntity
  8
0
 62
     0
100
AcDbLine
 10
1618.113167
 20
745.037695
 30
0.0
 11
1617.683539
 21
745.467324
 31
0.0
  0
LINE
  5
32A
100
AcDbEntity
  8
0
 62
     0
100
AcDbLine
 10
1617.153209
 20
745.997654
 30
0.0
 11
1616.269325
 21
746.881538
 31
0.0
  0
LINE
  5
32B
100
AcDbEntity
  8
0
 62
     0
100
AcDbLine
 10
1615.738995
 20
747.411868
 30
0.0
 11
1615.181243
 21
747.96962
 31
0.0
  0
LINE
  5
32C
100
AcDbEntity
  8
0
 62
     0
100
AcDbLine
 10
1617.40606
 20
745.037695
 30
0.0
 11
1616.622878
 21
745.820877
 31
0.0
  0
LINE
  5
32D
100
AcDbEntity
  8
0
 62
     0
100
AcDbLine
 10
1616.092548
 20
746.351208
 30
0.0
 11
1615.208665
 21
747.235091
 31
0.0
  0
LINE
  5
32E
100
AcDbEntity
  8
0
 62
     0
100
AcDbLine
 10
1616.446102
 20
745.290547
 30
0.0
 11
1615.562218
 21
746.174431
 31
0.0
  0
LINE
  5
32F
100
AcDbEntity
  8
0
 62
     0
100
AcDbLine
 10
1615.991847
 20
745.037695
 30
0.0
 11
1615.915772
 21
745.113771
 31
0.0
  0
LINE
  5
330
100
AcDbEntity
  8
0
 62
     0
100
AcDbLine
 10
1615.385442
 20
745.644101
 30
0.0
 11
1615.181243
 21
745.848299
 31
0.0
  0
LINE
  5
331
100
AcDbEntity
  8
0
 62
     0
100
AcDbLine
 10
1615.28474
 20
745.037695
 30
0.0
 11
1615.181243
 21
745.141193
 31
0.0
  0
LINE
  5
332
100
AcDbEntity
  8
0
 62
     0
100
AcDbLine
 10
1621.648701
 20
745.037695
 30
0.0
 11
1621.572626
 21
745.113771
 31
0.0
  0
LINE
  5
333
100
AcDbEntity
  8
0
 62
     0
100
AcDbLine
 10
1621.042296
 20
745.644101
 30
0.0
 11
1620.158412
 21
746.527984
 31
0.0
  0
LINE
  5
334
100
AcDbEntity
  8
0
 62
     0
100
AcDbLine
 10
1619.628082
 20
747.058314
 30
0.0
 11
1618.744199
 21
747.942198
 31
0.0
  0
LINE
  5
335
100
AcDbEntity
  8
0
 62
     0
100
AcDbLine
 10
1622.102956
 20
745.290547
 30
0.0
 11
1621.219073
 21
746.174431
 31
0.0
  0
LINE
  5
336
100
AcDbEntity
  8
0
 62
     0
100
AcDbLine
 10
1620.688742
 20
746.704761
 30
0.0
 11
1619.804859
 21
747.588644
 31
0.0
  0
LINE
  5
337
100
AcDbEntity
  8
0
 62
     0
100
AcDbLine
 10
1623.062915
 20
745.037695
 30
0.0
 11
1622.279733
 21
745.820877
 31
0.0
  0
LINE
  5
338
100
AcDbEntity
  8
0
 62
     0
100
AcDbLine
 10
1621.749403
 20
746.351208
 30
0.0
 11
1620.865519
 21
747.235091
 31
0.0
  0
LINE
  5
339
100
AcDbEntity
  8
0
 62
     0
100
AcDbLine
 10
1620.335189
 20
747.765421
 30
0.0
 11
1620.10061
 21
748.0
 31
0.0
  0
LINE
  5
33A
100
AcDbEntity
  8
0
 62
     0
100
AcDbLine
 10
1623.770022
 20
745.037695
 30
0.0
 11
1623.340393
 21
745.467324
 31
0.0
  0
LINE
  5
33B
100
AcDbEntity
  8
0
 62
     0
100
AcDbLine
 10
1622.810063
 20
745.997654
 30
0.0
 11
1621.926179
 21
746.881538
 31
0.0
  0
LINE
  5
33C
100
AcDbEntity
  8
0
 62
     0
100
AcDbLine
 10
1621.395849
 20
747.411868
 30
0.0
 11
1620.807717
 21
748.0
 31
0.0
  0
LINE
  5
33D
100
AcDbEntity
  8
0
 62
     0
100
AcDbLine
 10
1624.477128
 20
745.037695
 30
0.0
 11
1624.401053
 21
745.113771
 31
0.0
  0
LINE
  5
33E
100
AcDbEntity
  8
0
 62
     0
100
AcDbLine
 10
1623.870723
 20
745.644101
 30
0.0
 11
1622.98684
 21
746.527984
 31
0.0
  0
LINE
  5
33F
100
AcDbEntity
  8
0
 62
     0
100
AcDbLine
 10
1622.456509
 20
747.058314
 30
0.0
 11
1621.572626
 21
747.942198
 31
0.0
  0
LINE
  5
340
100
AcDbEntity
  8
0
 62
     0
100
AcDbLine
 10
1624.931383
 20
745.290547
 30
0.0
 11
1624.0475
 21
746.174431
 31
0.0
  0
LINE
  5
341
100
AcDbEntity
  8
0
 62
     0
100
AcDbLine
 10
1623.51717
 20
746.704761
 30
0.0
 11
1622.633286
 21
747.588644
 31
0.0
  0
LINE
  5
342
100
AcDbEntity
  8
0
 62
     0
100
AcDbLine
 10
1624.57783
 20
746.351208
 30
0.0
 11
1623.693946
 21
747.235091
 31
0.0
  0
LINE
  5
343
100
AcDbEntity
  8
0
 62
     0
100
AcDbLine
 10
1623.163616
 20
747.765421
 30
0.0
 11
1622.929037
 21
748.0
 31
0.0
  0
LINE
  5
344
100
AcDbEntity
  8
0
 62
     0
100
AcDbLine
 10
1625.0
 20
746.636144
 30
0.0
 11
1624.754606
 21
746.881538
 31
0.0
  0
LINE
  5
345
100
AcDbEntity
  8
0
 62
     0
100
AcDbLine
 10
1624.224276
 20
747.411868
 30
0.0
 11
1623.636144
 21
748.0
 31
0.0
  0
LINE
  5
346
100
AcDbEntity
  8
0
 62
     0
100
AcDbLine
 10
1625.0
 20
747.343251
 30
0.0
 11
1624.401053
 21
747.942198
 31
0.0
  0
ENDBLK
  5
348
100
AcDbEntity
  8
0
100
AcDbBlockEnd
  0
BLOCK
  5
2E4
100
AcDbEntity
  8
0
100
AcDbBlockBegin
  2
*X6
 70
     1
 10
0.0
 20
0.0
 30
0.0
  3
*X6
  1

  0
LINE
  5
2AC
100
AcDbEntity
  8
0
 62
     0
100
AcDbLine
 10
1618.075865
 20
725.0
 30
0.0
 11
1621.038169
 21
727.962305
 31
0.0
  0
LINE
  5
2AD
100
AcDbEntity
  8
0
 62
     0
100
AcDbLine
 10
1617.368758
 20
725.0
 30
0.0
 11
1620.331062
 21
727.962305
 31
0.0
  0
LINE
  5
2AE
100
AcDbEntity
  8
0
 62
     0
100
AcDbLine
 10
1616.661651
 20
725.0
 30
0.0
 11
1619.623956
 21
727.962305
 31
0.0
  0
LINE
  5
2AF
100
AcDbEntity
  8
0
 62
     0
100
AcDbLine
 10
1615.954544
 20
725.0
 30
0.0
 11
1618.916849
 21
727.962305
 31
0.0
  0
LINE
  5
2B0
100
AcDbEntity
  8
0
 62
     0
100
AcDbLine
 10
1615.247438
 20
725.0
 30
0.0
 11
1618.209742
 21
727.962305
 31
0.0
  0
LINE
  5
2B1
100
AcDbEntity
  8
0
 62
     0
100
AcDbLine
 10
1615.181243
 20
725.640912
 30
0.0
 11
1617.502635
 21
727.962305
 31
0.0
  0
LINE
  5
2B2
100
AcDbEntity
  8
0
 62
     0
100
AcDbLine
 10
1615.181243
 20
726.348019
 30
0.0
 11
1616.795528
 21
727.962305
 31
0.0
  0
LINE
  5
2B3
100
AcDbEntity
  8
0
 62
     0
100
AcDbLine
 10
1615.181243
 20
727.055126
 30
0.0
 11
1616.088422
 21
727.962305
 31
0.0
  0
LINE
  5
2B4
100
AcDbEntity
  8
0
 62
     0
100
AcDbLine
 10
1615.181243
 20
727.762233
 30
0.0
 11
1615.381315
 21
727.962305
 31
0.0
  0
LINE
  5
2B5
100
AcDbEntity
  8
0
 62
     0
100
AcDbLine
 10
1618.782971
 20
725.0
 30
0.0
 11
1621.745276
 21
727.962305
 31
0.0
  0
LINE
  5
2B6
100
AcDbEntity
  8
0
 62
     0
100
AcDbLine
 10
1619.490078
 20
725.0
 30
0.0
 11
1622.452383
 21
727.962305
 31
0.0
  0
LINE
  5
2B7
100
AcDbEntity
  8
0
 62
     0
100
AcDbLine
 10
1620.197185
 20
725.0
 30
0.0
 11
1623.15949
 21
727.962305
 31
0.0
  0
LINE
  5
2B8
100
AcDbEntity
  8
0
 62
     0
100
AcDbLine
 10
1620.904292
 20
725.0
 30
0.0
 11
1623.866596
 21
727.962305
 31
0.0
  0
LINE
  5
2B9
100
AcDbEntity
  8
0
 62
     0
100
AcDbLine
 10
1621.611399
 20
725.0
 30
0.0
 11
1624.573703
 21
727.962305
 31
0.0
  0
LINE
  5
2BA
100
AcDbEntity
  8
0
 62
     0
100
AcDbLine
 10
1622.318505
 20
725.0
 30
0.0
 11
1625.0
 21
727.681495
 31
0.0
  0
LINE
  5
2BB
100
AcDbEntity
  8
0
 62
     0
100
AcDbLine
 10
1623.025612
 20
725.0
 30
0.0
 11
1625.0
 21
726.974388
 31
0.0
  0
LINE
  5
2BC
100
AcDbEntity
  8
0
 62
     0
100
AcDbLine
 10
1623.732719
 20
725.0
 30
0.0
 11
1625.0
 21
726.267281
 31
0.0
  0
LINE
  5
2BD
100
AcDbEntity
  8
0
 62
     0
100
AcDbLine
 10
1624.439826
 20
725.0
 30
0.0
 11
1625.0
 21
725.560174
 31
0.0
  0
LINE
  5
2BE
100
AcDbEntity
  8
0
 62
     0
100
AcDbLine
 10
1621.1803
 20
725.0
 30
0.0
 11
1620.511966
 21
725.668334
 31
0.0
  0
LINE
  5
2BF
100
AcDbEntity
  8
0
 62
     0
100
AcDbLine
 10
1619.981636
 20
726.198664
 30
0.0
 11
1619.097752
 21
727.082548
 31
0.0
  0
LINE
  5
2C0
100
AcDbEntity
  8
0
 62
     0
100
AcDbLine
 10
1618.567422
 20
727.612878
 30
0.0
 11
1618.217995
 21
727.962305
 31
0.0
  0
LINE
  5
2C1
100
AcDbEntity
  8
0
 62
     0
100
AcDbLine
 10
1620.335189
 20
725.138004
 30
0.0
 11
1619.451306
 21
726.021888
 31
0.0
  0
LINE
  5
2C2
100
AcDbEntity
  8
0
 62
     0
100
AcDbLine
 10
1618.920976
 20
726.552218
 30
0.0
 11
1618.037092
 21
727.436101
 31
0.0
  0
LINE
  5
2C3
100
AcDbEntity
  8
0
 62
     0
100
AcDbLine
 10
1619.274529
 20
725.491557
 30
0.0
 11
1618.390645
 21
726.375441
 31
0.0
  0
LINE
  5
2C4
100
AcDbEntity
  8
0
 62
     0
100
AcDbLine
 10
1617.860315
 20
726.905771
 30
0.0
 11
1616.976432
 21
727.789655
 31
0.0
  0
LINE
  5
2C5
100
AcDbEntity
  8
0
 62
     0
100
AcDbLine
 10
1619.05898
 20
725.0
 30
0.0
 11
1618.744199
 21
725.314781
 31
0.0
  0
LINE
  5
2C6
100
AcDbEntity
  8
0
 62
     0
100
AcDbLine
 10
1618.213869
 20
725.845111
 30
0.0
 11
1617.329985
 21
726.728994
 31
0.0
  0
LINE
  5
2C7
100
AcDbEntity
  8
0
 62
     0
100
AcDbLine
 10
1616.799655
 20
727.259324
 30
0.0
 11
1616.096675
 21
727.962305
 31
0.0
  0
LINE
  5
2C8
100
AcDbEntity
  8
0
 62
     0
100
AcDbLine
 10
1618.351873
 20
725.0
 30
0.0
 11
1617.683539
 21
725.668334
 31
0.0
  0
LINE
  5
2C9
100
AcDbEntity
  8
0
 62
     0
100
AcDbLine
 10
1617.153209
 20
726.198664
 30
0.0
 11
1616.269325
 21
727.082548
 31
0.0
  0
LINE
  5
2CA
100
AcDbEntity
  8
0
 62
     0
100
AcDbLine
 10
1615.738995
 20
727.612878
 30
0.0
 11
1615.389568
 21
727.962305
 31
0.0
  0
LINE
  5
2CB
100
AcDbEntity
  8
0
 62
     0
100
AcDbLine
 10
1617.506762
 20
725.138004
 30
0.0
 11
1616.622878
 21
726.021888
 31
0.0
  0
LINE
  5
2CC
100
AcDbEntity
  8
0
 62
     0
100
AcDbLine
 10
1616.092548
 20
726.552218
 30
0.0
 11
1615.208665
 21
727.436101
 31
0.0
  0
LINE
  5
2CD
100
AcDbEntity
  8
0
 62
     0
100
AcDbLine
 10
1616.446102
 20
725.491557
 30
0.0
 11
1615.562218
 21
726.375441
 31
0.0
  0
LINE
  5
2CE
100
AcDbEntity
  8
0
 62
     0
100
AcDbLine
 10
1616.230553
 20
725.0
 30
0.0
 11
1615.915772
 21
725.314781
 31
0.0
  0
LINE
  5
2CF
100
AcDbEntity
  8
0
 62
     0
100
AcDbLine
 10
1615.385442
 20
725.845111
 30
0.0
 11
1615.181243
 21
726.049309
 31
0.0
  0
LINE
  5
2D0
100
AcDbEntity
  8
0
 62
     0
100
AcDbLine
 10
1615.523446
 20
725.0
 30
0.0
 11
1615.181243
 21
725.342203
 31
0.0
  0
LINE
  5
2D1
100
AcDbEntity
  8
0
 62
     0
100
AcDbLine
 10
1621.887407
 20
725.0
 30
0.0
 11
1621.572626
 21
725.314781
 31
0.0
  0
LINE
  5
2D2
100
AcDbEntity
  8
0
 62
     0
100
AcDbLine
 10
1621.042296
 20
725.845111
 30
0.0
 11
1620.158412
 21
726.728994
 31
0.0
  0
LINE
  5
2D3
100
AcDbEntity
  8
0
 62
     0
100
AcDbLine
 10
1619.628082
 20
727.259324
 30
0.0
 11
1618.925102
 21
727.962305
 31
0.0
  0
LINE
  5
2D4
100
AcDbEntity
  8
0
 62
     0
100
AcDbLine
 10
1622.102956
 20
725.491557
 30
0.0
 11
1621.219073
 21
726.375441
 31
0.0
  0
LINE
  5
2D5
100
AcDbEntity
  8
0
 62
     0
100
AcDbLine
 10
1620.688742
 20
726.905771
 30
0.0
 11
1619.804859
 21
727.789655
 31
0.0
  0
LINE
  5
2D6
100
AcDbEntity
  8
0
 62
     0
100
AcDbLine
 10
1623.163616
 20
725.138004
 30
0.0
 11
1622.279733
 21
726.021888
 31
0.0
  0
LINE
  5
2D7
100
AcDbEntity
  8
0
 62
     0
100
AcDbLine
 10
1621.749403
 20
726.552218
 30
0.0
 11
1620.865519
 21
727.436101
 31
0.0
  0
LINE
  5
2D8
100
AcDbEntity
  8
0
 62
     0
100
AcDbLine
 10
1624.008727
 20
725.0
 30
0.0
 11
1623.340393
 21
725.668334
 31
0.0
  0
LINE
  5
2D9
100
AcDbEntity
  8
0
 62
     0
100
AcDbLine
 10
1622.810063
 20
726.198664
 30
0.0
 11
1621.926179
 21
727.082548
 31
0.0
  0
LINE
  5
2DA
100
AcDbEntity
  8
0
 62
     0
100
AcDbLine
 10
1621.395849
 20
727.612878
 30
0.0
 11
1621.046423
 21
727.962305
 31
0.0
  0
LINE
  5
2DB
100
AcDbEntity
  8
0
 62
     0
100
AcDbLine
 10
1624.715834
 20
725.0
 30
0.0
 11
1624.401053
 21
725.314781
 31
0.0
  0
LINE
  5
2DC
100
AcDbEntity
  8
0
 62
     0
100
AcDbLine
 10
1623.870723
 20
725.845111
 30
0.0
 11
1622.98684
 21
726.728994
 31
0.0
  0
LINE
  5
2DD
100
AcDbEntity
  8
0
 62
     0
100
AcDbLine
 10
1622.456509
 20
727.259324
 30
0.0
 11
1621.753529
 21
727.962305
 31
0.0
  0
LINE
  5
2DE
100
AcDbEntity
  8
0
 62
     0
100
AcDbLine
 10
1624.931383
 20
725.491557
 30
0.0
 11
1624.0475
 21
726.375441
 31
0.0
  0
LINE
  5
2DF
100
AcDbEntity
  8
0
 62
     0
100
AcDbLine
 10
1623.51717
 20
726.905771
 30
0.0
 11
1622.633286
 21
727.789655
 31
0.0
  0
LINE
  5
2E0
100
AcDbEntity
  8
0
 62
     0
100
AcDbLine
 10
1624.57783
 20
726.552218
 30
0.0
 11
1623.693946
 21
727.436101
 31
0.0
  0
LINE
  5
2E1
100
AcDbEntity
  8
0
 62
     0
100
AcDbLine
 10
1625.0
 20
726.837154
 30
0.0
 11
1624.754606
 21
727.082548
 31
0.0
  0
LINE
  5
2E2
100
AcDbEntity
  8
0
 62
     0
100
AcDbLine
 10
1624.224276
 20
727.612878
 30
0.0
 11
1623.87485
 21
727.962305
 31
0.0
  0
LINE
  5
2E3
100
AcDbEntity
  8
0
 62
     0
100
AcDbLine
 10
1625.0
 20
727.544261
 30
0.0
 11
1624.581956
 21
727.962305
 31
0.0
  0
ENDBLK
  5
2E5
100
AcDbEntity
  8
0
100
AcDbBlockEnd
  0
BLOCK
  5
161
100
AcDbEntity
  8
0
100
AcDbBlockBegin
  2
SP6000_6260_FASAD
 70
     0
 10
0.0
 20
0.0
 30
0.0
  3
SP6000_6260_FASAD
  1

  0
INSERT
  5
4C
100
AcDbEntity
  8
HATCH
100
AcDbBlockReference
  2
SP6260
 10
-0.010221
 20
33.021019
 30
0.0
  0
ENDBLK
  5
162
100
AcDbEntity
  8
0
100
AcDbBlockEnd
  0
BLOCK
  5
257
100
AcDbEntity
  8
0
100
AcDbBlockBegin
  2
*X8
 70
     1
 10
0.0
 20
0.0
 30
0.0
  3
*X8
  1

  0
LINE
  5
241
100
AcDbEntity
  8
0
 62
     0
100
AcDbLine
 10
1649.204313
 20
495.166472
 30
0.0
 11
1649.204313
 21
495.166472
 31
0.0
  0
LINE
  5
242
100
AcDbEntity
  8
0
 62
     0
100
AcDbLine
 10
1650.493513
 20
496.155709
 30
0.0
 11
1650.493513
 21
496.155709
 31
0.0
  0
LINE
  5
243
100
AcDbEntity
  8
0
 62
     0
100
AcDbLine
 10
1651.69941
 20
497.081027
 30
0.0
 11
1651.69941
 21
497.081027
 31
0.0
  0
LINE
  5
244
100
AcDbEntity
  8
0
 62
     0
100
AcDbLine
 10
1651.762403
 20
495.154203
 30
0.0
 11
1651.762403
 21
495.154203
 31
0.0
  0
LINE
  5
245
100
AcDbEntity
  8
0
 62
     0
100
AcDbLine
 10
1649.556232
 20
496.796456
 30
0.0
 11
1649.556232
 21
496.796456
 31
0.0
  0
LINE
  5
246
100
AcDbEntity
  8
0
 62
     0
100
AcDbLine
 10
1650.076741
 20
496.864983
 30
0.0
 11
1650.076741
 21
496.864983
 31
0.0
  0
LINE
  5
247
100
AcDbEntity
  8
0
 62
     0
100
AcDbLine
 10
1650.889726
 20
496.972014
 30
0.0
 11
1650.889726
 21
496.972014
 31
0.0
  0
LINE
  5
248
100
AcDbEntity
  8
0
 62
     0
100
AcDbLine
 10
1652.248005
 20
497.150835
 30
0.0
 11
1652.248005
 21
497.150835
 31
0.0
  0
LINE
  5
249
100
AcDbEntity
  8
0
 62
     0
100
AcDbLine
 10
1652.768514
 20
497.219361
 30
0.0
 11
1652.768514
 21
497.219361
 31
0.0
  0
LINE
  5
24A
100
AcDbEntity
  8
0
 62
     0
100
AcDbLine
 10
1648.983635
 20
496.59605
 30
0.0
 11
1648.983635
 21
496.59605
 31
0.0
  0
LINE
  5
24B
100
AcDbEntity
  8
0
 62
     0
100
AcDbLine
 10
1649.40533
 20
496.3274
 30
0.0
 11
1649.40533
 21
496.3274
 31
0.0
  0
LINE
  5
24C
100
AcDbEntity
  8
0
 62
     0
100
AcDbLine
 10
1650.923435
 20
495.360261
 30
0.0
 11
1650.923435
 21
495.360261
 31
0.0
  0
LINE
  5
24D
100
AcDbEntity
  8
0
 62
     0
100
AcDbLine
 10
1650.115806
 20
497.864363
 30
0.0
 11
1650.115806
 21
497.864363
 31
0.0
  0
LINE
  5
24E
100
AcDbEntity
  8
0
 62
     0
100
AcDbLine
 10
1652.097776
 20
496.601709
 30
0.0
 11
1652.097776
 21
496.601709
 31
0.0
  0
LINE
  5
24F
100
AcDbEntity
  8
0
 62
     0
100
AcDbLine
 10
1652.519472
 20
496.333059
 30
0.0
 11
1652.519472
 21
496.333059
 31
0.0
  0
LINE
  5
250
100
AcDbEntity
  8
0
 62
     0
100
AcDbLine
 10
1647.809293
 20
495.354602
 30
0.0
 11
1647.809293
 21
495.354602
 31
0.0
  0
LINE
  5
251
100
AcDbEntity
  8
0
 62
     0
100
AcDbLine
 10
1648.860226
 20
496.623432
 30
0.0
 11
1648.860226
 21
496.623432
 31
0.0
  0
LINE
  5
252
100
AcDbEntity
  8
0
 62
     0
100
AcDbLine
 10
1649.044546
 20
496.454535
 30
0.0
 11
1649.044546
 21
496.454535
 31
0.0
  0
LINE
  5
253
100
AcDbEntity
  8
0
 62
     0
100
AcDbLine
 10
1649.914533
 20
495.657338
 30
0.0
 11
1649.914533
 21
495.657338
 31
0.0
  0
LINE
  5
254
100
AcDbEntity
  8
0
 62
     0
100
AcDbLine
 10
1651.866353
 20
497.501108
 30
0.0
 11
1651.866353
 21
497.501108
 31
0.0
  0
LINE
  5
255
100
AcDbEntity
  8
0
 62
     0
100
AcDbLine
 10
1652.050672
 20
497.33221
 30
0.0
 11
1652.050672
 21
497.33221
 31
0.0
  0
LINE
  5
256
100
AcDbEntity
  8
0
 62
     0
100
AcDbLine
 10
1652.92066
 20
496.535014
 30
0.0
 11
1652.92066
 21
496.535014
 31
0.0
  0
ENDBLK
  5
258
100
AcDbEntity
  8
0
100
AcDbBlockEnd
  0
BLOCK
  5
35E
100
AcDbEntity
  8
0
100
AcDbBlockBegin
  2
*X9
 70
     1
 10
0.0
 20
0.0
 30
0.0
  3
*X9
  1

  0
LINE
  5
34D
100
AcDbEntity
  8
0
 62
     0
100
AcDbLine
 10
1708.247121
 20
497.018086
 30
0.0
 11
1708.247121
 21
497.018086
 31
0.0
  0
LINE
  5
34E
100
AcDbEntity
  8
0
 62
     0
100
AcDbLine
 10
1709.536321
 20
498.007323
 30
0.0
 11
1709.536321
 21
498.007323
 31
0.0
  0
LINE
  5
34F
100
AcDbEntity
  8
0
 62
     0
100
AcDbLine
 10
1708.310115
 20
495.091262
 30
0.0
 11
1708.310115
 21
495.091262
 31
0.0
  0
LINE
  5
350
100
AcDbEntity
  8
0
 62
     0
100
AcDbLine
 10
1709.599314
 20
496.0805
 30
0.0
 11
1709.599314
 21
496.0805
 31
0.0
  0
LINE
  5
351
100
AcDbEntity
  8
0
 62
     0
100
AcDbLine
 10
1710.868204
 20
495.078993
 30
0.0
 11
1710.868204
 21
495.078993
 31
0.0
  0
LINE
  5
352
100
AcDbEntity
  8
0
 62
     0
100
AcDbLine
 10
1707.49117
 20
496.656284
 30
0.0
 11
1707.49117
 21
496.656284
 31
0.0
  0
LINE
  5
353
100
AcDbEntity
  8
0
 62
     0
100
AcDbLine
 10
1708.84945
 20
496.835105
 30
0.0
 11
1708.84945
 21
496.835105
 31
0.0
  0
LINE
  5
354
100
AcDbEntity
  8
0
 62
     0
100
AcDbLine
 10
1709.369958
 20
496.903631
 30
0.0
 11
1709.369958
 21
496.903631
 31
0.0
  0
LINE
  5
355
100
AcDbEntity
  8
0
 62
     0
100
AcDbLine
 10
1710.182943
 20
497.010663
 30
0.0
 11
1710.182943
 21
497.010663
 31
0.0
  0
LINE
  5
356
100
AcDbEntity
  8
0
 62
     0
100
AcDbLine
 10
1708.15233
 20
496.703572
 30
0.0
 11
1708.15233
 21
496.703572
 31
0.0
  0
LINE
  5
357
100
AcDbEntity
  8
0
 62
     0
100
AcDbLine
 10
1708.574026
 20
496.434922
 30
0.0
 11
1708.574026
 21
496.434922
 31
0.0
  0
LINE
  5
358
100
AcDbEntity
  8
0
 62
     0
100
AcDbLine
 10
1710.09213
 20
495.467783
 30
0.0
 11
1710.09213
 21
495.467783
 31
0.0
  0
LINE
  5
359
100
AcDbEntity
  8
0
 62
     0
100
AcDbLine
 10
1709.284502
 20
497.971885
 30
0.0
 11
1709.284502
 21
497.971885
 31
0.0
  0
LINE
  5
35A
100
AcDbEntity
  8
0
 62
     0
100
AcDbLine
 10
1707.304218
 20
497.553627
 30
0.0
 11
1707.304218
 21
497.553627
 31
0.0
  0
LINE
  5
35B
100
AcDbEntity
  8
0
 62
     0
100
AcDbLine
 10
1708.299542
 20
496.64158
 30
0.0
 11
1708.299542
 21
496.64158
 31
0.0
  0
LINE
  5
35C
100
AcDbEntity
  8
0
 62
     0
100
AcDbLine
 10
1708.483862
 20
496.472683
 30
0.0
 11
1708.483862
 21
496.472683
 31
0.0
  0
LINE
  5
35D
100
AcDbEntity
  8
0
 62
     0
100
AcDbLine
 10
1709.353849
 20
495.675486
 30
0.0
 11
1709.353849
 21
495.675486
 31
0.0
  0
ENDBLK
  5
35F
100
AcDbEntity
  8
0
100
AcDbBlockEnd
  0
BLOCK
  5
18E
100
AcDbEntity
  8
0
100
AcDbBlockBegin
  2
*X10
 70
     1
 10
0.0
 20
0.0
 30
0.0
  3
*X10
  1

  0
LINE
  5
171
100
AcDbEntity
  8
0
 62
     0
100
AcDbLine
 10
1649.834247
 20
475.898234
 30
0.0
 11
1649.834247
 21
475.898234
 31
0.0
  0
LINE
  5
172
100
AcDbEntity
  8
0
 62
     0
100
AcDbLine
 10
1651.123446
 20
476.887472
 30
0.0
 11
1651.123446
 21
476.887472
 31
0.0
  0
LINE
  5
173
100
AcDbEntity
  8
0
 62
     0
100
AcDbLine
 10
1652.329343
 20
477.812789
 30
0.0
 11
1652.329343
 21
477.812789
 31
0.0
  0
LINE
  5
174
100
AcDbEntity
  8
0
 62
     0
100
AcDbLine
 10
1648.422553
 20
476.790164
 30
0.0
 11
1648.422553
 21
476.790164
 31
0.0
  0
LINE
  5
175
100
AcDbEntity
  8
0
 62
     0
100
AcDbLine
 10
1649.771254
 20
477.825058
 30
0.0
 11
1649.771254
 21
477.825058
 31
0.0
  0
LINE
  5
176
100
AcDbEntity
  8
0
 62
     0
100
AcDbLine
 10
1647.153663
 20
477.79167
 30
0.0
 11
1647.153663
 21
477.79167
 31
0.0
  0
LINE
  5
177
100
AcDbEntity
  8
0
 62
     0
100
AcDbLine
 10
1649.89724
 20
473.971411
 30
0.0
 11
1649.89724
 21
473.971411
 31
0.0
  0
LINE
  5
178
100
AcDbEntity
  8
0
 62
     0
100
AcDbLine
 10
1651.18644
 20
474.960648
 30
0.0
 11
1651.18644
 21
474.960648
 31
0.0
  0
LINE
  5
179
100
AcDbEntity
  8
0
 62
     0
100
AcDbLine
 10
1652.392337
 20
475.885965
 30
0.0
 11
1652.392337
 21
475.885965
 31
0.0
  0
LINE
  5
17A
100
AcDbEntity
  8
0
 62
     0
100
AcDbLine
 10
1649.778879
 20
473.523414
 30
0.0
 11
1649.778879
 21
473.523414
 31
0.0
  0
LINE
  5
17B
100
AcDbEntity
  8
0
 62
     0
100
AcDbLine
 10
1648.856883
 20
475.991181
 30
0.0
 11
1648.856883
 21
475.991181
 31
0.0
  0
LINE
  5
17C
100
AcDbEntity
  8
0
 62
     0
100
AcDbLine
 10
1649.377391
 20
476.059707
 30
0.0
 11
1649.377391
 21
476.059707
 31
0.0
  0
LINE
  5
17D
100
AcDbEntity
  8
0
 62
     0
100
AcDbLine
 10
1650.190376
 20
476.166739
 30
0.0
 11
1650.190376
 21
476.166739
 31
0.0
  0
LINE
  5
17E
100
AcDbEntity
  8
0
 62
     0
100
AcDbLine
 10
1651.548656
 20
476.34556
 30
0.0
 11
1651.548656
 21
476.34556
 31
0.0
  0
LINE
  5
17F
100
AcDbEntity
  8
0
 62
     0
100
AcDbLine
 10
1652.069164
 20
476.414086
 30
0.0
 11
1652.069164
 21
476.414086
 31
0.0
  0
LINE
  5
180
100
AcDbEntity
  8
0
 62
     0
100
AcDbLine
 10
1652.882149
 20
476.521117
 30
0.0
 11
1652.882149
 21
476.521117
 31
0.0
  0
LINE
  5
181
100
AcDbEntity
  8
0
 62
     0
100
AcDbLine
 10
1650.024006
 20
474.047812
 30
0.0
 11
1650.024006
 21
474.047812
 31
0.0
  0
LINE
  5
182
100
AcDbEntity
  8
0
 62
     0
100
AcDbLine
 10
1647.234408
 20
477.814568
 30
0.0
 11
1647.234408
 21
477.814568
 31
0.0
  0
LINE
  5
183
100
AcDbEntity
  8
0
 62
     0
100
AcDbLine
 10
1649.216378
 20
476.551914
 30
0.0
 11
1649.216378
 21
476.551914
 31
0.0
  0
LINE
  5
184
100
AcDbEntity
  8
0
 62
     0
100
AcDbLine
 10
1649.638073
 20
476.283264
 30
0.0
 11
1649.638073
 21
476.283264
 31
0.0
  0
LINE
  5
185
100
AcDbEntity
  8
0
 62
     0
100
AcDbLine
 10
1651.156178
 20
475.316125
 30
0.0
 11
1651.156178
 21
475.316125
 31
0.0
  0
LINE
  5
186
100
AcDbEntity
  8
0
 62
     0
100
AcDbLine
 10
1650.34855
 20
477.820227
 30
0.0
 11
1650.34855
 21
477.820227
 31
0.0
  0
LINE
  5
187
100
AcDbEntity
  8
0
 62
     0
100
AcDbLine
 10
1652.33052
 20
476.557573
 30
0.0
 11
1652.33052
 21
476.557573
 31
0.0
  0
LINE
  5
188
100
AcDbEntity
  8
0
 62
     0
100
AcDbLine
 10
1652.752215
 20
476.288923
 30
0.0
 11
1652.752215
 21
476.288923
 31
0.0
  0
LINE
  5
189
100
AcDbEntity
  8
0
 62
     0
100
AcDbLine
 10
1650.226641
 20
477.209928
 30
0.0
 11
1650.226641
 21
477.209928
 31
0.0
  0
LINE
  5
18A
100
AcDbEntity
  8
0
 62
     0
100
AcDbLine
 10
1650.410961
 20
477.04103
 30
0.0
 11
1650.410961
 21
477.04103
 31
0.0
  0
LINE
  5
18B
100
AcDbEntity
  8
0
 62
     0
100
AcDbLine
 10
1651.280948
 20
476.243834
 30
0.0
 11
1651.280948
 21
476.243834
 31
0.0
  0
LINE
  5
18C
100
AcDbEntity
  8
0
 62
     0
100
AcDbLine
 10
1652.276272
 20
475.331787
 30
0.0
 11
1652.276272
 21
475.331787
 31
0.0
  0
LINE
  5
18D
100
AcDbEntity
  8
0
 62
     0
100
AcDbLine
 10
1652.460592
 20
475.16289
 30
0.0
 11
1652.460592
 21
475.16289
 31
0.0
  0
ENDBLK
  5
18F
100
AcDbEntity
  8
0
100
AcDbBlockEnd
  0
BLOCK
  5
306
100
AcDbEntity
  8
0
100
AcDbBlockBegin
  2
*X11
 70
     1
 10
0.0
 20
0.0
 30
0.0
  3
*X11
  1

  0
LINE
  5
2E8
100
AcDbEntity
  8
0
 62
     0
100
AcDbLine
 10
1710.292241
 20
474.885438
 30
0.0
 11
1710.292241
 21
474.885438
 31
0.0
  0
LINE
  5
2E9
100
AcDbEntity
  8
0
 62
     0
100
AcDbLine
 10
1711.498138
 20
475.810755
 30
0.0
 11
1711.498138
 21
475.810755
 31
0.0
  0
LINE
  5
2EA
100
AcDbEntity
  8
0
 62
     0
100
AcDbLine
 10
1712.846839
 20
476.84565
 30
0.0
 11
1712.846839
 21
476.84565
 31
0.0
  0
LINE
  5
2EB
100
AcDbEntity
  8
0
 62
     0
100
AcDbLine
 10
1714.136038
 20
477.834887
 30
0.0
 11
1714.136038
 21
477.834887
 31
0.0
  0
LINE
  5
2EC
100
AcDbEntity
  8
0
 62
     0
100
AcDbLine
 10
1708.940048
 20
475.823024
 30
0.0
 11
1708.940048
 21
475.823024
 31
0.0
  0
LINE
  5
2ED
100
AcDbEntity
  8
0
 62
     0
100
AcDbLine
 10
1710.229247
 20
476.812262
 30
0.0
 11
1710.229247
 21
476.812262
 31
0.0
  0
LINE
  5
2EE
100
AcDbEntity
  8
0
 62
     0
100
AcDbLine
 10
1711.435145
 20
477.737579
 30
0.0
 11
1711.435145
 21
477.737579
 31
0.0
  0
LINE
  5
2EF
100
AcDbEntity
  8
0
 62
     0
100
AcDbLine
 10
1707.528354
 20
476.714954
 30
0.0
 11
1707.528354
 21
476.714954
 31
0.0
  0
LINE
  5
2F0
100
AcDbEntity
  8
0
 62
     0
100
AcDbLine
 10
1708.877055
 20
477.749848
 30
0.0
 11
1708.877055
 21
477.749848
 31
0.0
  0
LINE
  5
2F1
100
AcDbEntity
  8
0
 62
     0
100
AcDbLine
 10
1710.405589
 20
473.73762
 30
0.0
 11
1710.405589
 21
473.73762
 31
0.0
  0
LINE
  5
2F2
100
AcDbEntity
  8
0
 62
     0
100
AcDbLine
 10
1708.1501
 20
476.029829
 30
0.0
 11
1708.1501
 21
476.029829
 31
0.0
  0
LINE
  5
2F3
100
AcDbEntity
  8
0
 62
     0
100
AcDbLine
 10
1708.670608
 20
476.098356
 30
0.0
 11
1708.670608
 21
476.098356
 31
0.0
  0
LINE
  5
2F4
100
AcDbEntity
  8
0
 62
     0
100
AcDbLine
 10
1709.483593
 20
476.205387
 30
0.0
 11
1709.483593
 21
476.205387
 31
0.0
  0
LINE
  5
2F5
100
AcDbEntity
  8
0
 62
     0
100
AcDbLine
 10
1710.841873
 20
476.384208
 30
0.0
 11
1710.841873
 21
476.384208
 31
0.0
  0
LINE
  5
2F6
100
AcDbEntity
  8
0
 62
     0
100
AcDbLine
 10
1711.362381
 20
476.452734
 30
0.0
 11
1711.362381
 21
476.452734
 31
0.0
  0
LINE
  5
2F7
100
AcDbEntity
  8
0
 62
     0
100
AcDbLine
 10
1712.175366
 20
476.559766
 30
0.0
 11
1712.175366
 21
476.559766
 31
0.0
  0
LINE
  5
2F8
100
AcDbEntity
  8
0
 62
     0
100
AcDbLine
 10
1708.385073
 20
476.659436
 30
0.0
 11
1708.385073
 21
476.659436
 31
0.0
  0
LINE
  5
2F9
100
AcDbEntity
  8
0
 62
     0
100
AcDbLine
 10
1708.806769
 20
476.390786
 30
0.0
 11
1708.806769
 21
476.390786
 31
0.0
  0
LINE
  5
2FA
100
AcDbEntity
  8
0
 62
     0
100
AcDbLine
 10
1710.324873
 20
475.423647
 30
0.0
 11
1710.324873
 21
475.423647
 31
0.0
  0
LINE
  5
2FB
100
AcDbEntity
  8
0
 62
     0
100
AcDbLine
 10
1709.517245
 20
477.927749
 30
0.0
 11
1709.517245
 21
477.927749
 31
0.0
  0
LINE
  5
2FC
100
AcDbEntity
  8
0
 62
     0
100
AcDbLine
 10
1711.499215
 20
476.665095
 30
0.0
 11
1711.499215
 21
476.665095
 31
0.0
  0
LINE
  5
2FD
100
AcDbEntity
  8
0
 62
     0
100
AcDbLine
 10
1711.920911
 20
476.396445
 30
0.0
 11
1711.920911
 21
476.396445
 31
0.0
  0
LINE
  5
2FE
100
AcDbEntity
  8
0
 62
     0
100
AcDbLine
 10
1712.631387
 20
477.933408
 30
0.0
 11
1712.631387
 21
477.933408
 31
0.0
  0
LINE
  5
2FF
100
AcDbEntity
  8
0
 62
     0
100
AcDbLine
 10
1707.210732
 20
475.417988
 30
0.0
 11
1707.210732
 21
475.417988
 31
0.0
  0
LINE
  5
300
100
AcDbEntity
  8
0
 62
     0
100
AcDbLine
 10
1709.614397
 20
473.886684
 30
0.0
 11
1709.614397
 21
473.886684
 31
0.0
  0
LINE
  5
301
100
AcDbEntity
  8
0
 62
     0
100
AcDbLine
 10
1707.714137
 20
475.384307
 30
0.0
 11
1707.714137
 21
475.384307
 31
0.0
  0
LINE
  5
302
100
AcDbEntity
  8
0
 62
     0
100
AcDbLine
 10
1709.665957
 20
477.228076
 30
0.0
 11
1709.665957
 21
477.228076
 31
0.0
  0
LINE
  5
303
100
AcDbEntity
  8
0
 62
     0
100
AcDbLine
 10
1709.850277
 20
477.059179
 30
0.0
 11
1709.850277
 21
477.059179
 31
0.0
  0
LINE
  5
304
100
AcDbEntity
  8
0
 62
     0
100
AcDbLine
 10
1710.720264
 20
476.261982
 30
0.0
 11
1710.720264
 21
476.261982
 31
0.0
  0
LINE
  5
305
100
AcDbEntity
  8
0
 62
     0
100
AcDbLine
 10
1712.856403
 20
477.936854
 30
0.0
 11
1712.856403
 21
477.936854
 31
0.0
  0
ENDBLK
  5
307
100
AcDbEntity
  8
0
100
AcDbBlockEnd
  0
BLOCK
  5
364
100
AcDbEntity
  8
0
100
AcDbBlockBegin
  2
GLAS22MM
 70
     0
 10
0.0
 20
0.0
 30
0.0
  3
GLAS22MM
  1

  0
LINE
  5
165
100
AcDbEntity
  8
GLASMFOGNING
100
AcDbLine
 10
87.0
 20
13.0
 30
0.0
 11
42.0
 21
13.0
 31
0.0
  0
LINE
  5
166
100
AcDbEntity
  8
GLASMFOGNING
100
AcDbLine
 10
87.0
 20
14.0
 30
0.0
 11
42.0
 21
14.0
 31
0.0
  0
LINE
  5
167
100
AcDbEntity
  8
GLASMFOGNING
100
AcDbLine
 10
87.0
 20
15.0
 30
0.0
 11
42.0
 21
15.0
 31
0.0
  0
LINE
  5
168
100
AcDbEntity
  8
GLASMFOGNING
100
AcDbLine
 10
87.0
 20
33.0
 30
0.0
 11
42.0
 21
33.0
 31
0.0
  0
LINE
  5
169
100
AcDbEntity
  8
GLASMFOGNING
100
AcDbLine
 10
87.0
 20
34.0
 30
0.0
 11
42.0
 21
34.0
 31
0.0
  0
LINE
  5
16A
100
AcDbEntity
  8
GLASMFOGNING
100
AcDbLine
 10
87.0
 20
35.0
 30
0.0
 11
42.0
 21
35.0
 31
0.0
  0
HATCH
  5
16B
100
AcDbEntity
  8
GLASMFOGNING
100
AcDbHatch
 10
0.0
 20
0.0
 30
0.0
210
0.0
220
0.0
230
1.0
  2
ANSI31
 70
     0
 71
     0
 91
        1
 92
        7
 72
     1
 73
     1
 93
       16
 10
40.97564709661628
 20
43.00893537832246
 42
0.0
 10
42.97564709661628
 20
43.00893537832246
 42
0.0
 10
40.97564709661628
 20
45.00893537832246
 42
0.0
 10
37.97564709661625
 20
45.00893537832246
 42
0.0
 10
37.97564709661628
 20
16.09480744973656
 42
0.0
 10
33.04765022567016
 20
16.09480744973656
 42
0.0
 10
33.04765022567016
 20
32.19681933009578
 42
0.0
 10
30.8750939995748
 20
32.19681933009576
 42
0.0
 10
30.87509399957477
 20
12.09480744973655
 42
0.0
 10
33.47564709661628
 20
12.09480744973655
 42
0.0
 10
30.77766022566493
 20
-0.6347242792113548
 42
0.6452980853851517
 10
36.16783230415308
 20
4.633562918725147
 42
-0.4051409009247286
 10
35.05077082206025
 20
6.397750659736573
 42
0.0
 10
35.36312414753723
 20
8.897046621458287
 42
-0.3550060014663849
 10
36.83025854494852
 20
10.09111464653533
 42
0.0
 10
40.97564709661631
 20
10.09480744973654
 42
0.0
 97
        0
 75
     0
 76
     1
 52
0.0
 41
4.0
 77
     0
 78
     1
 53
45.0
 43
-185.0
 44
115.0
 45
-0.3535533905932737
 46
0.3535533905932738
 79
     0
 47
0.106117
 98
        1
 10
40.0
 20
15.0
  0
LWPOLYLINE
  5
16C
100
AcDbEntity
  8
16
100
AcDbPolyline
 90
       12
 70
     0
 43
0.0
 10
40.975647
 20
45.008935
 10
37.975647
 20
45.008935
 10
37.975647
 20
16.094807
 10
33.04765
 20
16.094807
 10
33.04765
 20
32.196819
 10
30.875094
 20
32.196819
 10
30.875094
 20
12.094807
 10
33.475647
 20
12.094807
 10
30.77766
 20
-0.634724
 42
0.645298
 10
36.167832
 20
4.633563
 42
-0.405141
 10
35.050771
 20
6.397751
 10
35.363124
 20
8.897047
  0
LWPOLYLINE
  5
16E
100
AcDbEntity
  8
16
100
AcDbPolyline
 90
        4
 70
     0
 43
0.0
 10
40.975647
 20
43.008935
 10
40.975647
 20
10.094807
 10
36.830259
 20
10.091115
 42
0.355006
 10
35.363124
 20
8.897047
 42
0.355006
  0
INSERT
  5
16F
100
AcDbEntity
  8
GLASMFOGNING
100
AcDbBlockReference
  2
*X10
 10
-1650.0
 20
-465.0
 30
0.0
1001
ACAD
1000
HATCH
1002
{
1070
    16
1000
AR-SAND
1040
1.0
1040
0.0
1002
}
  0
ARC
  5
190
100
AcDbEntity
  8
GLASMFOGNING
100
AcDbCircle
 10
-7.551544
 20
6.395469
 30
0.0
 40
7.631893
100
AcDbArc
 50
8.321393
 51
59.871875
  0
LINE
  5
191
100
AcDbEntity
  8
GLASMFOGNING
100
AcDbLine
 10
-27.0
 20
13.0
 30
0.0
 11
18.0
 21
13.0
 31
0.0
  0
LINE
  5
192
100
AcDbEntity
  8
GLASMFOGNING
100
AcDbLine
 10
-27.0
 20
14.0
 30
0.0
 11
18.0
 21
14.0
 31
0.0
  0
LINE
  5
193
100
AcDbEntity
  8
GLASMFOGNING
100
AcDbLine
 10
-27.0
 20
15.0
 30
0.0
 11
18.0
 21
15.0
 31
0.0
  0
LINE
  5
194
100
AcDbEntity
  8
GLASMFOGNING
100
AcDbLine
 10
-27.0
 20
33.0
 30
0.0
 11
18.0
 21
33.0
 31
0.0
  0
LINE
  5
195
100
AcDbEntity
  8
GLASMFOGNING
100
AcDbLine
 10
-27.0
 20
34.0
 30
0.0
 11
18.0
 21
34.0
 31
0.0
  0
LINE
  5
196
100
AcDbEntity
  8
GLASMFOGNING
100
AcDbLine
 10
-27.0
 20
35.0
 30
0.0
 11
18.0
 21
35.0
 31
0.0
  0
ARC
  5
197
100
AcDbEntity
  8
GLASMFOGNING
100
AcDbCircle
 10
-5.33559
 20
40.344837
 30
0.0
 40
5.583432
100
AcDbArc
 50
286.648466
 51
341.279125
  0
LINE
  5
198
100
AcDbEntity
  8
DOT
100
AcDbLine
 10
-27.0
 20
16.018517
 30
0.0
 11
-27.0
 21
10.0
 31
0.0
  0
LINE
  5
19A
100
AcDbEntity
  8
DOT
100
AcDbLine
 10
-27.0
 20
29.90741
 30
0.0
 11
-27.0
 21
26.018519
 31
0.0
  0
LINE
  5
19B
100
AcDbEntity
  8
DOT
100
AcDbLine
 10
-27.0
 20
18.796298
 30
0.0
 11
-27.0
 21
17.500001
 31
0.0
  0
LINE
  5
19C
100
AcDbEntity
  8
DOT
100
AcDbLine
 10
-27.0
 20
40.0
 30
0.0
 11
-27.0
 21
36.574082
 31
0.0
  0
LINE
  5
19D
100
AcDbEntity
  8
DOT
100
AcDbLine
 10
-27.0
 20
32.314817
 30
0.0
 11
-27.0
 21
32.129631
 31
0.0
  0
LINE
  5
19E
100
AcDbEntity
  8
DOT
100
AcDbLine
 10
-27.0
 20
33.796301
 30
0.0
 11
-27.0
 21
32.314817
 31
0.0
  0
LINE
  5
19F
100
AcDbEntity
  8
GLASMFOGNING
100
AcDbLine
 10
42.0
 20
35.0
 30
0.0
 11
42.0
 21
13.0
 31
0.0
  0
LINE
  5
1A0
100
AcDbEntity
  8
GLASMFOGNING
100
AcDbLine
 10
18.0
 20
35.0
 30
0.0
 11
18.0
 21
13.0
 31
0.0
  0
LINE
  5
1A1
100
AcDbEntity
  8
16
100
AcDbLine
 10
27.047252
 20
16.094807
 30
0.0
 11
27.047252
 21
36.199121
 31
0.0
  0
LINE
  5
1A2
100
AcDbEntity
  8
16
100
AcDbLine
 10
29.283882
 20
15.358158
 30
0.0
 11
29.283882
 21
16.987312
 31
0.0
  0
LINE
  5
1A3
100
AcDbEntity
  8
16
100
AcDbLine
 10
28.950461
 20
16.83804
 30
0.0
 11
28.950461
 21
16.094807
 31
0.0
  0
LINE
  5
1A4
100
AcDbEntity
  8
16
100
AcDbLine
 10
23.121036
 20
10.091115
 30
0.0
 11
18.975647
 21
10.094807
 31
0.0
  0
LINE
  5
1A5
100
AcDbEntity
  8
16
100
AcDbLine
 10
18.975647
 20
16.094807
 30
0.0
 11
28.950461
 21
16.094807
 31
0.0
  0
LINE
  5
1A6
100
AcDbEntity
  8
16
100
AcDbLine
 10
18.975647
 20
16.094807
 30
0.0
 11
28.950461
 21
16.094807
 31
0.0
  0
LWPOLYLINE
  5
1A7
100
AcDbEntity
  8
GLASMFOGNING
100
AcDbPolyline
 90
        4
 70
     1
 43
0.0
 10
3.0
 20
10.0
 10
3.0
 20
12.962305
 10
12.818757
 20
12.962305
 10
12.818757
 20
10.0
  0
INSERT
  5
1A8
100
AcDbEntity
  8
GLASMFOGNING
100
AcDbBlockReference
  2
*X3
 10
-1572.0
 20
-715.0
 30
0.0
1001
ACAD
1000
HATCH
1002
{
1070
    16
1000
ANSI38
1040
4.0
1040
0.0
1002
}
  0
LINE
  5
1E4
100
AcDbEntity
  8
16
100
AcDbLine
 10
18.975647
 20
16.094807
 30
0.0
 11
18.975647
 21
10.094807
 31
0.0
  0
LINE
  5
1E5
100
AcDbEntity
  8
16
100
AcDbLine
 10
18.975647
 20
16.094807
 30
0.0
 11
18.975647
 21
10.094807
 31
0.0
  0
LINE
  5
1E6
100
AcDbEntity
  8
16
100
AcDbLine
 10
33.475647
 20
12.094807
 30
0.0
 11
30.77766
 21
-0.634724
 31
0.0
  0
ARC
  5
1E7
100
AcDbEntity
  8
16
100
AcDbCircle
 10
23.432053
 20
6.091819
 30
0.0
 40
1.5
100
AcDbArc
 50
283.548759
 51
11.768289
  0
LINE
  5
1E8
100
AcDbEntity
  8
16
100
AcDbLine
 10
26.475647
 20
12.094807
 30
0.0
 11
29.423634
 21
-0.634724
 31
0.0
  0
LINE
  5
1E9
100
AcDbEntity
  8
16
 62
   143
100
AcDbLine
 10
29.257234
 20
0.114323
 30
0.0
 11
29.257234
 21
12.112255
 31
0.0
  0
LWPOLYLINE
  5
1EA
100
AcDbEntity
  8
16
 62
   143
100
AcDbPolyline
 90
        2
 70
     0
 43
0.0
 10
30.957234
 20
12.094807
 10
30.957234
 20
0.114323
  0
LINE
  5
1EB
100
AcDbEntity
  8
16
 62
   143
100
AcDbLine
 10
29.257234
 20
-0.935887
 30
0.0
 11
30.957234
 21
-0.935887
 31
0.0
  0
LINE
  5
1EC
100
AcDbEntity
  8
16
 62
   143
100
AcDbLine
 10
29.505086
 20
-1.396104
 30
0.0
 11
30.713603
 21
-1.396104
 31
0.0
  0
LINE
  5
1ED
100
AcDbEntity
  8
16
 62
   143
100
AcDbLine
 10
29.255015
 20
-0.93177
 30
0.0
 11
29.505086
 21
-1.396104
 31
0.0
  0
LWPOLYLINE
  5
1EE
100
AcDbEntity
  8
16
 62
   143
100
AcDbPolyline
 90
        2
 70
     0
 43
0.0
 10
30.957234
 20
-0.699309
 10
30.957234
 20
-0.957839
  0
ARC
  5
1EF
100
AcDbEntity
  8
16
100
AcDbCircle
 10
27.862786
 20
3.348173
 30
0.0
 40
4.277045
100
AcDbArc
 50
162.51043
 51
291.343697
  0
LINE
  5
1F0
100
AcDbEntity
  8
16
100
AcDbLine
 10
37.975647
 20
16.094807
 30
0.0
 11
33.04765
 21
16.094807
 31
0.0
  0
LINE
  5
1F1
100
AcDbEntity
  8
16
100
AcDbLine
 10
29.975647
 20
12.094807
 30
0.0
 11
33.475647
 21
12.094807
 31
0.0
  0
LINE
  5
1F2
100
AcDbEntity
  8
16
100
AcDbLine
 10
24.58817
 20
8.897047
 30
0.0
 11
24.900523
 21
6.397751
 31
0.0
  0
ARC
  5
1F3
100
AcDbEntity
  8
16
100
AcDbCircle
 10
23.119699
 20
8.591115
 30
0.0
 40
1.5
100
AcDbArc
 50
11.768289
 51
89.94896
  0
ARC
  5
1F4
100
AcDbEntity
  8
16
100
AcDbCircle
 10
23.119699
 20
8.591115
 30
0.0
 40
1.5
100
AcDbArc
 50
11.768289
 51
89.94896
  0
LINE
  5
1F5
100
AcDbEntity
  8
16
100
AcDbLine
 10
28.35293
 20
14.881612
 30
0.0
 11
29.283882
 21
15.358158
 31
0.0
  0
LINE
  5
1F6
100
AcDbEntity
  8
16
100
AcDbLine
 10
29.283882
 20
14.608158
 30
0.0
 11
30.888391
 21
15.076917
 31
0.0
  0
LINE
  5
1F7
100
AcDbEntity
  8
16
100
AcDbLine
 10
28.35293
 20
14.881612
 30
0.0
 11
30.647011
 21
15.413008
 31
0.0
  0
LINE
  5
1F8
100
AcDbEntity
  8
16
100
AcDbLine
 10
28.35293
 20
14.881612
 30
0.0
 11
29.283882
 21
14.608158
 31
0.0
  0
LINE
  5
1F9
100
AcDbEntity
  8
16
100
AcDbLine
 10
29.283882
 20
14.608158
 30
0.0
 11
30.411727
 21
13.848853
 31
0.0
  0
LINE
  5
1FA
100
AcDbEntity
  8
16
100
AcDbLine
 10
29.283882
 20
15.358158
 30
0.0
 11
30.888391
 21
15.826917
 31
0.0
  0
LINE
  5
1FB
100
AcDbEntity
  8
16
100
AcDbLine
 10
29.975647
 20
12.094807
 30
0.0
 11
26.475647
 21
12.094807
 31
0.0
  0
LINE
  5
1FC
100
AcDbEntity
  8
16
100
AcDbLine
 10
12.818757
 20
36.317517
 30
0.0
 11
21.303719
 21
36.317517
 31
0.0
  0
LINE
  5
1FD
100
AcDbEntity
  8
16
100
AcDbLine
 10
12.840982
 20
35.067517
 30
0.0
 11
21.303719
 21
35.067517
 31
0.0
  0
INSERT
  5
1FE
100
AcDbEntity
  8
GLASMFOGNING
100
AcDbBlockReference
  2
*X4
 10
-1572.0
 20
-710.0
 30
0.0
1001
ACAD
1000
HATCH
1002
{
1070
    16
1000
ANSI38
1040
4.0
1040
0.0
1002
}
  0
LWPOLYLINE
  5
23E
100
AcDbEntity
  8
GLASMFOGNING
100
AcDbPolyline
 90
        4
 70
     1
 43
0.0
 10
3.0
 20
38.0
 10
3.0
 20
35.037695
 10
12.818757
 20
35.037695
 10
12.818757
 20
38.0
  0
INSERT
  5
23F
100
AcDbEntity
  8
GLASMFOGNING
100
AcDbBlockReference
  2
*X8
 10
-1650.0
 20
-460.0
 30
0.0
1001
ACAD
1000
HATCH
1002
{
1070
    16
1000
AR-SAND
1040
1.0
1040
0.0
1002
}
  0
LINE
  5
259
100
AcDbEntity
  8
16
100
AcDbLine
 10
28.950461
 20
28.65206
 30
0.0
 11
28.950461
 21
27.752686
 31
0.0
  0
LINE
  5
25A
100
AcDbEntity
  8
16
100
AcDbLine
 10
28.950461
 20
28.647587
 30
0.0
 11
28.950461
 21
27.833869
 31
0.0
  0
LINE
  5
25B
100
AcDbEntity
  8
16
100
AcDbLine
 10
29.283882
 20
27.49562
 30
0.0
 11
29.283882
 21
29.124774
 31
0.0
  0
LINE
  5
25C
100
AcDbEntity
  8
16
100
AcDbLine
 10
28.950461
 20
21.481877
 30
0.0
 11
28.950461
 21
20.582504
 31
0.0
  0
LINE
  5
25D
100
AcDbEntity
  8
16
100
AcDbLine
 10
28.950461
 20
24.074354
 30
0.0
 11
28.950461
 21
23.17498
 31
0.0
  0
LINE
  5
25E
100
AcDbEntity
  8
16
100
AcDbLine
 10
28.950461
 20
26.363207
 30
0.0
 11
28.950461
 21
25.463833
 31
0.0
  0
LINE
  5
25F
100
AcDbEntity
  8
16
100
AcDbLine
 10
28.35293
 20
22.260767
 30
0.0
 11
29.283882
 21
22.737312
 31
0.0
  0
LINE
  5
260
100
AcDbEntity
  8
16
100
AcDbLine
 10
28.35293
 20
22.260767
 30
0.0
 11
29.283882
 21
21.987312
 31
0.0
  0
LINE
  5
261
100
AcDbEntity
  8
16
100
AcDbLine
 10
29.283882
 20
21.987312
 30
0.0
 11
30.888391
 21
22.456071
 31
0.0
  0
LINE
  5
262
100
AcDbEntity
  8
16
100
AcDbLine
 10
28.35293
 20
22.260767
 30
0.0
 11
30.647011
 21
22.792162
 31
0.0
  0
LINE
  5
263
100
AcDbEntity
  8
16
100
AcDbLine
 10
29.283882
 20
22.737312
 30
0.0
 11
30.888391
 21
23.206071
 31
0.0
  0
LINE
  5
264
100
AcDbEntity
  8
16
100
AcDbLine
 10
29.283882
 20
22.737312
 30
0.0
 11
30.888391
 21
23.206071
 31
0.0
  0
LINE
  5
265
100
AcDbEntity
  8
16
100
AcDbLine
 10
29.283882
 20
21.987312
 30
0.0
 11
30.888391
 21
22.456071
 31
0.0
  0
LINE
  5
266
100
AcDbEntity
  8
16
100
AcDbLine
 10
28.35293
 20
22.260767
 30
0.0
 11
30.647011
 21
22.792162
 31
0.0
  0
LINE
  5
267
100
AcDbEntity
  8
16
100
AcDbLine
 10
28.35293
 20
24.639921
 30
0.0
 11
29.283882
 21
24.366466
 31
0.0
  0
LINE
  5
268
100
AcDbEntity
  8
16
100
AcDbLine
 10
28.35293
 20
24.639921
 30
0.0
 11
29.283882
 21
25.116466
 31
0.0
  0
LINE
  5
269
100
AcDbEntity
  8
16
100
AcDbLine
 10
28.35293
 20
24.639921
 30
0.0
 11
30.647011
 21
25.171316
 31
0.0
  0
LINE
  5
26A
100
AcDbEntity
  8
16
100
AcDbLine
 10
29.283882
 20
24.366466
 30
0.0
 11
30.888391
 21
24.835225
 31
0.0
  0
LINE
  5
26B
100
AcDbEntity
  8
16
100
AcDbLine
 10
29.283882
 20
25.116466
 30
0.0
 11
30.888391
 21
25.585225
 31
0.0
  0
LINE
  5
26C
100
AcDbEntity
  8
16
100
AcDbLine
 10
29.283882
 20
25.116466
 30
0.0
 11
30.888391
 21
25.585225
 31
0.0
  0
LINE
  5
26D
100
AcDbEntity
  8
16
100
AcDbLine
 10
28.35293
 20
24.639921
 30
0.0
 11
30.647011
 21
25.171316
 31
0.0
  0
LINE
  5
26E
100
AcDbEntity
  8
16
100
AcDbLine
 10
29.283882
 20
24.366466
 30
0.0
 11
30.888391
 21
24.835225
 31
0.0
  0
LINE
  5
26F
100
AcDbEntity
  8
16
100
AcDbLine
 10
29.283882
 20
20.116466
 30
0.0
 11
29.283882
 21
26.74562
 31
0.0
  0
LINE
  5
270
100
AcDbEntity
  8
16
100
AcDbLine
 10
28.35293
 20
27.019075
 30
0.0
 11
29.283882
 21
27.49562
 31
0.0
  0
LINE
  5
271
100
AcDbEntity
  8
16
100
AcDbLine
 10
28.35293
 20
27.019075
 30
0.0
 11
29.283882
 21
26.74562
 31
0.0
  0
LINE
  5
272
100
AcDbEntity
  8
16
100
AcDbLine
 10
29.283882
 20
26.74562
 30
0.0
 11
30.888391
 21
27.214379
 31
0.0
  0
LINE
  5
273
100
AcDbEntity
  8
16
100
AcDbLine
 10
28.35293
 20
27.019075
 30
0.0
 11
30.647011
 21
27.550471
 31
0.0
  0
LINE
  5
274
100
AcDbEntity
  8
16
100
AcDbLine
 10
29.283882
 20
27.49562
 30
0.0
 11
30.888391
 21
27.964379
 31
0.0
  0
LINE
  5
275
100
AcDbEntity
  8
16
100
AcDbLine
 10
29.283882
 20
27.49562
 30
0.0
 11
30.888391
 21
27.964379
 31
0.0
  0
LINE
  5
276
100
AcDbEntity
  8
16
100
AcDbLine
 10
28.35293
 20
27.019075
 30
0.0
 11
29.283882
 21
26.74562
 31
0.0
  0
LINE
  5
277
100
AcDbEntity
  8
16
100
AcDbLine
 10
29.283882
 20
26.74562
 30
0.0
 11
30.888391
 21
27.214379
 31
0.0
  0
LINE
  5
278
100
AcDbEntity
  8
16
100
AcDbLine
 10
28.35293
 20
27.019075
 30
0.0
 11
30.647011
 21
27.550471
 31
0.0
  0
LINE
  5
279
100
AcDbEntity
  8
16
100
AcDbLine
 10
28.35293
 20
27.019075
 30
0.0
 11
29.283882
 21
27.49562
 31
0.0
  0
LINE
  5
27A
100
AcDbEntity
  8
16
100
AcDbLine
 10
28.35293
 20
19.639921
 30
0.0
 11
29.283882
 21
19.366466
 31
0.0
  0
LINE
  5
27B
100
AcDbEntity
  8
16
100
AcDbLine
 10
28.35293
 20
19.639921
 30
0.0
 11
29.283882
 21
20.116466
 31
0.0
  0
LINE
  5
27C
100
AcDbEntity
  8
16
100
AcDbLine
 10
28.35293
 20
19.639921
 30
0.0
 11
30.647011
 21
20.171316
 31
0.0
  0
LINE
  5
27D
100
AcDbEntity
  8
16
100
AcDbLine
 10
30.829316
 20
19.782546
 30
0.0
 11
29.283882
 21
19.366466
 31
0.0
  0
LINE
  5
27E
100
AcDbEntity
  8
16
100
AcDbLine
 10
29.283882
 20
20.116466
 30
0.0
 11
30.829316
 21
20.567966
 31
0.0
  0
LINE
  5
27F
100
AcDbEntity
  8
16
100
AcDbLine
 10
28.35293
 20
17.260767
 30
0.0
 11
29.283882
 21
16.987312
 31
0.0
  0
LINE
  5
280
100
AcDbEntity
  8
16
100
AcDbLine
 10
28.35293
 20
17.260767
 30
0.0
 11
29.283882
 21
17.737312
 31
0.0
  0
LINE
  5
281
100
AcDbEntity
  8
16
100
AcDbLine
 10
29.283882
 20
16.987312
 30
0.0
 11
30.888391
 21
17.456071
 31
0.0
  0
LINE
  5
282
100
AcDbEntity
  8
16
100
AcDbLine
 10
28.35293
 20
17.260767
 30
0.0
 11
30.647011
 21
17.792162
 31
0.0
  0
LINE
  5
283
100
AcDbEntity
  8
16
100
AcDbLine
 10
29.283882
 20
17.737312
 30
0.0
 11
29.283882
 21
19.366466
 31
0.0
  0
LINE
  5
284
100
AcDbEntity
  8
16
100
AcDbLine
 10
29.283882
 20
17.737312
 30
0.0
 11
30.888391
 21
18.206071
 31
0.0
  0
LINE
  5
285
100
AcDbEntity
  8
16
100
AcDbLine
 10
28.950461
 20
18.893752
 30
0.0
 11
28.950461
 21
17.994378
 31
0.0
  0
LINE
  5
286
100
AcDbEntity
  8
16
100
AcDbLine
 10
21.303719
 20
36.317517
 30
0.0
 11
23.553719
 21
37.449121
 31
0.0
  0
LINE
  5
287
100
AcDbEntity
  8
16
100
AcDbLine
 10
21.303719
 20
35.067517
 30
0.0
 11
23.553719
 21
36.199121
 31
0.0
  0
LINE
  5
288
100
AcDbEntity
  8
16
100
AcDbLine
 10
29.283882
 20
34.633083
 30
0.0
 11
29.283882
 21
36.182538
 31
0.0
  0
LINE
  5
289
100
AcDbEntity
  8
16
100
AcDbLine
 10
28.35293
 20
34.156537
 30
0.0
 11
29.283882
 21
33.883083
 31
0.0
  0
LINE
  5
28A
100
AcDbEntity
  8
16
100
AcDbLine
 10
28.35293
 20
34.156537
 30
0.0
 11
29.283882
 21
34.633083
 31
0.0
  0
LINE
  5
28B
100
AcDbEntity
  8
16
100
AcDbLine
 10
29.283882
 20
33.883083
 30
0.0
 11
30.888391
 21
34.351842
 31
0.0
  0
LINE
  5
28C
100
AcDbEntity
  8
16
100
AcDbLine
 10
28.35293
 20
34.156537
 30
0.0
 11
30.647011
 21
34.687933
 31
0.0
  0
LINE
  5
28D
100
AcDbEntity
  8
16
100
AcDbLine
 10
29.283882
 20
34.633083
 30
0.0
 11
30.571375
 21
34.98979
 31
0.0
  0
LINE
  5
28E
100
AcDbEntity
  8
16
100
AcDbLine
 10
23.553719
 20
37.449121
 30
0.0
 11
30.895629
 21
37.449121
 31
0.0
  0
LINE
  5
28F
100
AcDbEntity
  8
16
100
AcDbLine
 10
23.553719
 20
36.199121
 30
0.0
 11
30.053719
 21
36.199121
 31
0.0
  0
ARC
  5
290
100
AcDbEntity
  8
16
100
AcDbCircle
 10
30.331295
 20
35.664997
 30
0.0
 40
3.789046
100
AcDbArc
 50
97.734596
 51
150.7239
  0
LINE
  5
291
100
AcDbEntity
  8
16
100
AcDbLine
 10
30.874848
 20
38.365223
 30
0.0
 11
30.874848
 21
39.419571
 31
0.0
  0
LINE
  5
292
100
AcDbEntity
  8
16
100
AcDbLine
 10
29.821348
 20
38.365223
 30
0.0
 11
30.874848
 21
38.365223
 31
0.0
  0
LINE
  5
293
100
AcDbEntity
  8
16
100
AcDbLine
 10
29.821348
 20
39.419571
 30
0.0
 11
29.821348
 21
38.365223
 31
0.0
  0
LINE
  5
294
100
AcDbEntity
  8
16
100
AcDbLine
 10
28.950461
 20
36.199121
 30
0.0
 11
28.950461
 21
34.897718
 31
0.0
  0
LINE
  5
295
100
AcDbEntity
  8
16
100
AcDbLine
 10
29.283882
 20
29.874774
 30
0.0
 11
29.283882
 21
31.503928
 31
0.0
  0
LINE
  5
296
100
AcDbEntity
  8
16
100
AcDbLine
 10
28.950461
 20
31.09322
 30
0.0
 11
28.950461
 21
30.322325
 31
0.0
  0
LINE
  5
297
100
AcDbEntity
  8
16
100
AcDbLine
 10
28.35293
 20
29.398229
 30
0.0
 11
29.283882
 21
29.124774
 31
0.0
  0
LINE
  5
298
100
AcDbEntity
  8
16
100
AcDbLine
 10
28.35293
 20
29.398229
 30
0.0
 11
29.283882
 21
29.874774
 31
0.0
  0
LINE
  5
299
100
AcDbEntity
  8
16
100
AcDbLine
 10
28.35293
 20
29.398229
 30
0.0
 11
30.647011
 21
29.929625
 31
0.0
  0
LINE
  5
29A
100
AcDbEntity
  8
16
100
AcDbLine
 10
29.283882
 20
29.874774
 30
0.0
 11
30.829316
 21
30.326275
 31
0.0
  0
LINE
  5
29B
100
AcDbEntity
  8
16
100
AcDbLine
 10
28.35293
 20
31.777383
 30
0.0
 11
29.283882
 21
31.503928
 31
0.0
  0
LINE
  5
29C
100
AcDbEntity
  8
16
100
AcDbLine
 10
28.35293
 20
31.777383
 30
0.0
 11
29.283882
 21
32.253928
 31
0.0
  0
LINE
  5
29D
100
AcDbEntity
  8
16
100
AcDbLine
 10
29.283882
 20
31.503928
 30
0.0
 11
30.888391
 21
31.972687
 31
0.0
  0
LINE
  5
29E
100
AcDbEntity
  8
16
100
AcDbLine
 10
28.35293
 20
31.777383
 30
0.0
 11
30.647011
 21
32.308779
 31
0.0
  0
LINE
  5
29F
100
AcDbEntity
  8
16
100
AcDbLine
 10
29.283882
 20
32.253928
 30
0.0
 11
30.888391
 21
32.722687
 31
0.0
  0
LINE
  5
2A0
100
AcDbEntity
  8
16
100
AcDbLine
 10
29.283882
 20
29.124774
 30
0.0
 11
30.888391
 21
29.593533
 31
0.0
  0
LINE
  5
2A1
100
AcDbEntity
  8
16
100
AcDbLine
 10
28.35293
 20
29.398229
 30
0.0
 11
30.647011
 21
29.929625
 31
0.0
  0
LINE
  5
2A2
100
AcDbEntity
  8
16
100
AcDbLine
 10
28.35293
 20
29.398229
 30
0.0
 11
29.283882
 21
29.124774
 31
0.0
  0
LINE
  5
2A3
100
AcDbEntity
  8
16
100
AcDbLine
 10
28.35293
 20
29.398229
 30
0.0
 11
29.283882
 21
29.874774
 31
0.0
  0
LINE
  5
2A4
100
AcDbEntity
  8
16
100
AcDbLine
 10
29.283882
 20
32.253928
 30
0.0
 11
29.283882
 21
33.883083
 31
0.0
  0
LINE
  5
2A5
100
AcDbEntity
  8
16
100
AcDbLine
 10
28.950461
 20
33.405895
 30
0.0
 11
28.950461
 21
32.592177
 31
0.0
  0
LINE
  5
2A6
100
AcDbEntity
  8
2
 62
     1
100
AcDbLine
 10
40.975647
 20
43.008935
 30
0.0
 11
42.975647
 21
43.008935
 31
0.0
  0
LINE
  5
2A8
100
AcDbEntity
  8
16
100
AcDbLine
 10
42.975647
 20
43.008935
 30
0.0
 11
40.975647
 21
45.008935
 31
0.0
  0
LWPOLYLINE
  5
2A9
100
AcDbEntity
  8
GLASMFOGNING
100
AcDbPolyline
 90
        4
 70
     1
 43
0.0
 10
57.0
 20
10.0
 10
57.0
 20
12.962305
 10
47.181243
 20
12.962305
 10
47.181243
 20
10.0
  0
INSERT
  5
2AA
100
AcDbEntity
  8
GLASMFOGNING
100
AcDbBlockReference
  2
*X6
 10
-1568.0
 20
-715.0
 30
0.0
1001
ACAD
1000
HATCH
1002
{
1070
    16
1000
ANSI38
1040
4.0
1040
0.0
1002
}
  0
INSERT
  5
2E6
100
AcDbEntity
  8
GLASMFOGNING
100
AcDbBlockReference
  2
*X11
 10
-1650.0
 20
-465.0
 30
0.0
1001
ACAD
1000
HATCH
1002
{
1070
    16
1000
AR-SAND
1040
1.0
1040
0.0
1002
}
  0
ARC
  5
308
100
AcDbEntity
  8
GLASMFOGNING
100
AcDbCircle
 10
69.038882
 20
4.177788
 30
0.0
 40
9.630082
100
AcDbArc
 50
113.636187
 51
159.81926
  0
LINE
  5
309
100
AcDbEntity
  8
DOT
100
AcDbLine
 10
87.0
 20
16.203704
 30
0.0
 11
87.0
 21
10.0
 31
0.0
  0
INSERT
  5
30A
100
AcDbEntity
  8
GLASMFOGNING
100
AcDbBlockReference
  2
*X5
 10
-1568.0
 20
-710.0
 30
0.0
1001
ACAD
1000
HATCH
1002
{
1070
    16
1000
ANSI38
1040
4.0
1040
0.0
1002
}
  0
LWPOLYLINE
  5
349
100
AcDbEntity
  8
GLASMFOGNING
100
AcDbPolyline
 90
        4
 70
     1
 43
0.0
 10
57.0
 20
38.0
 10
57.0
 20
35.037695
 10
47.181243
 20
35.037695
 10
47.181243
 20
38.0
  0
ARC
  5
34A
100
AcDbEntity
  8
GLASMFOGNING
100
AcDbCircle
 10
63.901744
 20
38.63045
 30
0.0
 40
3.951324
100
AcDbArc
 50
180.975164
 51
246.887732
  0
INSERT
  5
34B
100
AcDbEntity
  8
GLASMFOGNING
100
AcDbBlockReference
  2
*X9
 10
-1650.0
 20
-460.0
 30
0.0
1001
ACAD
1000
HATCH
1002
{
1070
    16
1000
AR-SAND
1040
1.0
1040
0.0
1002
}
  0
LINE
  5
360
100
AcDbEntity
  8
DOT
100
AcDbLine
 10
87.0
 20
30.092596
 30
0.0
 11
87.0
 21
26.018519
 31
0.0
  0
LINE
  5
361
100
AcDbEntity
  8
DOT
100
AcDbLine
 10
87.0
 20
19.351857
 30
0.0
 11
87.0
 21
17.870374
 31
0.0
  0
LINE
  5
362
100
AcDbEntity
  8
DOT
100
AcDbLine
 10
87.0
 20
33.611115
 30
0.0
 11
87.0
 21
32.500004
 31
0.0
  0
LINE
  5
363
100
AcDbEntity
  8
DOT
100
AcDbLine
 10
87.0
 20
40.0
 30
0.0
 11
87.0
 21
36.203709
 31
0.0
  0
ENDBLK
  5
365
100
AcDbEntity
  8
0
100
AcDbBlockEnd
  0
ENDSEC
  0
SECTION
  2
ENTITIES
  0
LWPOLYLINE
  5
1E
100
AcDbEntity
  8
RAM
100
AcDbPolyline
 90
        4
 70
     1
 43
0.0
 10
1670.0
 20
125.0
 10
1970.0
 20
125.0
 10
1970.0
 20
425.0
 10
1670.0
 20
425.0
  0
LINE
  5
1F
100
AcDbEntity
  8
RAM
100
AcDbLine
 10
1676.0
 20
225.0
 30
0.0
 11
1676.0
 21
131.0
 31
0.0
  0
LINE
  5
20
100
AcDbEntity
  8
RAM
100
AcDbLine
 10
1964.0
 20
131.0
 30
0.0
 11
1964.0
 21
225.0
 31
0.0
  0
LINE
  5
21
100
AcDbEntity
  8
RAM
100
AcDbLine
 10
1770.0
 20
225.0
 30
0.0
 11
1770.0
 21
131.0
 31
0.0
  0
LINE
  5
22
100
AcDbEntity
  8
RAM
100
AcDbLine
 10
1776.0
 20
225.0
 30
0.0
 11
1776.0
 21
131.0
 31
0.0
  0
LINE
  5
23
100
AcDbEntity
  8
RAM
100
AcDbLine
 10
1864.0
 20
225.0
 30
0.0
 11
1864.0
 21
131.0
 31
0.0
  0
LINE
  5
24
100
AcDbEntity
  8
RAM
100
AcDbLine
 10
1870.0
 20
225.0
 30
0.0
 11
1870.0
 21
131.0
 31
0.0
  0
INSERT
  5
25
100
AcDbEntity
  8
SPKONTUR
100
AcDbBlockReference
  2
SP6050
 10
1770.0
 20
10.0
 30
0.0
 50
180.0
  0
INSERT
  5
49
100
AcDbEntity
  8
GLASMFOGNING
100
AcDbBlockReference
  2
SP6000_6260_FASAD
 10
1770.0
 20
5.0
 30
0.0
 50
180.0
  0
INSERT
  5
163
100
AcDbEntity
  8
RAM
100
AcDbBlockReference
  2
GLAS22MM
 10
1770.0
 20
10.0
 30
0.0
 50
180.0
  0
LINE
  5
367
100
AcDbEntity
  8
RAM
100
AcDbLine
 10
1676.0
 20
131.0
 30
0.0
 11
1770.0
 21
131.0
 31
0.0
  0
LWPOLYLINE
  5
368
100
AcDbEntity
  8
16
100
AcDbPolyline
 90
       12
 70
     0
 43
0.0
 10
1609.024353
 20
-35.008935
 10
1612.024353
 20
-35.008935
 10
1612.024353
 20
-6.094807
 10
1616.95235
 20
-6.094807
 10
1616.95235
 20
-22.196819
 10
1619.124906
 20
-22.196819
 10
1619.124906
 20
-2.094807
 10
1616.524353
 20
-2.094807
 10
1619.22234
 20
10.634724
 42
0.645298
 10
1613.832168
 20
5.366437
 42
-0.405141
 10
1614.949229
 20
3.602249
 10
1614.636876
 20
1.102953
  0
HATCH
  5
369
100
AcDbEntity
  8
GLASMFOGNING
100
AcDbHatch
 10
0.0
 20
0.0
 30
0.0
210
0.0
220
0.0
230
1.0
  2
ANSI31
 70
     0
 71
     0
 91
        1
 92
        7
 72
     1
 73
     1
 93
       16
 10
1609.024352903383
 20
-33.00893537832251
 42
0.0
 10
1607.024352903383
 20
-33.00893537832251
 42
0.0
 10
1609.024352903383
 20
-35.00893537832252
 42
0.0
 10
1612.024352903383
 20
-35.00893537832252
 42
0.0
 10
1612.024352903383
 20
-6.094807449736606
 42
0.0
 10
1616.952349774329
 20
-6.094807449736606
 42
0.0
 10
1616.952349774329
 20
-22.19681933009582
 42
0.0
 10
1619.124906000425
 20
-22.19681933009582
 42
0.0
 10
1619.124906000425
 20
-2.094807449736606
 42
0.0
 10
1616.524352903383
 20
-2.094807449736606
 42
0.0
 10
1619.222339774335
 20
10.63472427921129
 42
0.6452980853851517
 10
1613.832167695846
 20
5.366437081274796
 42
-0.4051409009247286
 10
1614.949229177939
 20
3.602249340263369
 42
0.0
 10
1614.636875852462
 20
1.102953378541656
 42
-0.3550060014663849
 10
1613.169741455051
 20
-0.0911146465354023
 42
0.0
 10
1609.024352903383
 20
-0.0948074497366065
 42
0.0
 97
        0
 75
     0
 76
     1
 52
180.0
 41
4.0
 77
     0
 78
     1
 53
225.0
 43
1835.0
 44
-105.0
 45
0.3535533905932737
 46
-0.3535533905932739
 79
     0
 47
0.106117
 98
        1
 10
1610.0
 20
-5.0
  0
LWPOLYLINE
  5
36A
100
AcDbEntity
  8
16
100
AcDbPolyline
 90
        4
 70
     0
 43
0.0
 10
1609.024353
 20
-33.008935
 10
1609.024353
 20
-0.094807
 10
1613.169741
 20
-0.091115
 42
0.355006
 10
1614.636876
 20
1.102953
 42
0.355006
  0
LINE
  5
36B
100
AcDbEntity
  8
16
100
AcDbLine
 10
1622.952748
 20
-6.094807
 30
0.0
 11
1622.952748
 21
-26.199121
 31
0.0
  0
LWPOLYLINE
  5
36C
100
AcDbEntity
  8
RAM
100
AcDbPolyline
 90
        4
 70
     1
 43
0.0
 10
1590.528629
 20
-3.191957
 10
1590.528629
 20
-24.89233
 10
1607.694671
 20
-24.89233
 10
1607.694671
 20
-3.191957
  0
LINE
  5
36D
100
AcDbEntity
  8
RAM
100
AcDbLine
 10
1590.528629
 20
-24.89233
 30
0.0
 11
1607.694671
 21
-3.191957
 31
0.0
  0
LINE
  5
36E
100
AcDbEntity
  8
RAM
100
AcDbLine
 10
1590.528629
 20
-3.191957
 30
0.0
 11
1607.694671
 21
-24.89233
 31
0.0
  0
LINE
  5
36F
100
AcDbEntity
  8
16
100
AcDbLine
 10
1620.716118
 20
-23.883083
 30
0.0
 11
1619.111609
 21
-24.351842
 31
0.0
  0
LINE
  5
370
100
AcDbEntity
  8
16
100
AcDbLine
 10
1621.64707
 20
-24.156537
 30
0.0
 11
1620.716118
 21
-23.883083
 31
0.0
  0
LINE
  5
371
100
AcDbEntity
  8
GLASMFOGNING
100
AcDbLine
 10
1632.0
 20
-25.0
 30
0.0
 11
1632.0
 21
-3.0
 31
0.0
  0
LINE
  5
372
100
AcDbEntity
  8
GLASMFOGNING
100
AcDbLine
 10
1677.0
 20
-24.0
 30
0.0
 11
1632.0
 21
-24.0
 31
0.0
  0
LINE
  5
373
100
AcDbEntity
  8
GLASMFOGNING
100
AcDbLine
 10
1677.0
 20
-25.0
 30
0.0
 11
1632.0
 21
-25.0
 31
0.0
  0
INSERT
  5
374
100
AcDbEntity
  8
GLASMFOGNING
100
AcDbBlockReference
  2
SP6000_6260_FASAD
 10
1650.0
 20
5.0
 30
0.0
 50
180.0
  0
INSERT
  5
375
100
AcDbEntity
  8
GLASMFOGNING
100
AcDbBlockReference
  2
*X5
 10
3218.0
 20
720.0
 30
0.0
 50
180.0
1001
ACAD
1000
HATCH
1002
{
1070
    16
1000
ANSI38
1040
4.0
1040
0.0
1002
}
  0
LWPOLYLINE
  5
376
100
AcDbEntity
  8
GLASMFOGNING
100
AcDbPolyline
 90
        4
 70
     1
 43
0.0
 10
1593.0
 20
-28.0
 10
1593.0
 20
-25.037695
 10
1602.818757
 20
-25.037695
 10
1602.818757
 20
-28.0
  0
LINE
  5
377
100
AcDbEntity
  8
16
100
AcDbLine
 10
1607.024353
 20
-33.008935
 30
0.0
 11
1609.024353
 21
-35.008935
 31
0.0
  0
LINE
  5
378
100
AcDbEntity
  8
2
 62
     1
100
AcDbLine
 10
1609.024353
 20
-33.008935
 30
0.0
 11
1607.024353
 21
-33.008935
 31
0.0
  0
LINE
  5
379
100
AcDbEntity
  8
16
100
AcDbLine
 10
1637.181243
 20
-26.317517
 30
0.0
 11
1628.696281
 21
-26.317517
 31
0.0
  0
LINE
  5
37A
100
AcDbEntity
  8
16
100
AcDbLine
 10
1637.159018
 20
-25.067517
 30
0.0
 11
1628.696281
 21
-25.067517
 31
0.0
  0
LINE
  5
37B
100
AcDbEntity
  8
16
100
AcDbLine
 10
1626.446281
 20
-26.199121
 30
0.0
 11
1619.946281
 21
-26.199121
 31
0.0
  0
LINE
  5
37C
100
AcDbEntity
  8
16
100
AcDbLine
 10
1626.446281
 20
-27.449121
 30
0.0
 11
1619.104371
 21
-27.449121
 31
0.0
  0
LINE
  5
37D
100
AcDbEntity
  8
16
100
AcDbLine
 10
1621.049539
 20
-26.199121
 30
0.0
 11
1621.049539
 21
-24.897718
 31
0.0
  0
LINE
  5
37E
100
AcDbEntity
  8
16
100
AcDbLine
 10
1620.716118
 20
-24.633083
 30
0.0
 11
1620.716118
 21
-26.182538
 31
0.0
  0
LINE
  5
37F
100
AcDbEntity
  8
16
100
AcDbLine
 10
1620.716118
 20
-24.633083
 30
0.0
 11
1619.428625
 21
-24.98979
 31
0.0
  0
LINE
  5
380
100
AcDbEntity
  8
16
100
AcDbLine
 10
1620.178652
 20
-29.419571
 30
0.0
 11
1620.178652
 21
-28.365223
 31
0.0
  0
LINE
  5
381
100
AcDbEntity
  8
16
100
AcDbLine
 10
1621.64707
 20
-24.156537
 30
0.0
 11
1620.716118
 21
-24.633083
 31
0.0
  0
LINE
  5
382
100
AcDbEntity
  8
16
100
AcDbLine
 10
1621.64707
 20
-24.156537
 30
0.0
 11
1619.352989
 21
-24.687933
 31
0.0
  0
ARC
  5
383
100
AcDbEntity
  8
16
100
AcDbCircle
 10
1619.668705
 20
-25.664997
 30
0.0
 40
3.789046
100
AcDbArc
 50
277.734596
 51
330.7239
  0
LINE
  5
384
100
AcDbEntity
  8
16
100
AcDbLine
 10
1619.125152
 20
-28.365223
 30
0.0
 11
1619.125152
 21
-29.419571
 31
0.0
  0
LINE
  5
385
100
AcDbEntity
  8
16
100
AcDbLine
 10
1620.178652
 20
-28.365223
 30
0.0
 11
1619.125152
 21
-28.365223
 31
0.0
  0
LINE
  5
386
100
AcDbEntity
  8
16
100
AcDbLine
 10
1628.696281
 20
-26.317517
 30
0.0
 11
1626.446281
 21
-27.449121
 31
0.0
  0
LINE
  5
387
100
AcDbEntity
  8
16
100
AcDbLine
 10
1628.696281
 20
-25.067517
 30
0.0
 11
1626.446281
 21
-26.199121
 31
0.0
  0
INSERT
  5
388
100
AcDbEntity
  8
GLASMFOGNING
100
AcDbBlockReference
  2
*X8
 10
3300.0
 20
470.0
 30
0.0
 50
180.0
1001
ACAD
1000
HATCH
1002
{
1070
    16
1000
AR-SAND
1040
1.0
1040
0.0
1002
}
  0
INSERT
  5
389
100
AcDbEntity
  8
GLASMFOGNING
100
AcDbBlockReference
  2
*X4
 10
3222.0
 20
720.0
 30
0.0
 50
180.0
1001
ACAD
1000
HATCH
1002
{
1070
    16
1000
ANSI38
1040
4.0
1040
0.0
1002
}
  0
LWPOLYLINE
  5
38A
100
AcDbEntity
  8
GLASMFOGNING
100
AcDbPolyline
 90
        4
 70
     1
 43
0.0
 10
1647.0
 20
-28.0
 10
1647.0
 20
-25.037695
 10
1637.181243
 20
-25.037695
 10
1637.181243
 20
-28.0
  0
ARC
  5
38B
100
AcDbEntity
  8
GLASMFOGNING
100
AcDbCircle
 10
1655.33559
 20
-30.344837
 30
0.0
 40
5.583432
100
AcDbArc
 50
106.648466
 51
161.279125
  0
LINE
  5
38C
100
AcDbEntity
  8
DOT
100
AcDbLine
 10
1677.0
 20
-30.0
 30
0.0
 11
1677.0
 21
-26.574082
 31
0.0
  0
ARC
  5
38D
100
AcDbEntity
  8
16
100
AcDbCircle
 10
1466.651827
 20
32.862786
 30
0.0
 40
4.277045
100
AcDbArc
 50
252.51043
 51
21.343697
  0
LINE
  5
38E
100
AcDbEntity
  8
16
100
AcDbLine
 10
1457.905193
 20
31.475647
 30
0.0
 11
1470.634724
 21
34.423634
 31
0.0
  0
LINE
  5
38F
100
AcDbEntity
  8
16
 62
   143
100
AcDbLine
 10
1469.885677
 20
34.257234
 30
0.0
 11
1457.887745
 21
34.257234
 31
0.0
  0
LWPOLYLINE
  5
390
100
AcDbEntity
  8
16
 62
   143
100
AcDbPolyline
 90
        2
 70
     0
 43
0.0
 10
1457.905193
 20
35.957234
 10
1469.885677
 20
35.957234
  0
LINE
  5
391
100
AcDbEntity
  8
16
100
AcDbLine
 10
1457.905193
 20
38.475647
 30
0.0
 11
1470.634724
 21
35.77766
 31
0.0
  0
HATCH
  5
392
100
AcDbEntity
  8
GLASMFOGNING
100
AcDbHatch
 10
0.0
 20
0.0
 30
0.0
210
0.0
220
0.0
230
1.0
  2
ANSI31
 70
     0
 71
     0
 91
        1
 92
        7
 72
     1
 73
     1
 93
       16
 10
1426.991064621677
 20
45.97564709661628
 42
0.0
 10
1426.991064621677
 20
47.97564709661628
 42
0.0
 10
1424.991064621677
 20
45.97564709661628
 42
0.0
 10
1424.991064621677
 20
42.97564709661628
 42
0.0
 10
1453.905192550263
 20
42.97564709661628
 42
0.0
 10
1453.905192550263
 20
38.04765022567016
 42
0.0
 10
1437.803180669904
 20
38.04765022567016
 42
0.0
 10
1437.803180669904
 20
35.8750939995748
 42
0.0
 10
1457.905192550263
 20
35.8750939995748
 42
0.0
 10
1457.905192550263
 20
38.47564709661628
 42
0.0
 10
1470.634724279211
 20
35.77766022566493
 42
0.6452980853851517
 10
1465.366437081274
 20
41.16783230415308
 42
-0.4051409009247286
 10
1463.602249340263
 20
40.05077082206025
 42
0.0
 10
1461.102953378541
 20
40.36312414753729
 42
-0.3550060014663849
 10
1459.908885353464
 20
41.83025854494849
 42
0.0
 10
1459.905192550263
 20
45.97564709661628
 42
0.0
 97
        0
 75
     0
 76
     1
 52
90.0
 41
4.0
 77
     0
 78
     1
 53
135.0
 43
1355.0
 44
-180.0
 45
-0.3535533905932739
 46
-0.3535533905932736
 79
     0
 47
0.106117
 98
        1
 10
1455.0
 20
45.0
  0
LWPOLYLINE
  5
393
100
AcDbEntity
  8
16
100
AcDbPolyline
 90
       12
 70
     0
 43
0.0
 10
1424.991065
 20
45.975647
 10
1424.991065
 20
42.975647
 10
1453.905193
 20
42.975647
 10
1453.905193
 20
38.04765
 10
1437.803181
 20
38.04765
 10
1437.803181
 20
35.875094
 10
1457.905193
 20
35.875094
 10
1457.905193
 20
38.475647
 10
1470.634724
 20
35.77766
 42
0.645298
 10
1465.366437
 20
41.167832
 42
-0.405141
 10
1463.602249
 20
40.050771
 10
1461.102953
 20
40.363124
  0
INSERT
  5
394
100
AcDbEntity
  8
SPKONTUR
100
AcDbBlockReference
  2
SP6050
 10
1470.0
 20
5.0
 30
0.0
 50
90.0
  0
LINE
  5
395
100
AcDbEntity
  8
16
100
AcDbLine
 10
1457.905193
 20
34.975647
 30
0.0
 11
1457.905193
 21
38.475647
 31
0.0
  0
INSERT
  5
396
100
AcDbEntity
  8
GLASMFOGNING
100
AcDbBlockReference
  2
SP6000_6260_FASAD
 10
1465.0
 20
5.0
 30
0.0
 50
90.0
  0
LWPOLYLINE
  5
397
100
AcDbEntity
  8
RAM
100
AcDbPolyline
 90
        4
 70
     1
 43
0.0
 10
1456.808043
 20
22.356428
 10
1435.10767
 20
22.356428
 10
1435.10767
 20
5.190387
 10
1456.808043
 20
5.190387
  0
LINE
  5
398
100
AcDbEntity
  8
RAM
100
AcDbLine
 10
1435.10767
 20
22.356428
 30
0.0
 11
1456.808043
 21
5.190387
 31
0.0
  0
LINE
  5
399
100
AcDbEntity
  8
RAM
100
AcDbLine
 10
1456.808043
 20
22.356428
 30
0.0
 11
1435.10767
 21
5.190387
 31
0.0
  0
LINE
  5
39A
100
AcDbEntity
  8
16
100
AcDbLine
 10
1445.360079
 20
33.35293
 30
0.0
 11
1444.883534
 21
34.283882
 31
0.0
  0
LINE
  5
39B
100
AcDbEntity
  8
16
100
AcDbLine
 10
1445.360079
 20
33.35293
 30
0.0
 11
1444.828684
 21
35.647011
 31
0.0
  0
LINE
  5
39C
100
AcDbEntity
  8
16
100
AcDbLine
 10
1445.633534
 20
34.283882
 30
0.0
 11
1445.164775
 21
35.888391
 31
0.0
  0
LINE
  5
39D
100
AcDbEntity
  8
16
100
AcDbLine
 10
1445.360079
 20
33.35293
 30
0.0
 11
1444.828684
 21
35.647011
 31
0.0
  0
LINE
  5
39E
100
AcDbEntity
  8
16
100
AcDbLine
 10
1445.633534
 20
34.283882
 30
0.0
 11
1445.164775
 21
35.888391
 31
0.0
  0
LINE
  5
39F
100
AcDbEntity
  8
16
100
AcDbLine
 10
1449.883534
 20
34.283882
 30
0.0
 11
1443.25438
 21
34.283882
 31
0.0
  0
LINE
  5
3A0
100
AcDbEntity
  8
16
100
AcDbLine
 10
1453.905193
 20
32.047252
 30
0.0
 11
1433.800879
 21
32.047252
 31
0.0
  0
LINE
  5
3A1
100
AcDbEntity
  8
16
100
AcDbLine
 10
1433.682483
 20
17.818757
 30
0.0
 11
1433.682483
 21
26.303719
 31
0.0
  0
LINE
  5
3A2
100
AcDbEntity
  8
16
100
AcDbLine
 10
1434.932483
 20
17.840982
 30
0.0
 11
1434.932483
 21
26.303719
 31
0.0
  0
INSERT
  5
3A3
100
AcDbEntity
  8
GLASMFOGNING
100
AcDbBlockReference
  2
*X4
 10
2180.0
 20
-1567.0
 30
0.0
 50
90.0
1001
ACAD
1000
HATCH
1002
{
1070
    16
1000
ANSI38
1040
4.0
1040
0.0
1002
}
  0
LWPOLYLINE
  5
3A4
100
AcDbEntity
  8
GLASMFOGNING
100
AcDbPolyline
 90
        4
 70
     1
 43
0.0
 10
1432.0
 20
8.0
 10
1434.962305
 20
8.0
 10
1434.962305
 20
17.818757
 10
1432.0
 20
17.818757
  0
LINE
  5
3A5
100
AcDbEntity
  8
16
100
AcDbLine
 10
1433.682483
 20
26.303719
 30
0.0
 11
1432.550879
 21
28.553719
 31
0.0
  0
LINE
  5
3A6
100
AcDbEntity
  8
16
100
AcDbLine
 10
1432.550879
 20
28.553719
 30
0.0
 11
1432.550879
 21
35.895629
 31
0.0
  0
ARC
  5
3A7
100
AcDbEntity
  8
16
100
AcDbCircle
 10
1434.335003
 20
35.331295
 30
0.0
 40
3.789046
100
AcDbArc
 50
187.734596
 51
240.7239
  0
LINE
  5
3A8
100
AcDbEntity
  8
16
100
AcDbLine
 10
1431.634777
 20
35.874848
 30
0.0
 11
1430.580429
 21
35.874848
 31
0.0
  0
LINE
  5
3A9
100
AcDbEntity
  8
16
100
AcDbLine
 10
1431.634777
 20
34.821348
 30
0.0
 11
1431.634777
 21
35.874848
 31
0.0
  0
LINE
  5
3AA
100
AcDbEntity
  8
16
100
AcDbLine
 10
1430.580429
 20
34.821348
 30
0.0
 11
1431.634777
 21
34.821348
 31
0.0
  0
LINE
  5
3AB
100
AcDbEntity
  8
16
100
AcDbLine
 10
1441.34794
 20
33.950461
 30
0.0
 11
1442.247314
 21
33.950461
 31
0.0
  0
LINE
  5
3AC
100
AcDbEntity
  8
16
100
AcDbLine
 10
1441.352413
 20
33.950461
 30
0.0
 11
1442.166131
 21
33.950461
 31
0.0
  0
LINE
  5
3AD
100
AcDbEntity
  8
16
100
AcDbLine
 10
1442.50438
 20
34.283882
 30
0.0
 11
1440.875226
 21
34.283882
 31
0.0
  0
LINE
  5
3AE
100
AcDbEntity
  8
16
100
AcDbLine
 10
1443.636793
 20
33.950461
 30
0.0
 11
1444.536167
 21
33.950461
 31
0.0
  0
LINE
  5
3AF
100
AcDbEntity
  8
16
100
AcDbLine
 10
1444.883534
 20
34.283882
 30
0.0
 11
1444.414775
 21
35.888391
 31
0.0
  0
LINE
  5
3B0
100
AcDbEntity
  8
16
100
AcDbLine
 10
1444.883534
 20
34.283882
 30
0.0
 11
1444.414775
 21
35.888391
 31
0.0
  0
LINE
  5
3B1
100
AcDbEntity
  8
16
100
AcDbLine
 10
1442.980925
 20
33.35293
 30
0.0
 11
1442.50438
 21
34.283882
 31
0.0
  0
LINE
  5
3B2
100
AcDbEntity
  8
16
100
AcDbLine
 10
1442.980925
 20
33.35293
 30
0.0
 11
1443.25438
 21
34.283882
 31
0.0
  0
LINE
  5
3B3
100
AcDbEntity
  8
16
100
AcDbLine
 10
1443.25438
 20
34.283882
 30
0.0
 11
1442.785621
 21
35.888391
 31
0.0
  0
LINE
  5
3B4
100
AcDbEntity
  8
16
100
AcDbLine
 10
1442.980925
 20
33.35293
 30
0.0
 11
1442.449529
 21
35.647011
 31
0.0
  0
LINE
  5
3B5
100
AcDbEntity
  8
16
100
AcDbLine
 10
1442.50438
 20
34.283882
 30
0.0
 11
1442.035621
 21
35.888391
 31
0.0
  0
LINE
  5
3B6
100
AcDbEntity
  8
16
100
AcDbLine
 10
1442.50438
 20
34.283882
 30
0.0
 11
1442.035621
 21
35.888391
 31
0.0
  0
LINE
  5
3B7
100
AcDbEntity
  8
16
100
AcDbLine
 10
1442.980925
 20
33.35293
 30
0.0
 11
1443.25438
 21
34.283882
 31
0.0
  0
LINE
  5
3B8
100
AcDbEntity
  8
16
100
AcDbLine
 10
1443.25438
 20
34.283882
 30
0.0
 11
1442.785621
 21
35.888391
 31
0.0
  0
LINE
  5
3B9
100
AcDbEntity
  8
16
100
AcDbLine
 10
1442.980925
 20
33.35293
 30
0.0
 11
1442.449529
 21
35.647011
 31
0.0
  0
LINE
  5
3BA
100
AcDbEntity
  8
16
100
AcDbLine
 10
1442.980925
 20
33.35293
 30
0.0
 11
1442.50438
 21
34.283882
 31
0.0
  0
LINE
  5
3BB
100
AcDbEntity
  8
16
100
AcDbLine
 10
1438.90678
 20
33.950461
 30
0.0
 11
1439.677675
 21
33.950461
 31
0.0
  0
LINE
  5
3BC
100
AcDbEntity
  8
16
100
AcDbLine
 10
1440.601771
 20
33.35293
 30
0.0
 11
1440.875226
 21
34.283882
 31
0.0
  0
LINE
  5
3BD
100
AcDbEntity
  8
16
100
AcDbLine
 10
1440.601771
 20
33.35293
 30
0.0
 11
1440.125226
 21
34.283882
 31
0.0
  0
LINE
  5
3BE
100
AcDbEntity
  8
16
100
AcDbLine
 10
1440.601771
 20
33.35293
 30
0.0
 11
1440.070375
 21
35.647011
 31
0.0
  0
LINE
  5
3BF
100
AcDbEntity
  8
16
100
AcDbLine
 10
1440.125226
 20
34.283882
 30
0.0
 11
1439.673725
 21
35.829316
 31
0.0
  0
LINE
  5
3C0
100
AcDbEntity
  8
16
100
AcDbLine
 10
1440.875226
 20
34.283882
 30
0.0
 11
1440.406467
 21
35.888391
 31
0.0
  0
LINE
  5
3C1
100
AcDbEntity
  8
16
100
AcDbLine
 10
1440.601771
 20
33.35293
 30
0.0
 11
1440.070375
 21
35.647011
 31
0.0
  0
LINE
  5
3C2
100
AcDbEntity
  8
16
100
AcDbLine
 10
1440.601771
 20
33.35293
 30
0.0
 11
1440.875226
 21
34.283882
 31
0.0
  0
LINE
  5
3C3
100
AcDbEntity
  8
16
100
AcDbLine
 10
1440.601771
 20
33.35293
 30
0.0
 11
1440.125226
 21
34.283882
 31
0.0
  0
LINE
  5
3C4
100
AcDbEntity
  8
16
100
AcDbLine
 10
1434.932483
 20
26.303719
 30
0.0
 11
1433.800879
 21
28.553719
 31
0.0
  0
LINE
  5
3C5
100
AcDbEntity
  8
16
100
AcDbLine
 10
1435.366917
 20
34.283882
 30
0.0
 11
1433.817462
 21
34.283882
 31
0.0
  0
LINE
  5
3C6
100
AcDbEntity
  8
16
100
AcDbLine
 10
1435.843463
 20
33.35293
 30
0.0
 11
1436.116917
 21
34.283882
 31
0.0
  0
LINE
  5
3C7
100
AcDbEntity
  8
16
100
AcDbLine
 10
1435.843463
 20
33.35293
 30
0.0
 11
1435.366917
 21
34.283882
 31
0.0
  0
LINE
  5
3C8
100
AcDbEntity
  8
16
100
AcDbLine
 10
1436.116917
 20
34.283882
 30
0.0
 11
1435.648158
 21
35.888391
 31
0.0
  0
LINE
  5
3C9
100
AcDbEntity
  8
16
100
AcDbLine
 10
1435.843463
 20
33.35293
 30
0.0
 11
1435.312067
 21
35.647011
 31
0.0
  0
LINE
  5
3CA
100
AcDbEntity
  8
16
100
AcDbLine
 10
1435.366917
 20
34.283882
 30
0.0
 11
1435.01021
 21
35.571375
 31
0.0
  0
LINE
  5
3CB
100
AcDbEntity
  8
16
100
AcDbLine
 10
1433.800879
 20
28.553719
 30
0.0
 11
1433.800879
 21
35.053719
 31
0.0
  0
LINE
  5
3CC
100
AcDbEntity
  8
16
100
AcDbLine
 10
1433.800879
 20
33.950461
 30
0.0
 11
1435.102282
 21
33.950461
 31
0.0
  0
LINE
  5
3CD
100
AcDbEntity
  8
16
100
AcDbLine
 10
1438.222617
 20
33.35293
 30
0.0
 11
1438.496072
 21
34.283882
 31
0.0
  0
LINE
  5
3CE
100
AcDbEntity
  8
16
100
AcDbLine
 10
1438.222617
 20
33.35293
 30
0.0
 11
1437.746072
 21
34.283882
 31
0.0
  0
LINE
  5
3CF
100
AcDbEntity
  8
16
100
AcDbLine
 10
1438.496072
 20
34.283882
 30
0.0
 11
1438.027313
 21
35.888391
 31
0.0
  0
LINE
  5
3D0
100
AcDbEntity
  8
16
100
AcDbLine
 10
1438.222617
 20
33.35293
 30
0.0
 11
1437.691221
 21
35.647011
 31
0.0
  0
LINE
  5
3D1
100
AcDbEntity
  8
16
100
AcDbLine
 10
1437.746072
 20
34.283882
 30
0.0
 11
1437.277313
 21
35.888391
 31
0.0
  0
LINE
  5
3D2
100
AcDbEntity
  8
16
100
AcDbLine
 10
1437.746072
 20
34.283882
 30
0.0
 11
1436.116917
 21
34.283882
 31
0.0
  0
LINE
  5
3D3
100
AcDbEntity
  8
16
100
AcDbLine
 10
1436.594105
 20
33.950461
 30
0.0
 11
1437.407823
 21
33.950461
 31
0.0
  0
LINE
  5
3D4
100
AcDbEntity
  8
16
100
AcDbLine
 10
1440.125226
 20
34.283882
 30
0.0
 11
1438.496072
 21
34.283882
 31
0.0
  0
LWPOLYLINE
  5
3D5
100
AcDbEntity
  8
GLASMFOGNING
100
AcDbPolyline
 90
        4
 70
     1
 43
0.0
 10
1460.0
 20
8.0
 10
1457.037695
 20
8.0
 10
1457.037695
 20
17.818757
 10
1460.0
 20
17.818757
  0
INSERT
  5
3D6
100
AcDbEntity
  8
GLASMFOGNING
100
AcDbBlockReference
  2
*X3
 10
2185.0
 20
-1567.0
 30
0.0
 50
90.0
1001
ACAD
1000
HATCH
1002
{
1070
    16
1000
ANSI38
1040
4.0
1040
0.0
1002
}
  0
LINE
  5
3D7
100
AcDbEntity
  8
16
100
AcDbLine
 10
1453.905193
 20
23.975647
 30
0.0
 11
1459.905193
 21
23.975647
 31
0.0
  0
LINE
  5
3D8
100
AcDbEntity
  8
16
100
AcDbLine
 10
1453.905193
 20
23.975647
 30
0.0
 11
1459.905193
 21
23.975647
 31
0.0
  0
LINE
  5
3D9
100
AcDbEntity
  8
16
100
AcDbLine
 10
1454.641842
 20
34.283882
 30
0.0
 11
1453.012688
 21
34.283882
 31
0.0
  0
LINE
  5
3DA
100
AcDbEntity
  8
16
100
AcDbLine
 10
1453.16196
 20
33.950461
 30
0.0
 11
1453.905193
 21
33.950461
 31
0.0
  0
LINE
  5
3DB
100
AcDbEntity
  8
16
100
AcDbLine
 10
1453.905193
 20
23.975647
 30
0.0
 11
1453.905193
 21
33.950461
 31
0.0
  0
LINE
  5
3DC
100
AcDbEntity
  8
16
100
AcDbLine
 10
1453.905193
 20
23.975647
 30
0.0
 11
1453.905193
 21
33.950461
 31
0.0
  0
LINE
  5
3DD
100
AcDbEntity
  8
16
100
AcDbLine
 10
1455.118388
 20
33.35293
 30
0.0
 11
1454.641842
 21
34.283882
 31
0.0
  0
LINE
  5
3DE
100
AcDbEntity
  8
16
100
AcDbLine
 10
1455.391842
 20
34.283882
 30
0.0
 11
1454.923083
 21
35.888391
 31
0.0
  0
LINE
  5
3DF
100
AcDbEntity
  8
16
100
AcDbLine
 10
1455.118388
 20
33.35293
 30
0.0
 11
1454.586992
 21
35.647011
 31
0.0
  0
LINE
  5
3E0
100
AcDbEntity
  8
16
100
AcDbLine
 10
1455.118388
 20
33.35293
 30
0.0
 11
1455.391842
 21
34.283882
 31
0.0
  0
LINE
  5
3E1
100
AcDbEntity
  8
16
100
AcDbLine
 10
1455.391842
 20
34.283882
 30
0.0
 11
1456.151147
 21
35.411727
 31
0.0
  0
LINE
  5
3E2
100
AcDbEntity
  8
16
100
AcDbLine
 10
1454.641842
 20
34.283882
 30
0.0
 11
1454.173083
 21
35.888391
 31
0.0
  0
LINE
  5
3E3
100
AcDbEntity
  8
16
100
AcDbLine
 10
1452.739233
 20
33.35293
 30
0.0
 11
1453.012688
 21
34.283882
 31
0.0
  0
LINE
  5
3E4
100
AcDbEntity
  8
16
100
AcDbLine
 10
1452.739233
 20
33.35293
 30
0.0
 11
1452.262688
 21
34.283882
 31
0.0
  0
LINE
  5
3E5
100
AcDbEntity
  8
16
100
AcDbLine
 10
1453.012688
 20
34.283882
 30
0.0
 11
1452.543929
 21
35.888391
 31
0.0
  0
LINE
  5
3E6
100
AcDbEntity
  8
16
100
AcDbLine
 10
1452.739233
 20
33.35293
 30
0.0
 11
1452.207838
 21
35.647011
 31
0.0
  0
LINE
  5
3E7
100
AcDbEntity
  8
16
100
AcDbLine
 10
1452.262688
 20
34.283882
 30
0.0
 11
1451.793929
 21
35.888391
 31
0.0
  0
LINE
  5
3E8
100
AcDbEntity
  8
16
100
AcDbLine
 10
1451.106248
 20
33.950461
 30
0.0
 11
1452.005622
 21
33.950461
 31
0.0
  0
LINE
  5
3E9
100
AcDbEntity
  8
16
100
AcDbLine
 10
1448.518123
 20
33.950461
 30
0.0
 11
1449.417496
 21
33.950461
 31
0.0
  0
LINE
  5
3EA
100
AcDbEntity
  8
16
100
AcDbLine
 10
1445.925646
 20
33.950461
 30
0.0
 11
1446.82502
 21
33.950461
 31
0.0
  0
LINE
  5
3EB
100
AcDbEntity
  8
16
100
AcDbLine
 10
1447.739233
 20
33.35293
 30
0.0
 11
1447.262688
 21
34.283882
 31
0.0
  0
LINE
  5
3EC
100
AcDbEntity
  8
16
100
AcDbLine
 10
1447.739233
 20
33.35293
 30
0.0
 11
1448.012688
 21
34.283882
 31
0.0
  0
LINE
  5
3ED
100
AcDbEntity
  8
16
100
AcDbLine
 10
1448.012688
 20
34.283882
 30
0.0
 11
1447.543929
 21
35.888391
 31
0.0
  0
LINE
  5
3EE
100
AcDbEntity
  8
16
100
AcDbLine
 10
1447.739233
 20
33.35293
 30
0.0
 11
1447.207838
 21
35.647011
 31
0.0
  0
LINE
  5
3EF
100
AcDbEntity
  8
16
100
AcDbLine
 10
1447.262688
 20
34.283882
 30
0.0
 11
1446.793929
 21
35.888391
 31
0.0
  0
LINE
  5
3F0
100
AcDbEntity
  8
16
100
AcDbLine
 10
1447.262688
 20
34.283882
 30
0.0
 11
1446.793929
 21
35.888391
 31
0.0
  0
LINE
  5
3F1
100
AcDbEntity
  8
16
100
AcDbLine
 10
1448.012688
 20
34.283882
 30
0.0
 11
1447.543929
 21
35.888391
 31
0.0
  0
LINE
  5
3F2
100
AcDbEntity
  8
16
100
AcDbLine
 10
1447.739233
 20
33.35293
 30
0.0
 11
1447.207838
 21
35.647011
 31
0.0
  0
LINE
  5
3F3
100
AcDbEntity
  8
16
100
AcDbLine
 10
1445.360079
 20
33.35293
 30
0.0
 11
1445.633534
 21
34.283882
 31
0.0
  0
LINE
  5
3F4
100
AcDbEntity
  8
16
100
AcDbLine
 10
1450.360079
 20
33.35293
 30
0.0
 11
1450.633534
 21
34.283882
 31
0.0
  0
LINE
  5
3F5
100
AcDbEntity
  8
16
100
AcDbLine
 10
1450.360079
 20
33.35293
 30
0.0
 11
1449.883534
 21
34.283882
 31
0.0
  0
LINE
  5
3F6
100
AcDbEntity
  8
16
100
AcDbLine
 10
1450.360079
 20
33.35293
 30
0.0
 11
1449.828684
 21
35.647011
 31
0.0
  0
LINE
  5
3F7
100
AcDbEntity
  8
16
100
AcDbLine
 10
1450.217454
 20
35.829316
 30
0.0
 11
1450.633534
 21
34.283882
 31
0.0
  0
LINE
  5
3F8
100
AcDbEntity
  8
16
100
AcDbLine
 10
1449.883534
 20
34.283882
 30
0.0
 11
1449.432034
 21
35.829316
 31
0.0
  0
LINE
  5
3F9
100
AcDbEntity
  8
16
100
AcDbLine
 10
1452.262688
 20
34.283882
 30
0.0
 11
1450.633534
 21
34.283882
 31
0.0
  0
ARC
  5
3FA
100
AcDbEntity
  8
16
100
AcDbCircle
 10
1463.908181
 20
28.432053
 30
0.0
 40
1.5
100
AcDbArc
 50
13.548759
 51
101.768289
  0
LINE
  5
3FB
100
AcDbEntity
  8
16
100
AcDbLine
 10
1459.908885
 20
28.121036
 30
0.0
 11
1459.905193
 21
23.975647
 31
0.0
  0
ARC
  5
3FC
100
AcDbEntity
  8
16
100
AcDbCircle
 10
1461.408885
 20
28.119699
 30
0.0
 40
1.5
100
AcDbArc
 50
101.768289
 51
179.94896
  0
ARC
  5
3FD
100
AcDbEntity
  8
16
100
AcDbCircle
 10
1461.408885
 20
28.119699
 30
0.0
 40
1.5
100
AcDbArc
 50
101.768289
 51
179.94896
  0
LINE
  5
3FE
100
AcDbEntity
  8
16
100
AcDbLine
 10
1457.905193
 20
34.975647
 30
0.0
 11
1457.905193
 21
31.475647
 31
0.0
  0
LINE
  5
3FF
100
AcDbEntity
  8
16
100
AcDbLine
 10
1461.102953
 20
29.58817
 30
0.0
 11
1463.602249
 21
29.900523
 31
0.0
  0
LINE
  5
400
100
AcDbEntity
  8
GLASMFOGNING
100
AcDbLine
 10
1457.0
 20
92.0
 30
0.0
 11
1457.0
 21
47.0
 31
0.0
  0
LINE
  5
401
100
AcDbEntity
  8
GLASMFOGNING
100
AcDbLine
 10
1456.0
 20
92.0
 30
0.0
 11
1456.0
 21
47.0
 31
0.0
  0
LINE
  5
402
100
AcDbEntity
  8
GLASMFOGNING
100
AcDbLine
 10
1455.0
 20
92.0
 30
0.0
 11
1455.0
 21
47.0
 31
0.0
  0
LINE
  5
403
100
AcDbEntity
  8
GLASMFOGNING
100
AcDbLine
 10
1437.0
 20
92.0
 30
0.0
 11
1437.0
 21
47.0
 31
0.0
  0
LINE
  5
404
100
AcDbEntity
  8
GLASMFOGNING
100
AcDbLine
 10
1436.0
 20
92.0
 30
0.0
 11
1436.0
 21
47.0
 31
0.0
  0
LINE
  5
405
100
AcDbEntity
  8
GLASMFOGNING
100
AcDbLine
 10
1435.0
 20
92.0
 30
0.0
 11
1435.0
 21
47.0
 31
0.0
  0
INSERT
  5
406
100
AcDbEntity
  8
GLASMFOGNING
100
AcDbBlockReference
  2
*X11
 10
1935.0
 20
-1645.0
 30
0.0
 50
90.0
1001
ACAD
1000
HATCH
1002
{
1070
    16
1000
AR-SAND
1040
1.0
1040
0.0
1002
}
  0
ARC
  5
407
100
AcDbEntity
  8
GLASMFOGNING
100
AcDbCircle
 10
1465.822212
 20
74.038882
 30
0.0
 40
9.630082
100
AcDbArc
 50
203.636187
 51
249.81926
  0
ARC
  5
408
100
AcDbEntity
  8
GLASMFOGNING
100
AcDbCircle
 10
1431.36955
 20
68.901744
 30
0.0
 40
3.951324
100
AcDbArc
 50
270.975164
 51
336.887732
  0
LWPOLYLINE
  5
409
100
AcDbEntity
  8
16
100
AcDbPolyline
 90
        4
 70
     0
 43
0.0
 10
1426.991065
 20
45.975647
 10
1459.905193
 20
45.975647
 10
1459.908885
 20
41.830259
 42
0.355006
 10
1461.102953
 20
40.363124
 42
0.355006
  0
LINE
  5
40A
100
AcDbEntity
  8
GLASMFOGNING
100
AcDbLine
 10
1435.0
 20
47.0
 30
0.0
 11
1457.0
 21
47.0
 31
0.0
  0
LINE
  5
40B
100
AcDbEntity
  8
2
 62
     1
100
AcDbLine
 10
1426.991065
 20
45.975647
 30
0.0
 11
1426.991065
 21
47.975647
 31
0.0
  0
LINE
  5
40C
100
AcDbEntity
  8
16
100
AcDbLine
 10
1426.991065
 20
47.975647
 30
0.0
 11
1424.991065
 21
45.975647
 31
0.0
  0
INSERT
  5
40D
100
AcDbEntity
  8
GLASMFOGNING
100
AcDbBlockReference
  2
*X5
 10
2180.0
 20
-1563.0
 30
0.0
 50
90.0
1001
ACAD
1000
HATCH
1002
{
1070
    16
1000
ANSI38
1040
4.0
1040
0.0
1002
}
  0
LWPOLYLINE
  5
40E
100
AcDbEntity
  8
GLASMFOGNING
100
AcDbPolyline
 90
        4
 70
     1
 43
0.0
 10
1432.0
 20
62.0
 10
1434.962305
 20
62.0
 10
1434.962305
 20
52.181243
 10
1432.0
 20
52.181243
  0
INSERT
  5
40F
100
AcDbEntity
  8
GLASMFOGNING
100
AcDbBlockReference
  2
*X9
 10
1930.0
 20
-1645.0
 30
0.0
 50
90.0
1001
ACAD
1000
HATCH
1002
{
1070
    16
1000
AR-SAND
1040
1.0
1040
0.0
1002
}
  0
LINE
  5
410
100
AcDbEntity
  8
16
100
AcDbLine
 10
1453.905193
 20
42.975647
 30
0.0
 11
1453.905193
 21
38.04765
 31
0.0
  0
LWPOLYLINE
  5
411
100
AcDbEntity
  8
GLASMFOGNING
100
AcDbPolyline
 90
        4
 70
     1
 43
0.0
 10
1460.0
 20
62.0
 10
1457.037695
 20
62.0
 10
1457.037695
 20
52.181243
 10
1460.0
 20
52.181243
  0
INSERT
  5
412
100
AcDbEntity
  8
GLASMFOGNING
100
AcDbBlockReference
  2
*X6
 10
2185.0
 20
-1563.0
 30
0.0
 50
90.0
1001
ACAD
1000
HATCH
1002
{
1070
    16
1000
ANSI38
1040
4.0
1040
0.0
1002
}
  0
LINE
  5
413
100
AcDbEntity
  8
DOT
100
AcDbLine
 10
1430.0
 20
92.0
 30
0.0
 11
1433.796291
 21
92.0
 31
0.0
  0
LINE
  5
414
100
AcDbEntity
  8
DOT
100
AcDbLine
 10
1439.907404
 20
92.0
 30
0.0
 11
1443.981481
 21
92.0
 31
0.0
  0
LINE
  5
415
100
AcDbEntity
  8
DOT
100
AcDbLine
 10
1436.388885
 20
92.0
 30
0.0
 11
1437.499996
 21
92.0
 31
0.0
  0
LINE
  5
416
100
AcDbEntity
  8
DOT
100
AcDbLine
 10
1453.796296
 20
92.0
 30
0.0
 11
1460.0
 21
92.0
 31
0.0
  0
LINE
  5
417
100
AcDbEntity
  8
DOT
100
AcDbLine
 10
1450.648143
 20
92.0
 30
0.0
 11
1452.129626
 21
92.0
 31
0.0
  0
LINE
  5
418
100
AcDbEntity
  8
16
 62
   143
100
AcDbLine
 10
1470.935887
 20
34.257234
 30
0.0
 11
1470.935887
 21
35.957234
 31
0.0
  0
LINE
  5
419
100
AcDbEntity
  8
16
 62
   143
100
AcDbLine
 10
1471.396104
 20
34.505086
 30
0.0
 11
1471.396104
 21
35.713603
 31
0.0
  0
LINE
  5
41A
100
AcDbEntity
  8
16
 62
   143
100
AcDbLine
 10
1470.93177
 20
34.255015
 30
0.0
 11
1471.396104
 21
34.505086
 31
0.0
  0
LWPOLYLINE
  5
41B
100
AcDbEntity
  8
16
 62
   143
100
AcDbPolyline
 90
        2
 70
     0
 43
0.0
 10
1470.699309
 20
35.957234
 10
1470.957839
 20
35.957234
  0
TEXT
  5
41C
100
AcDbEntity
  8
TEXT
 62
     6
100
AcDbText
 10
1473.908187
 20
47.387288
 30
0.0
 40
5.0
  1
%%USP 6050
 41
0.8
  7
ROMANS
 72
     1
 11
1486.846282
 21
47.387288
 31
0.0
100
AcDbText
  0
INSERT
  5
41F
100
AcDbEntity
  8
SPKONTUR
100
AcDbBlockReference
  2
SP6050
 10
1470.0
 20
125.0
 30
0.0
 50
90.0
  0
INSERT
  5
420
100
AcDbEntity
  8
RAM
100
AcDbBlockReference
  2
GLAS22MM
 10
1470.0
 20
125.0
 30
0.0
 50
90.0
  0
INSERT
  5
421
100
AcDbEntity
  8
GLASMFOGNING
100
AcDbBlockReference
  2
SP6000_6260_FASAD
 10
1465.0
 20
125.0
 30
0.0
 50
90.0
  0
TEXT
  5
422
100
AcDbEntity
  8
TEXT
 62
     6
100
AcDbText
 10
1473.908187
 20
167.387288
 30
0.0
 40
5.0
  1
%%USP 6050
 41
0.8
  7
ROMANS
 72
     1
 11
1486.846282
 21
167.387288
 31
0.0
100
AcDbText
  0
LINE
  5
423
100
AcDbEntity
  8
GLASMFOGNING
100
AcDbLine
 10
1677.0
 20
-3.0
 30
0.0
 11
1632.0
 21
-3.0
 31
0.0
  0
LINE
  5
424
100
AcDbEntity
  8
GLASMFOGNING
100
AcDbLine
 10
1677.0
 20
-4.0
 30
0.0
 11
1632.0
 21
-4.0
 31
0.0
  0
LINE
  5
425
100
AcDbEntity
  8
GLASMFOGNING
100
AcDbLine
 10
1677.0
 20
-5.0
 30
0.0
 11
1632.0
 21
-5.0
 31
0.0
  0
LINE
  5
426
100
AcDbEntity
  8
GLASMFOGNING
100
AcDbLine
 10
1677.0
 20
-23.0
 30
0.0
 11
1632.0
 21
-23.0
 31
0.0
  0
INSERT
  5
427
100
AcDbEntity
  8
SPKONTUR
100
AcDbBlockReference
  2
SP6050
 10
1650.0
 20
10.0
 30
0.0
 50
180.0
  0
LINE
  5
428
100
AcDbEntity
  8
16
100
AcDbLine
 10
1612.024353
 20
-6.094807
 30
0.0
 11
1616.95235
 21
-6.094807
 31
0.0
  0
TEXT
  5
429
100
AcDbEntity
  8
TEXT
 62
     6
100
AcDbText
 10
1603.908187
 20
27.387288
 30
0.0
 40
5.0
  1
%%USP 6050
 41
0.8
  7
ROMANS
 72
     1
 11
1616.846282
 21
27.387288
 31
0.0
100
AcDbText
  0
LWPOLYLINE
  5
42A
100
AcDbEntity
  8
GLASMFOGNING
100
AcDbPolyline
 90
        4
 70
     1
 43
0.0
 10
1593.0
 20
0.0
 10
1593.0
 20
-2.962305
 10
1602.818757
 20
-2.962305
 10
1602.818757
 20
0.0
  0
INSERT
  5
42B
100
AcDbEntity
  8
GLASMFOGNING
100
AcDbBlockReference
  2
*X6
 10
3218.0
 20
725.0
 30
0.0
 50
180.0
1001
ACAD
1000
HATCH
1002
{
1070
    16
1000
ANSI38
1040
4.0
1040
0.0
1002
}
  0
ARC
  5
42C
100
AcDbEntity
  8
16
100
AcDbCircle
 10
1622.137214
 20
6.651827
 30
0.0
 40
4.277045
100
AcDbArc
 50
342.51043
 51
111.343697
  0
LINE
  5
42D
100
AcDbEntity
  8
16
100
AcDbLine
 10
1616.524353
 20
-2.094807
 30
0.0
 11
1619.22234
 21
10.634724
 31
0.0
  0
LINE
  5
42E
100
AcDbEntity
  8
16
 62
   143
100
AcDbLine
 10
1620.742766
 20
9.885677
 30
0.0
 11
1620.742766
 21
-2.112255
 31
0.0
  0
LWPOLYLINE
  5
42F
100
AcDbEntity
  8
16
 62
   143
100
AcDbPolyline
 90
        2
 70
     0
 43
0.0
 10
1619.042766
 20
-2.094807
 10
1619.042766
 20
9.885677
  0
LINE
  5
430
100
AcDbEntity
  8
16
100
AcDbLine
 10
1623.524353
 20
-2.094807
 30
0.0
 11
1620.576366
 21
10.634724
 31
0.0
  0
LINE
  5
431
100
AcDbEntity
  8
16
100
AcDbLine
 10
1620.716118
 20
-7.737312
 30
0.0
 11
1620.716118
 21
-9.366466
 31
0.0
  0
LINE
  5
432
100
AcDbEntity
  8
16
100
AcDbLine
 10
1620.716118
 20
-17.49562
 30
0.0
 11
1620.716118
 21
-19.124774
 31
0.0
  0
LINE
  5
433
100
AcDbEntity
  8
16
100
AcDbLine
 10
1621.049539
 20
-21.09322
 30
0.0
 11
1621.049539
 21
-20.322325
 31
0.0
  0
LINE
  5
434
100
AcDbEntity
  8
16
100
AcDbLine
 10
1621.049539
 20
-23.405895
 30
0.0
 11
1621.049539
 21
-22.592177
 31
0.0
  0
LINE
  5
435
100
AcDbEntity
  8
16
100
AcDbLine
 10
1620.716118
 20
-19.874774
 30
0.0
 11
1620.716118
 21
-21.503928
 31
0.0
  0
LINE
  5
436
100
AcDbEntity
  8
16
100
AcDbLine
 10
1620.716118
 20
-22.253928
 30
0.0
 11
1620.716118
 21
-23.883083
 31
0.0
  0
LINE
  5
437
100
AcDbEntity
  8
16
100
AcDbLine
 10
1621.64707
 20
-19.398229
 30
0.0
 11
1620.716118
 21
-19.124774
 31
0.0
  0
LINE
  5
438
100
AcDbEntity
  8
16
100
AcDbLine
 10
1621.64707
 20
-19.398229
 30
0.0
 11
1620.716118
 21
-19.874774
 31
0.0
  0
LINE
  5
439
100
AcDbEntity
  8
16
100
AcDbLine
 10
1621.64707
 20
-19.398229
 30
0.0
 11
1619.352989
 21
-19.929625
 31
0.0
  0
LINE
  5
43A
100
AcDbEntity
  8
16
100
AcDbLine
 10
1621.64707
 20
-21.777383
 30
0.0
 11
1620.716118
 21
-21.503928
 31
0.0
  0
LINE
  5
43B
100
AcDbEntity
  8
16
100
AcDbLine
 10
1621.64707
 20
-21.777383
 30
0.0
 11
1620.716118
 21
-22.253928
 31
0.0
  0
LINE
  5
43C
100
AcDbEntity
  8
16
100
AcDbLine
 10
1621.64707
 20
-21.777383
 30
0.0
 11
1619.352989
 21
-22.308779
 31
0.0
  0
LINE
  5
43D
100
AcDbEntity
  8
16
100
AcDbLine
 10
1621.64707
 20
-19.398229
 30
0.0
 11
1619.352989
 21
-19.929625
 31
0.0
  0
LINE
  5
43E
100
AcDbEntity
  8
16
100
AcDbLine
 10
1621.64707
 20
-19.398229
 30
0.0
 11
1620.716118
 21
-19.124774
 31
0.0
  0
LINE
  5
43F
100
AcDbEntity
  8
16
100
AcDbLine
 10
1621.64707
 20
-19.398229
 30
0.0
 11
1620.716118
 21
-19.874774
 31
0.0
  0
LINE
  5
440
100
AcDbEntity
  8
16
100
AcDbLine
 10
1621.049539
 20
-18.65206
 30
0.0
 11
1621.049539
 21
-17.752686
 31
0.0
  0
LINE
  5
441
100
AcDbEntity
  8
16
100
AcDbLine
 10
1621.049539
 20
-18.647587
 30
0.0
 11
1621.049539
 21
-17.833869
 31
0.0
  0
LINE
  5
442
100
AcDbEntity
  8
16
100
AcDbLine
 10
1621.049539
 20
-11.481877
 30
0.0
 11
1621.049539
 21
-10.582504
 31
0.0
  0
LINE
  5
443
100
AcDbEntity
  8
16
100
AcDbLine
 10
1621.049539
 20
-14.074354
 30
0.0
 11
1621.049539
 21
-13.17498
 31
0.0
  0
LINE
  5
444
100
AcDbEntity
  8
16
100
AcDbLine
 10
1621.049539
 20
-16.363207
 30
0.0
 11
1621.049539
 21
-15.463833
 31
0.0
  0
LINE
  5
445
100
AcDbEntity
  8
16
100
AcDbLine
 10
1620.716118
 20
-10.116466
 30
0.0
 11
1620.716118
 21
-16.74562
 31
0.0
  0
LINE
  5
446
100
AcDbEntity
  8
16
100
AcDbLine
 10
1621.64707
 20
-12.260767
 30
0.0
 11
1620.716118
 21
-12.737312
 31
0.0
  0
LINE
  5
447
100
AcDbEntity
  8
16
100
AcDbLine
 10
1621.64707
 20
-12.260767
 30
0.0
 11
1620.716118
 21
-11.987312
 31
0.0
  0
LINE
  5
448
100
AcDbEntity
  8
16
100
AcDbLine
 10
1621.64707
 20
-12.260767
 30
0.0
 11
1619.352989
 21
-12.792162
 31
0.0
  0
LINE
  5
449
100
AcDbEntity
  8
16
100
AcDbLine
 10
1621.64707
 20
-12.260767
 30
0.0
 11
1619.352989
 21
-12.792162
 31
0.0
  0
LINE
  5
44A
100
AcDbEntity
  8
16
100
AcDbLine
 10
1621.64707
 20
-14.639921
 30
0.0
 11
1620.716118
 21
-14.366466
 31
0.0
  0
LINE
  5
44B
100
AcDbEntity
  8
16
100
AcDbLine
 10
1621.64707
 20
-14.639921
 30
0.0
 11
1620.716118
 21
-15.116466
 31
0.0
  0
LINE
  5
44C
100
AcDbEntity
  8
16
100
AcDbLine
 10
1621.64707
 20
-14.639921
 30
0.0
 11
1619.352989
 21
-15.171316
 31
0.0
  0
LINE
  5
44D
100
AcDbEntity
  8
16
100
AcDbLine
 10
1621.64707
 20
-14.639921
 30
0.0
 11
1619.352989
 21
-15.171316
 31
0.0
  0
LINE
  5
44E
100
AcDbEntity
  8
16
100
AcDbLine
 10
1621.64707
 20
-17.019075
 30
0.0
 11
1620.716118
 21
-17.49562
 31
0.0
  0
LINE
  5
44F
100
AcDbEntity
  8
16
100
AcDbLine
 10
1621.64707
 20
-17.019075
 30
0.0
 11
1620.716118
 21
-16.74562
 31
0.0
  0
LINE
  5
450
100
AcDbEntity
  8
16
100
AcDbLine
 10
1621.64707
 20
-17.019075
 30
0.0
 11
1619.352989
 21
-17.550471
 31
0.0
  0
LINE
  5
451
100
AcDbEntity
  8
16
100
AcDbLine
 10
1621.64707
 20
-17.019075
 30
0.0
 11
1620.716118
 21
-16.74562
 31
0.0
  0
LINE
  5
452
100
AcDbEntity
  8
16
100
AcDbLine
 10
1621.64707
 20
-17.019075
 30
0.0
 11
1619.352989
 21
-17.550471
 31
0.0
  0
LINE
  5
453
100
AcDbEntity
  8
16
100
AcDbLine
 10
1621.64707
 20
-17.019075
 30
0.0
 11
1620.716118
 21
-17.49562
 31
0.0
  0
LINE
  5
454
100
AcDbEntity
  8
16
100
AcDbLine
 10
1621.64707
 20
-9.639921
 30
0.0
 11
1620.716118
 21
-9.366466
 31
0.0
  0
LINE
  5
455
100
AcDbEntity
  8
16
100
AcDbLine
 10
1621.64707
 20
-9.639921
 30
0.0
 11
1620.716118
 21
-10.116466
 31
0.0
  0
LINE
  5
456
100
AcDbEntity
  8
16
100
AcDbLine
 10
1621.64707
 20
-9.639921
 30
0.0
 11
1619.352989
 21
-10.171316
 31
0.0
  0
LINE
  5
457
100
AcDbEntity
  8
16
100
AcDbLine
 10
1620.716118
 20
-19.874774
 30
0.0
 11
1619.170684
 21
-20.326275
 31
0.0
  0
LINE
  5
458
100
AcDbEntity
  8
16
100
AcDbLine
 10
1620.716118
 20
-21.503928
 30
0.0
 11
1619.111609
 21
-21.972687
 31
0.0
  0
LINE
  5
459
100
AcDbEntity
  8
16
100
AcDbLine
 10
1620.716118
 20
-22.253928
 30
0.0
 11
1619.111609
 21
-22.722687
 31
0.0
  0
LINE
  5
45A
100
AcDbEntity
  8
16
100
AcDbLine
 10
1620.716118
 20
-19.124774
 30
0.0
 11
1619.111609
 21
-19.593533
 31
0.0
  0
LINE
  5
45B
100
AcDbEntity
  8
16
100
AcDbLine
 10
1620.716118
 20
-11.987312
 30
0.0
 11
1619.111609
 21
-12.456071
 31
0.0
  0
LINE
  5
45C
100
AcDbEntity
  8
16
100
AcDbLine
 10
1620.716118
 20
-12.737312
 30
0.0
 11
1619.111609
 21
-13.206071
 31
0.0
  0
LINE
  5
45D
100
AcDbEntity
  8
16
100
AcDbLine
 10
1620.716118
 20
-12.737312
 30
0.0
 11
1619.111609
 21
-13.206071
 31
0.0
  0
LINE
  5
45E
100
AcDbEntity
  8
16
100
AcDbLine
 10
1620.716118
 20
-11.987312
 30
0.0
 11
1619.111609
 21
-12.456071
 31
0.0
  0
LINE
  5
45F
100
AcDbEntity
  8
16
100
AcDbLine
 10
1620.716118
 20
-14.366466
 30
0.0
 11
1619.111609
 21
-14.835225
 31
0.0
  0
LINE
  5
460
100
AcDbEntity
  8
16
100
AcDbLine
 10
1620.716118
 20
-15.116466
 30
0.0
 11
1619.111609
 21
-15.585225
 31
0.0
  0
LINE
  5
461
100
AcDbEntity
  8
16
100
AcDbLine
 10
1620.716118
 20
-15.116466
 30
0.0
 11
1619.111609
 21
-15.585225
 31
0.0
  0
LINE
  5
462
100
AcDbEntity
  8
16
100
AcDbLine
 10
1620.716118
 20
-14.366466
 30
0.0
 11
1619.111609
 21
-14.835225
 31
0.0
  0
LINE
  5
463
100
AcDbEntity
  8
16
100
AcDbLine
 10
1620.716118
 20
-16.74562
 30
0.0
 11
1619.111609
 21
-17.214379
 31
0.0
  0
LINE
  5
464
100
AcDbEntity
  8
16
100
AcDbLine
 10
1620.716118
 20
-17.49562
 30
0.0
 11
1619.111609
 21
-17.964379
 31
0.0
  0
LINE
  5
465
100
AcDbEntity
  8
16
100
AcDbLine
 10
1620.716118
 20
-17.49562
 30
0.0
 11
1619.111609
 21
-17.964379
 31
0.0
  0
LINE
  5
466
100
AcDbEntity
  8
16
100
AcDbLine
 10
1620.716118
 20
-16.74562
 30
0.0
 11
1619.111609
 21
-17.214379
 31
0.0
  0
LINE
  5
467
100
AcDbEntity
  8
16
100
AcDbLine
 10
1619.170684
 20
-9.782546
 30
0.0
 11
1620.716118
 21
-9.366466
 31
0.0
  0
LINE
  5
468
100
AcDbEntity
  8
16
100
AcDbLine
 10
1620.716118
 20
-10.116466
 30
0.0
 11
1619.170684
 21
-10.567966
 31
0.0
  0
LINE
  5
469
100
AcDbEntity
  8
16
100
AcDbLine
 10
1631.024353
 20
-6.094807
 30
0.0
 11
1621.049539
 21
-6.094807
 31
0.0
  0
LINE
  5
46A
100
AcDbEntity
  8
16
100
AcDbLine
 10
1631.024353
 20
-6.094807
 30
0.0
 11
1621.049539
 21
-6.094807
 31
0.0
  0
LINE
  5
46B
100
AcDbEntity
  8
16
100
AcDbLine
 10
1620.716118
 20
-4.608158
 30
0.0
 11
1619.588273
 21
-3.848853
 31
0.0
  0
LINE
  5
46C
100
AcDbEntity
  8
16
100
AcDbLine
 10
1621.049539
 20
-6.83804
 30
0.0
 11
1621.049539
 21
-6.094807
 31
0.0
  0
LINE
  5
46D
100
AcDbEntity
  8
16
100
AcDbLine
 10
1621.049539
 20
-8.893752
 30
0.0
 11
1621.049539
 21
-7.994378
 31
0.0
  0
LINE
  5
46E
100
AcDbEntity
  8
16
100
AcDbLine
 10
1620.716118
 20
-5.358158
 30
0.0
 11
1620.716118
 21
-6.987312
 31
0.0
  0
LINE
  5
46F
100
AcDbEntity
  8
16
100
AcDbLine
 10
1621.64707
 20
-4.881612
 30
0.0
 11
1620.716118
 21
-5.358158
 31
0.0
  0
LINE
  5
470
100
AcDbEntity
  8
16
100
AcDbLine
 10
1621.64707
 20
-4.881612
 30
0.0
 11
1619.352989
 21
-5.413008
 31
0.0
  0
LINE
  5
471
100
AcDbEntity
  8
16
100
AcDbLine
 10
1621.64707
 20
-4.881612
 30
0.0
 11
1620.716118
 21
-4.608158
 31
0.0
  0
LINE
  5
472
100
AcDbEntity
  8
16
100
AcDbLine
 10
1621.64707
 20
-7.260767
 30
0.0
 11
1620.716118
 21
-6.987312
 31
0.0
  0
LINE
  5
473
100
AcDbEntity
  8
16
100
AcDbLine
 10
1621.64707
 20
-7.260767
 30
0.0
 11
1620.716118
 21
-7.737312
 31
0.0
  0
LINE
  5
474
100
AcDbEntity
  8
16
100
AcDbLine
 10
1621.64707
 20
-7.260767
 30
0.0
 11
1619.352989
 21
-7.792162
 31
0.0
  0
LINE
  5
475
100
AcDbEntity
  8
16
100
AcDbLine
 10
1620.024353
 20
-2.094807
 30
0.0
 11
1623.524353
 21
-2.094807
 31
0.0
  0
LINE
  5
476
100
AcDbEntity
  8
16
100
AcDbLine
 10
1620.716118
 20
-4.608158
 30
0.0
 11
1619.111609
 21
-5.076917
 31
0.0
  0
LINE
  5
477
100
AcDbEntity
  8
16
100
AcDbLine
 10
1620.716118
 20
-5.358158
 30
0.0
 11
1619.111609
 21
-5.826917
 31
0.0
  0
LINE
  5
478
100
AcDbEntity
  8
16
100
AcDbLine
 10
1620.716118
 20
-6.987312
 30
0.0
 11
1619.111609
 21
-7.456071
 31
0.0
  0
LINE
  5
479
100
AcDbEntity
  8
16
100
AcDbLine
 10
1620.716118
 20
-7.737312
 30
0.0
 11
1619.111609
 21
-8.206071
 31
0.0
  0
LINE
  5
47A
100
AcDbEntity
  8
16
100
AcDbLine
 10
1620.024353
 20
-2.094807
 30
0.0
 11
1616.524353
 21
-2.094807
 31
0.0
  0
LINE
  5
47B
100
AcDbEntity
  8
16
100
AcDbLine
 10
1626.878964
 20
-0.091115
 30
0.0
 11
1631.024353
 21
-0.094807
 31
0.0
  0
ARC
  5
47C
100
AcDbEntity
  8
16
100
AcDbCircle
 10
1626.567947
 20
3.908181
 30
0.0
 40
1.5
100
AcDbArc
 50
103.548759
 51
191.768289
  0
LINE
  5
47D
100
AcDbEntity
  8
16
100
AcDbLine
 10
1625.41183
 20
1.102953
 30
0.0
 11
1625.099477
 21
3.602249
 31
0.0
  0
ARC
  5
47E
100
AcDbEntity
  8
16
100
AcDbCircle
 10
1626.880301
 20
1.408885
 30
0.0
 40
1.5
100
AcDbArc
 50
191.768289
 51
269.94896
  0
ARC
  5
47F
100
AcDbEntity
  8
16
100
AcDbCircle
 10
1626.880301
 20
1.408885
 30
0.0
 40
1.5
100
AcDbArc
 50
191.768289
 51
269.94896
  0
LINE
  5
480
100
AcDbEntity
  8
16
100
AcDbLine
 10
1631.024353
 20
-6.094807
 30
0.0
 11
1631.024353
 21
-0.094807
 31
0.0
  0
LINE
  5
481
100
AcDbEntity
  8
16
100
AcDbLine
 10
1631.024353
 20
-6.094807
 30
0.0
 11
1631.024353
 21
-0.094807
 31
0.0
  0
INSERT
  5
482
100
AcDbEntity
  8
GLASMFOGNING
100
AcDbBlockReference
  2
*X10
 10
3300.0
 20
475.0
 30
0.0
 50
180.0
1001
ACAD
1000
HATCH
1002
{
1070
    16
1000
AR-SAND
1040
1.0
1040
0.0
1002
}
  0
LWPOLYLINE
  5
483
100
AcDbEntity
  8
GLASMFOGNING
100
AcDbPolyline
 90
        4
 70
     1
 43
0.0
 10
1647.0
 20
0.0
 10
1647.0
 20
-2.962305
 10
1637.181243
 20
-2.962305
 10
1637.181243
 20
0.0
  0
INSERT
  5
484
100
AcDbEntity
  8
GLASMFOGNING
100
AcDbBlockReference
  2
*X3
 10
3222.0
 20
725.0
 30
0.0
 50
180.0
1001
ACAD
1000
HATCH
1002
{
1070
    16
1000
ANSI38
1040
4.0
1040
0.0
1002
}
  0
ARC
  5
485
100
AcDbEntity
  8
GLASMFOGNING
100
AcDbCircle
 10
1657.551544
 20
3.604531
 30
0.0
 40
7.631893
100
AcDbArc
 50
188.321393
 51
239.871875
  0
LINE
  5
486
100
AcDbEntity
  8
16
 62
   143
100
AcDbLine
 10
1620.744985
 20
10.93177
 30
0.0
 11
1620.494914
 21
11.396104
 31
0.0
  0
LINE
  5
487
100
AcDbEntity
  8
16
 62
   143
100
AcDbLine
 10
1620.494914
 20
11.396104
 30
0.0
 11
1619.286397
 21
11.396104
 31
0.0
  0
LWPOLYLINE
  5
488
100
AcDbEntity
  8
16
 62
   143
100
AcDbPolyline
 90
        2
 70
     0
 43
0.0
 10
1619.042766
 20
10.699309
 10
1619.042766
 20
10.957839
  0
LINE
  5
489
100
AcDbEntity
  8
16
 62
   143
100
AcDbLine
 10
1620.742766
 20
10.935887
 30
0.0
 11
1619.042766
 21
10.935887
 31
0.0
  0
LINE
  5
48A
100
AcDbEntity
  8
DOT
100
AcDbLine
 10
1677.0
 20
-19.90741
 30
0.0
 11
1677.0
 21
-16.018519
 31
0.0
  0
LINE
  5
48B
100
AcDbEntity
  8
DOT
100
AcDbLine
 10
1677.0
 20
-22.314817
 30
0.0
 11
1677.0
 21
-22.129631
 31
0.0
  0
LINE
  5
48C
100
AcDbEntity
  8
DOT
100
AcDbLine
 10
1677.0
 20
-23.796301
 30
0.0
 11
1677.0
 21
-22.314817
 31
0.0
  0
LINE
  5
48D
100
AcDbEntity
  8
DOT
100
AcDbLine
 10
1677.0
 20
-6.018517
 30
0.0
 11
1677.0
 21
0.0
 31
0.0
  0
LINE
  5
48E
100
AcDbEntity
  8
DOT
100
AcDbLine
 10
1677.0
 20
-8.796298
 30
0.0
 11
1677.0
 21
-7.500001
 31
0.0
  0
TEXT
  5
48F
100
AcDbEntity
  8
TEXT
 62
     6
100
AcDbText
 10
1723.908187
 20
27.387288
 30
0.0
 40
5.0
  1
%%USP 6050
 41
0.8
  7
ROMANS
 72
     1
 11
1736.846282
 21
27.387288
 31
0.0
100
AcDbText
  0
LWPOLYLINE
  5
490
100
AcDbEntity
  8
16
100
AcDbPolyline
 90
       12
 70
     0
 43
0.0
 10
1969.024353
 20
-35.008935
 10
1972.024353
 20
-35.008935
 10
1972.024353
 20
-6.094807
 10
1976.95235
 20
-6.094807
 10
1976.95235
 20
-22.196819
 10
1979.124906
 20
-22.196819
 10
1979.124906
 20
-2.094807
 10
1976.524353
 20
-2.094807
 10
1979.22234
 20
10.634724
 42
0.645298
 10
1973.832168
 20
5.366437
 42
-0.405141
 10
1974.949229
 20
3.602249
 10
1974.636876
 20
1.102953
  0
INSERT
  5
491
100
AcDbEntity
  8
RAM
100
AcDbBlockReference
  2
GLAS22MM
 10
1890.0
 20
10.0
 30
0.0
 50
180.0
  0
LINE
  5
492
100
AcDbEntity
  8
RAM
100
AcDbLine
 10
1992.643572
 20
-3.191957
 30
0.0
 11
2009.809613
 21
-24.89233
 31
0.0
  0
LINE
  5
493
100
AcDbEntity
  8
RAM
100
AcDbLine
 10
1992.643572
 20
-24.89233
 30
0.0
 11
2009.809613
 21
-3.191957
 31
0.0
  0
LWPOLYLINE
  5
494
100
AcDbEntity
  8
RAM
100
AcDbPolyline
 90
        4
 70
     1
 43
0.0
 10
1992.643572
 20
-3.191957
 10
1992.643572
 20
-24.89233
 10
2009.809613
 20
-24.89233
 10
2009.809613
 20
-3.191957
  0
HATCH
  5
495
100
AcDbEntity
  8
GLASMFOGNING
100
AcDbHatch
 10
0.0
 20
0.0
 30
0.0
210
0.0
220
0.0
230
1.0
  2
ANSI31
 70
     0
 71
     0
 91
        1
 92
        7
 72
     1
 73
     1
 93
       16
 10
1969.024352903383
 20
-33.00893537832251
 42
0.0
 10
1967.024352903383
 20
-33.00893537832251
 42
0.0
 10
1969.024352903383
 20
-35.00893537832252
 42
0.0
 10
1972.024352903383
 20
-35.00893537832252
 42
0.0
 10
1972.024352903383
 20
-6.094807449736606
 42
0.0
 10
1976.95234977433
 20
-6.094807449736606
 42
0.0
 10
1976.95234977433
 20
-22.19681933009582
 42
0.0
 10
1979.124906000425
 20
-22.19681933009582
 42
0.0
 10
1979.124906000425
 20
-2.094807449736606
 42
0.0
 10
1976.524352903384
 20
-2.094807449736606
 42
0.0
 10
1979.222339774335
 20
10.63472427921129
 42
0.6452980853851517
 10
1973.832167695846
 20
5.366437081274796
 42
-0.4051409009247286
 10
1974.949229177939
 20
3.602249340263369
 42
0.0
 10
1974.636875852462
 20
1.102953378541656
 42
-0.3550060014663849
 10
1973.169741455051
 20
-0.0911146465354023
 42
0.0
 10
1969.024352903383
 20
-0.0948074497366065
 42
0.0
 97
        0
 75
     0
 76
     1
 52
180.0
 41
4.0
 77
     0
 78
     1
 53
225.0
 43
2195.0
 44
-105.0
 45
0.3535533905932736
 46
-0.3535533905932739
 79
     0
 47
0.106117
 98
        1
 10
1970.0
 20
-5.0
  0
LINE
  5
496
100
AcDbEntity
  8
GLASMFOGNING
100
AcDbLine
 10
1968.0
 20
-25.0
 30
0.0
 11
1968.0
 21
-3.0
 31
0.0
  0
LINE
  5
497
100
AcDbEntity
  8
16
100
AcDbLine
 10
1982.952748
 20
-6.094807
 30
0.0
 11
1982.952748
 21
-26.199121
 31
0.0
  0
LWPOLYLINE
  5
498
100
AcDbEntity
  8
16
100
AcDbPolyline
 90
        4
 70
     0
 43
0.0
 10
1969.024353
 20
-33.008935
 10
1969.024353
 20
-0.094807
 10
1973.169741
 20
-0.091115
 42
0.355006
 10
1974.636876
 20
1.102953
 42
0.355006
  0
LINE
  5
499
100
AcDbEntity
  8
16
100
AcDbLine
 10
1980.716118
 20
-23.883083
 30
0.0
 11
1979.111609
 21
-24.351842
 31
0.0
  0
LINE
  5
49A
100
AcDbEntity
  8
16
100
AcDbLine
 10
1981.64707
 20
-24.156537
 30
0.0
 11
1980.716118
 21
-23.883083
 31
0.0
  0
LINE
  5
49B
100
AcDbEntity
  8
GLASMFOGNING
100
AcDbLine
 10
1923.0
 20
-25.0
 30
0.0
 11
1968.0
 21
-25.0
 31
0.0
  0
LINE
  5
49C
100
AcDbEntity
  8
GLASMFOGNING
100
AcDbLine
 10
1923.0
 20
-24.0
 30
0.0
 11
1968.0
 21
-24.0
 31
0.0
  0
INSERT
  5
49D
100
AcDbEntity
  8
GLASMFOGNING
100
AcDbBlockReference
  2
SP6000_6260_FASAD
 10
1890.0
 20
5.0
 30
0.0
 50
180.0
  0
LINE
  5
49E
100
AcDbEntity
  8
DOT
100
AcDbLine
 10
1923.0
 20
-30.0
 30
0.0
 11
1923.0
 21
-26.203709
 31
0.0
  0
LINE
  5
49F
100
AcDbEntity
  8
16
100
AcDbLine
 10
1997.159018
 20
-25.067517
 30
0.0
 11
1988.696281
 21
-25.067517
 31
0.0
  0
LINE
  5
4A0
100
AcDbEntity
  8
16
100
AcDbLine
 10
1997.181243
 20
-26.317517
 30
0.0
 11
1988.696281
 21
-26.317517
 31
0.0
  0
INSERT
  5
4A1
100
AcDbEntity
  8
GLASMFOGNING
100
AcDbBlockReference
  2
SP6000_6260_FASAD
 10
2010.0
 20
5.0
 30
0.0
 50
180.0
  0
LWPOLYLINE
  5
4A2
100
AcDbEntity
  8
GLASMFOGNING
100
AcDbPolyline
 90
        4
 70
     1
 43
0.0
 10
1953.0
 20
-28.0
 10
1953.0
 20
-25.037695
 10
1962.818757
 20
-25.037695
 10
1962.818757
 20
-28.0
  0
INSERT
  5
4A3
100
AcDbEntity
  8
GLASMFOGNING
100
AcDbBlockReference
  2
*X5
 10
3578.0
 20
720.0
 30
0.0
 50
180.0
1001
ACAD
1000
HATCH
1002
{
1070
    16
1000
ANSI38
1040
4.0
1040
0.0
1002
}
  0
ARC
  5
4A4
100
AcDbEntity
  8
GLASMFOGNING
100
AcDbCircle
 10
1946.098256
 20
-28.63045
 30
0.0
 40
3.951324
100
AcDbArc
 50
0.975164
 51
66.887732
  0
INSERT
  5
4A5
100
AcDbEntity
  8
GLASMFOGNING
100
AcDbBlockReference
  2
*X9
 10
3660.0
 20
470.0
 30
0.0
 50
180.0
1001
ACAD
1000
HATCH
1002
{
1070
    16
1000
AR-SAND
1040
1.0
1040
0.0
1002
}
  0
LINE
  5
4A6
100
AcDbEntity
  8
16
100
AcDbLine
 10
1967.024353
 20
-33.008935
 30
0.0
 11
1969.024353
 21
-35.008935
 31
0.0
  0
LINE
  5
4A7
100
AcDbEntity
  8
2
 62
     1
100
AcDbLine
 10
1969.024353
 20
-33.008935
 30
0.0
 11
1967.024353
 21
-33.008935
 31
0.0
  0
LINE
  5
4A8
100
AcDbEntity
  8
16
100
AcDbLine
 10
1986.446281
 20
-26.199121
 30
0.0
 11
1979.946281
 21
-26.199121
 31
0.0
  0
LINE
  5
4A9
100
AcDbEntity
  8
16
100
AcDbLine
 10
1986.446281
 20
-27.449121
 30
0.0
 11
1979.104371
 21
-27.449121
 31
0.0
  0
LINE
  5
4AA
100
AcDbEntity
  8
16
100
AcDbLine
 10
1981.64707
 20
-24.156537
 30
0.0
 11
1979.352989
 21
-24.687933
 31
0.0
  0
LINE
  5
4AB
100
AcDbEntity
  8
16
100
AcDbLine
 10
1981.64707
 20
-24.156537
 30
0.0
 11
1980.716118
 21
-24.633083
 31
0.0
  0
ARC
  5
4AC
100
AcDbEntity
  8
16
100
AcDbCircle
 10
1979.668705
 20
-25.664997
 30
0.0
 40
3.789046
100
AcDbArc
 50
277.734596
 51
330.7239
  0
LINE
  5
4AD
100
AcDbEntity
  8
16
100
AcDbLine
 10
1981.049539
 20
-26.199121
 30
0.0
 11
1981.049539
 21
-24.897718
 31
0.0
  0
LINE
  5
4AE
100
AcDbEntity
  8
16
100
AcDbLine
 10
1980.716118
 20
-24.633083
 30
0.0
 11
1979.428625
 21
-24.98979
 31
0.0
  0
LINE
  5
4AF
100
AcDbEntity
  8
16
100
AcDbLine
 10
1980.716118
 20
-24.633083
 30
0.0
 11
1980.716118
 21
-26.182538
 31
0.0
  0
LINE
  5
4B0
100
AcDbEntity
  8
16
100
AcDbLine
 10
1980.178652
 20
-29.419571
 30
0.0
 11
1980.178652
 21
-28.365223
 31
0.0
  0
LINE
  5
4B1
100
AcDbEntity
  8
16
100
AcDbLine
 10
1980.178652
 20
-28.365223
 30
0.0
 11
1979.125152
 21
-28.365223
 31
0.0
  0
LINE
  5
4B2
100
AcDbEntity
  8
16
100
AcDbLine
 10
1979.125152
 20
-28.365223
 30
0.0
 11
1979.125152
 21
-29.419571
 31
0.0
  0
LINE
  5
4B3
100
AcDbEntity
  8
16
100
AcDbLine
 10
1988.696281
 20
-25.067517
 30
0.0
 11
1986.446281
 21
-26.199121
 31
0.0
  0
LINE
  5
4B4
100
AcDbEntity
  8
16
100
AcDbLine
 10
1988.696281
 20
-26.317517
 30
0.0
 11
1986.446281
 21
-27.449121
 31
0.0
  0
LWPOLYLINE
  5
4B5
100
AcDbEntity
  8
GLASMFOGNING
100
AcDbPolyline
 90
        4
 70
     1
 43
0.0
 10
2007.0
 20
-28.0
 10
2007.0
 20
-25.037695
 10
1997.181243
 20
-25.037695
 10
1997.181243
 20
-28.0
  0
INSERT
  5
4B6
100
AcDbEntity
  8
GLASMFOGNING
100
AcDbBlockReference
  2
*X4
 10
3582.0
 20
720.0
 30
0.0
 50
180.0
1001
ACAD
1000
HATCH
1002
{
1070
    16
1000
ANSI38
1040
4.0
1040
0.0
1002
}
  0
TEXT
  5
4B7
100
AcDbEntity
  8
TEXT
 62
     6
100
AcDbText
 10
1940.274853
 20
107.387288
 30
0.0
 40
5.0
  1
Scale 1:10
 41
0.8
  7
ROMANS
 72
     1
 11
1956.846282
 21
107.387288
 31
0.0
100
AcDbText
  0
ARC
  5
4B8
100
AcDbEntity
  8
GLASMFOGNING
100
AcDbCircle
 10
1940.961118
 20
5.822212
 30
0.0
 40
9.630082
100
AcDbArc
 50
293.636187
 51
339.81926
  0
LINE
  5
4B9
100
AcDbEntity
  8
GLASMFOGNING
100
AcDbLine
 10
1923.0
 20
-5.0
 30
0.0
 11
1968.0
 21
-5.0
 31
0.0
  0
LINE
  5
4BA
100
AcDbEntity
  8
GLASMFOGNING
100
AcDbLine
 10
1923.0
 20
-4.0
 30
0.0
 11
1968.0
 21
-4.0
 31
0.0
  0
LINE
  5
4BB
100
AcDbEntity
  8
GLASMFOGNING
100
AcDbLine
 10
1923.0
 20
-3.0
 30
0.0
 11
1968.0
 21
-3.0
 31
0.0
  0
LINE
  5
4BC
100
AcDbEntity
  8
GLASMFOGNING
100
AcDbLine
 10
1923.0
 20
-23.0
 30
0.0
 11
1968.0
 21
-23.0
 31
0.0
  0
LINE
  5
4BD
100
AcDbEntity
  8
RAM
100
AcDbLine
 10
1870.0
 20
131.0
 30
0.0
 11
1964.0
 21
131.0
 31
0.0
  0
INSERT
  5
4BE
100
AcDbEntity
  8
SPKONTUR
100
AcDbBlockReference
  2
SP6050
 10
1890.0
 20
10.0
 30
0.0
 50
180.0
  0
TEXT
  5
4BF
100
AcDbEntity
  8
TEXT
 62
     6
100
AcDbText
 10
1843.908187
 20
27.387288
 30
0.0
 40
5.0
  1
%%USP 6050
 41
0.8
  7
ROMANS
 72
     1
 11
1856.846282
 21
27.387288
 31
0.0
100
AcDbText
  0
LINE
  5
4C0
100
AcDbEntity
  8
DOT
100
AcDbLine
 10
1923.0
 20
-9.351857
 30
0.0
 11
1923.0
 21
-7.870374
 31
0.0
  0
LINE
  5
4C1
100
AcDbEntity
  8
DOT
100
AcDbLine
 10
1923.0
 20
-20.092596
 30
0.0
 11
1923.0
 21
-16.018519
 31
0.0
  0
LINE
  5
4C2
100
AcDbEntity
  8
DOT
100
AcDbLine
 10
1923.0
 20
-23.611115
 30
0.0
 11
1923.0
 21
-22.500004
 31
0.0
  0
LINE
  5
4C3
100
AcDbEntity
  8
DOT
100
AcDbLine
 10
1923.0
 20
-6.203704
 30
0.0
 11
1923.0
 21
0.0
 31
0.0
  0
LINE
  5
4C4
100
AcDbEntity
  8
RAM
100
AcDbLine
 10
1776.0
 20
131.0
 30
0.0
 11
1864.0
 21
131.0
 31
0.0
  0
INSERT
  5
4C5
100
AcDbEntity
  8
SPKONTUR
100
AcDbBlockReference
  2
SP6050
 10
2010.0
 20
10.0
 30
0.0
 50
180.0
  0
ARC
  5
4C6
100
AcDbEntity
  8
16
100
AcDbCircle
 10
1982.137214
 20
6.651827
 30
0.0
 40
4.277045
100
AcDbArc
 50
342.51043
 51
111.343697
  0
LWPOLYLINE
  5
4C7
100
AcDbEntity
  8
16
 62
   143
100
AcDbPolyline
 90
        2
 70
     0
 43
0.0
 10
1979.042766
 20
-2.094807
 10
1979.042766
 20
9.885677
  0
LINE
  5
4C8
100
AcDbEntity
  8
16
 62
   143
100
AcDbLine
 10
1980.742766
 20
9.885677
 30
0.0
 11
1980.742766
 21
-2.112255
 31
0.0
  0
LINE
  5
4C9
100
AcDbEntity
  8
16
100
AcDbLine
 10
1983.524353
 20
-2.094807
 30
0.0
 11
1980.576366
 21
10.634724
 31
0.0
  0
LINE
  5
4CA
100
AcDbEntity
  8
16
100
AcDbLine
 10
1976.524353
 20
-2.094807
 30
0.0
 11
1979.22234
 21
10.634724
 31
0.0
  0
INSERT
  5
4CB
100
AcDbEntity
  8
GLASMFOGNING
100
AcDbBlockReference
  2
*X6
 10
3578.0
 20
725.0
 30
0.0
 50
180.0
1001
ACAD
1000
HATCH
1002
{
1070
    16
1000
ANSI38
1040
4.0
1040
0.0
1002
}
  0
LWPOLYLINE
  5
4CC
100
AcDbEntity
  8
GLASMFOGNING
100
AcDbPolyline
 90
        4
 70
     1
 43
0.0
 10
1953.0
 20
0.0
 10
1953.0
 20
-2.962305
 10
1962.818757
 20
-2.962305
 10
1962.818757
 20
0.0
  0
INSERT
  5
4CD
100
AcDbEntity
  8
GLASMFOGNING
100
AcDbBlockReference
  2
*X11
 10
3660.0
 20
475.0
 30
0.0
 50
180.0
1001
ACAD
1000
HATCH
1002
{
1070
    16
1000
AR-SAND
1040
1.0
1040
0.0
1002
}
  0
LINE
  5
4CE
100
AcDbEntity
  8
16
100
AcDbLine
 10
1980.716118
 20
-7.737312
 30
0.0
 11
1980.716118
 21
-9.366466
 31
0.0
  0
LINE
  5
4CF
100
AcDbEntity
  8
16
100
AcDbLine
 10
1981.64707
 20
-21.777383
 30
0.0
 11
1979.352989
 21
-22.308779
 31
0.0
  0
LINE
  5
4D0
100
AcDbEntity
  8
16
100
AcDbLine
 10
1981.64707
 20
-21.777383
 30
0.0
 11
1980.716118
 21
-22.253928
 31
0.0
  0
LINE
  5
4D1
100
AcDbEntity
  8
16
100
AcDbLine
 10
1981.64707
 20
-21.777383
 30
0.0
 11
1980.716118
 21
-21.503928
 31
0.0
  0
LINE
  5
4D2
100
AcDbEntity
  8
16
100
AcDbLine
 10
1981.64707
 20
-19.398229
 30
0.0
 11
1980.716118
 21
-19.874774
 31
0.0
  0
LINE
  5
4D3
100
AcDbEntity
  8
16
100
AcDbLine
 10
1981.64707
 20
-19.398229
 30
0.0
 11
1980.716118
 21
-19.124774
 31
0.0
  0
LINE
  5
4D4
100
AcDbEntity
  8
16
100
AcDbLine
 10
1981.64707
 20
-19.398229
 30
0.0
 11
1979.352989
 21
-19.929625
 31
0.0
  0
LINE
  5
4D5
100
AcDbEntity
  8
16
100
AcDbLine
 10
1981.64707
 20
-19.398229
 30
0.0
 11
1979.352989
 21
-19.929625
 31
0.0
  0
LINE
  5
4D6
100
AcDbEntity
  8
16
100
AcDbLine
 10
1981.64707
 20
-19.398229
 30
0.0
 11
1980.716118
 21
-19.874774
 31
0.0
  0
LINE
  5
4D7
100
AcDbEntity
  8
16
100
AcDbLine
 10
1981.64707
 20
-19.398229
 30
0.0
 11
1980.716118
 21
-19.124774
 31
0.0
  0
LINE
  5
4D8
100
AcDbEntity
  8
16
100
AcDbLine
 10
1981.64707
 20
-9.639921
 30
0.0
 11
1979.352989
 21
-10.171316
 31
0.0
  0
LINE
  5
4D9
100
AcDbEntity
  8
16
100
AcDbLine
 10
1981.64707
 20
-9.639921
 30
0.0
 11
1980.716118
 21
-10.116466
 31
0.0
  0
LINE
  5
4DA
100
AcDbEntity
  8
16
100
AcDbLine
 10
1981.64707
 20
-9.639921
 30
0.0
 11
1980.716118
 21
-9.366466
 31
0.0
  0
LINE
  5
4DB
100
AcDbEntity
  8
16
100
AcDbLine
 10
1981.64707
 20
-14.639921
 30
0.0
 11
1979.352989
 21
-15.171316
 31
0.0
  0
LINE
  5
4DC
100
AcDbEntity
  8
16
100
AcDbLine
 10
1981.64707
 20
-14.639921
 30
0.0
 11
1979.352989
 21
-15.171316
 31
0.0
  0
LINE
  5
4DD
100
AcDbEntity
  8
16
100
AcDbLine
 10
1981.64707
 20
-14.639921
 30
0.0
 11
1980.716118
 21
-15.116466
 31
0.0
  0
LINE
  5
4DE
100
AcDbEntity
  8
16
100
AcDbLine
 10
1981.64707
 20
-14.639921
 30
0.0
 11
1980.716118
 21
-14.366466
 31
0.0
  0
LINE
  5
4DF
100
AcDbEntity
  8
16
100
AcDbLine
 10
1981.64707
 20
-12.260767
 30
0.0
 11
1979.352989
 21
-12.792162
 31
0.0
  0
LINE
  5
4E0
100
AcDbEntity
  8
16
100
AcDbLine
 10
1981.64707
 20
-12.260767
 30
0.0
 11
1979.352989
 21
-12.792162
 31
0.0
  0
LINE
  5
4E1
100
AcDbEntity
  8
16
100
AcDbLine
 10
1981.64707
 20
-12.260767
 30
0.0
 11
1980.716118
 21
-11.987312
 31
0.0
  0
LINE
  5
4E2
100
AcDbEntity
  8
16
100
AcDbLine
 10
1981.64707
 20
-12.260767
 30
0.0
 11
1980.716118
 21
-12.737312
 31
0.0
  0
LINE
  5
4E3
100
AcDbEntity
  8
16
100
AcDbLine
 10
1981.64707
 20
-17.019075
 30
0.0
 11
1980.716118
 21
-17.49562
 31
0.0
  0
LINE
  5
4E4
100
AcDbEntity
  8
16
100
AcDbLine
 10
1981.64707
 20
-17.019075
 30
0.0
 11
1979.352989
 21
-17.550471
 31
0.0
  0
LINE
  5
4E5
100
AcDbEntity
  8
16
100
AcDbLine
 10
1981.64707
 20
-17.019075
 30
0.0
 11
1980.716118
 21
-16.74562
 31
0.0
  0
LINE
  5
4E6
100
AcDbEntity
  8
16
100
AcDbLine
 10
1981.64707
 20
-17.019075
 30
0.0
 11
1979.352989
 21
-17.550471
 31
0.0
  0
LINE
  5
4E7
100
AcDbEntity
  8
16
100
AcDbLine
 10
1981.64707
 20
-17.019075
 30
0.0
 11
1980.716118
 21
-16.74562
 31
0.0
  0
LINE
  5
4E8
100
AcDbEntity
  8
16
100
AcDbLine
 10
1981.64707
 20
-17.019075
 30
0.0
 11
1980.716118
 21
-17.49562
 31
0.0
  0
LINE
  5
4E9
100
AcDbEntity
  8
16
100
AcDbLine
 10
1980.716118
 20
-17.49562
 30
0.0
 11
1980.716118
 21
-19.124774
 31
0.0
  0
LINE
  5
4EA
100
AcDbEntity
  8
16
100
AcDbLine
 10
1980.716118
 20
-22.253928
 30
0.0
 11
1980.716118
 21
-23.883083
 31
0.0
  0
LINE
  5
4EB
100
AcDbEntity
  8
16
100
AcDbLine
 10
1980.716118
 20
-19.874774
 30
0.0
 11
1980.716118
 21
-21.503928
 31
0.0
  0
LINE
  5
4EC
100
AcDbEntity
  8
16
100
AcDbLine
 10
1981.049539
 20
-23.405895
 30
0.0
 11
1981.049539
 21
-22.592177
 31
0.0
  0
LINE
  5
4ED
100
AcDbEntity
  8
16
100
AcDbLine
 10
1980.716118
 20
-22.253928
 30
0.0
 11
1979.111609
 21
-22.722687
 31
0.0
  0
LINE
  5
4EE
100
AcDbEntity
  8
16
100
AcDbLine
 10
1980.716118
 20
-21.503928
 30
0.0
 11
1979.111609
 21
-21.972687
 31
0.0
  0
LINE
  5
4EF
100
AcDbEntity
  8
16
100
AcDbLine
 10
1980.716118
 20
-19.124774
 30
0.0
 11
1979.111609
 21
-19.593533
 31
0.0
  0
LINE
  5
4F0
100
AcDbEntity
  8
16
100
AcDbLine
 10
1980.716118
 20
-19.874774
 30
0.0
 11
1979.170684
 21
-20.326275
 31
0.0
  0
LINE
  5
4F1
100
AcDbEntity
  8
16
100
AcDbLine
 10
1981.049539
 20
-21.09322
 30
0.0
 11
1981.049539
 21
-20.322325
 31
0.0
  0
LINE
  5
4F2
100
AcDbEntity
  8
16
100
AcDbLine
 10
1980.716118
 20
-10.116466
 30
0.0
 11
1979.170684
 21
-10.567966
 31
0.0
  0
LINE
  5
4F3
100
AcDbEntity
  8
16
100
AcDbLine
 10
1979.170684
 20
-9.782546
 30
0.0
 11
1980.716118
 21
-9.366466
 31
0.0
  0
LINE
  5
4F4
100
AcDbEntity
  8
16
100
AcDbLine
 10
1980.716118
 20
-14.366466
 30
0.0
 11
1979.111609
 21
-14.835225
 31
0.0
  0
LINE
  5
4F5
100
AcDbEntity
  8
16
100
AcDbLine
 10
1980.716118
 20
-15.116466
 30
0.0
 11
1979.111609
 21
-15.585225
 31
0.0
  0
LINE
  5
4F6
100
AcDbEntity
  8
16
100
AcDbLine
 10
1980.716118
 20
-15.116466
 30
0.0
 11
1979.111609
 21
-15.585225
 31
0.0
  0
LINE
  5
4F7
100
AcDbEntity
  8
16
100
AcDbLine
 10
1980.716118
 20
-14.366466
 30
0.0
 11
1979.111609
 21
-14.835225
 31
0.0
  0
LINE
  5
4F8
100
AcDbEntity
  8
16
100
AcDbLine
 10
1980.716118
 20
-11.987312
 30
0.0
 11
1979.111609
 21
-12.456071
 31
0.0
  0
LINE
  5
4F9
100
AcDbEntity
  8
16
100
AcDbLine
 10
1980.716118
 20
-12.737312
 30
0.0
 11
1979.111609
 21
-13.206071
 31
0.0
  0
LINE
  5
4FA
100
AcDbEntity
  8
16
100
AcDbLine
 10
1980.716118
 20
-12.737312
 30
0.0
 11
1979.111609
 21
-13.206071
 31
0.0
  0
LINE
  5
4FB
100
AcDbEntity
  8
16
100
AcDbLine
 10
1980.716118
 20
-11.987312
 30
0.0
 11
1979.111609
 21
-12.456071
 31
0.0
  0
LINE
  5
4FC
100
AcDbEntity
  8
16
100
AcDbLine
 10
1981.049539
 20
-16.363207
 30
0.0
 11
1981.049539
 21
-15.463833
 31
0.0
  0
LINE
  5
4FD
100
AcDbEntity
  8
16
100
AcDbLine
 10
1981.049539
 20
-14.074354
 30
0.0
 11
1981.049539
 21
-13.17498
 31
0.0
  0
LINE
  5
4FE
100
AcDbEntity
  8
16
100
AcDbLine
 10
1981.049539
 20
-11.481877
 30
0.0
 11
1981.049539
 21
-10.582504
 31
0.0
  0
LINE
  5
4FF
100
AcDbEntity
  8
16
100
AcDbLine
 10
1980.716118
 20
-16.74562
 30
0.0
 11
1979.111609
 21
-17.214379
 31
0.0
  0
LINE
  5
500
100
AcDbEntity
  8
16
100
AcDbLine
 10
1980.716118
 20
-17.49562
 30
0.0
 11
1979.111609
 21
-17.964379
 31
0.0
  0
LINE
  5
501
100
AcDbEntity
  8
16
100
AcDbLine
 10
1980.716118
 20
-17.49562
 30
0.0
 11
1979.111609
 21
-17.964379
 31
0.0
  0
LINE
  5
502
100
AcDbEntity
  8
16
100
AcDbLine
 10
1980.716118
 20
-16.74562
 30
0.0
 11
1979.111609
 21
-17.214379
 31
0.0
  0
LINE
  5
503
100
AcDbEntity
  8
16
100
AcDbLine
 10
1981.049539
 20
-18.647587
 30
0.0
 11
1981.049539
 21
-17.833869
 31
0.0
  0
LINE
  5
504
100
AcDbEntity
  8
16
100
AcDbLine
 10
1981.049539
 20
-18.65206
 30
0.0
 11
1981.049539
 21
-17.752686
 31
0.0
  0
LINE
  5
505
100
AcDbEntity
  8
16
100
AcDbLine
 10
1980.716118
 20
-10.116466
 30
0.0
 11
1980.716118
 21
-16.74562
 31
0.0
  0
LINE
  5
506
100
AcDbEntity
  8
16
100
AcDbLine
 10
1981.64707
 20
-7.260767
 30
0.0
 11
1979.352989
 21
-7.792162
 31
0.0
  0
LINE
  5
507
100
AcDbEntity
  8
16
100
AcDbLine
 10
1981.64707
 20
-7.260767
 30
0.0
 11
1980.716118
 21
-7.737312
 31
0.0
  0
LINE
  5
508
100
AcDbEntity
  8
16
100
AcDbLine
 10
1981.64707
 20
-7.260767
 30
0.0
 11
1980.716118
 21
-6.987312
 31
0.0
  0
LINE
  5
509
100
AcDbEntity
  8
16
100
AcDbLine
 10
1981.64707
 20
-4.881612
 30
0.0
 11
1980.716118
 21
-4.608158
 31
0.0
  0
LINE
  5
50A
100
AcDbEntity
  8
16
100
AcDbLine
 10
1981.64707
 20
-4.881612
 30
0.0
 11
1979.352989
 21
-5.413008
 31
0.0
  0
LINE
  5
50B
100
AcDbEntity
  8
16
100
AcDbLine
 10
1981.64707
 20
-4.881612
 30
0.0
 11
1980.716118
 21
-5.358158
 31
0.0
  0
LINE
  5
50C
100
AcDbEntity
  8
16
100
AcDbLine
 10
1980.024353
 20
-2.094807
 30
0.0
 11
1983.524353
 21
-2.094807
 31
0.0
  0
LINE
  5
50D
100
AcDbEntity
  8
16
100
AcDbLine
 10
1991.024353
 20
-6.094807
 30
0.0
 11
1981.049539
 21
-6.094807
 31
0.0
  0
LINE
  5
50E
100
AcDbEntity
  8
16
100
AcDbLine
 10
1991.024353
 20
-6.094807
 30
0.0
 11
1981.049539
 21
-6.094807
 31
0.0
  0
LINE
  5
50F
100
AcDbEntity
  8
16
100
AcDbLine
 10
1980.716118
 20
-4.608158
 30
0.0
 11
1979.588273
 21
-3.848853
 31
0.0
  0
LINE
  5
510
100
AcDbEntity
  8
16
100
AcDbLine
 10
1981.049539
 20
-8.893752
 30
0.0
 11
1981.049539
 21
-7.994378
 31
0.0
  0
LINE
  5
511
100
AcDbEntity
  8
16
100
AcDbLine
 10
1980.716118
 20
-7.737312
 30
0.0
 11
1979.111609
 21
-8.206071
 31
0.0
  0
LINE
  5
512
100
AcDbEntity
  8
16
100
AcDbLine
 10
1980.716118
 20
-6.987312
 30
0.0
 11
1979.111609
 21
-7.456071
 31
0.0
  0
LINE
  5
513
100
AcDbEntity
  8
16
100
AcDbLine
 10
1980.716118
 20
-5.358158
 30
0.0
 11
1979.111609
 21
-5.826917
 31
0.0
  0
LINE
  5
514
100
AcDbEntity
  8
16
100
AcDbLine
 10
1980.716118
 20
-4.608158
 30
0.0
 11
1979.111609
 21
-5.076917
 31
0.0
  0
LINE
  5
515
100
AcDbEntity
  8
16
100
AcDbLine
 10
1981.049539
 20
-6.83804
 30
0.0
 11
1981.049539
 21
-6.094807
 31
0.0
  0
LINE
  5
516
100
AcDbEntity
  8
16
100
AcDbLine
 10
1980.716118
 20
-5.358158
 30
0.0
 11
1980.716118
 21
-6.987312
 31
0.0
  0
LINE
  5
517
100
AcDbEntity
  8
16
100
AcDbLine
 10
1972.024353
 20
-6.094807
 30
0.0
 11
1976.95235
 21
-6.094807
 31
0.0
  0
LINE
  5
518
100
AcDbEntity
  8
16
100
AcDbLine
 10
1980.024353
 20
-2.094807
 30
0.0
 11
1976.524353
 21
-2.094807
 31
0.0
  0
LINE
  5
519
100
AcDbEntity
  8
16
100
AcDbLine
 10
1991.024353
 20
-6.094807
 30
0.0
 11
1991.024353
 21
-0.094807
 31
0.0
  0
LINE
  5
51A
100
AcDbEntity
  8
16
100
AcDbLine
 10
1991.024353
 20
-6.094807
 30
0.0
 11
1991.024353
 21
-0.094807
 31
0.0
  0
ARC
  5
51B
100
AcDbEntity
  8
16
100
AcDbCircle
 10
1986.567947
 20
3.908181
 30
0.0
 40
1.5
100
AcDbArc
 50
103.548759
 51
191.768289
  0
LINE
  5
51C
100
AcDbEntity
  8
16
100
AcDbLine
 10
1985.41183
 20
1.102953
 30
0.0
 11
1985.099477
 21
3.602249
 31
0.0
  0
ARC
  5
51D
100
AcDbEntity
  8
16
100
AcDbCircle
 10
1986.880301
 20
1.408885
 30
0.0
 40
1.5
100
AcDbArc
 50
191.768289
 51
269.94896
  0
ARC
  5
51E
100
AcDbEntity
  8
16
100
AcDbCircle
 10
1986.880301
 20
1.408885
 30
0.0
 40
1.5
100
AcDbArc
 50
191.768289
 51
269.94896
  0
LINE
  5
51F
100
AcDbEntity
  8
16
100
AcDbLine
 10
1986.878964
 20
-0.091115
 30
0.0
 11
1991.024353
 21
-0.094807
 31
0.0
  0
TEXT
  5
520
100
AcDbEntity
  8
TEXT
 62
     6
100
AcDbText
 10
1963.908187
 20
27.387288
 30
0.0
 40
5.0
  1
%%USP 6050
 41
0.8
  7
ROMANS
 72
     1
 11
1976.846282
 21
27.387288
 31
0.0
100
AcDbText
  0
LINE
  5
521
100
AcDbEntity
  8
16
 62
   143
100
AcDbLine
 10
1980.744985
 20
10.93177
 30
0.0
 11
1980.494914
 21
11.396104
 31
0.0
  0
LWPOLYLINE
  5
522
100
AcDbEntity
  8
16
 62
   143
100
AcDbPolyline
 90
        2
 70
     0
 43
0.0
 10
1979.042766
 20
10.699309
 10
1979.042766
 20
10.957839
  0
LINE
  5
523
100
AcDbEntity
  8
16
 62
   143
100
AcDbLine
 10
1980.742766
 20
10.935887
 30
0.0
 11
1979.042766
 21
10.935887
 31
0.0
  0
LINE
  5
524
100
AcDbEntity
  8
16
 62
   143
100
AcDbLine
 10
1980.494914
 20
11.396104
 30
0.0
 11
1979.286397
 21
11.396104
 31
0.0
  0
INSERT
  5
525
100
AcDbEntity
  8
GLASMFOGNING
100
AcDbBlockReference
  2
*X3
 10
3582.0
 20
725.0
 30
0.0
 50
180.0
1001
ACAD
1000
HATCH
1002
{
1070
    16
1000
ANSI38
1040
4.0
1040
0.0
1002
}
  0
LWPOLYLINE
  5
526
100
AcDbEntity
  8
GLASMFOGNING
100
AcDbPolyline
 90
        4
 70
     1
 43
0.0
 10
2007.0
 20
0.0
 10
2007.0
 20
-2.962305
 10
1997.181243
 20
-2.962305
 10
1997.181243
 20
0.0
  0
LINE
  5
527
100
AcDbEntity
  8
RAM
100
AcDbLine
 10
1770.0
 20
419.0
 30
0.0
 11
1676.0
 21
419.0
 31
0.0
  0
LINE
  5
528
100
AcDbEntity
  8
RAM
100
AcDbLine
 10
1676.0
 20
325.0
 30
0.0
 11
1770.0
 21
325.0
 31
0.0
  0
LINE
  5
529
100
AcDbEntity
  8
RAM
100
AcDbLine
 10
1676.0
 20
319.0
 30
0.0
 11
1770.0
 21
319.0
 31
0.0
  0
LINE
  5
52A
100
AcDbEntity
  8
RAM
100
AcDbLine
 10
1676.0
 20
231.0
 30
0.0
 11
1770.0
 21
231.0
 31
0.0
  0
LINE
  5
52B
100
AcDbEntity
  8
RAM
100
AcDbLine
 10
1676.0
 20
225.0
 30
0.0
 11
1770.0
 21
225.0
 31
0.0
  0
INSERT
  5
52C
100
AcDbEntity
  8
SPKONTUR
100
AcDbBlockReference
  2
SP6050
 10
1470.0
 20
245.0
 30
0.0
 50
90.0
  0
INSERT
  5
52D
100
AcDbEntity
  8
RAM
100
AcDbBlockReference
  2
GLAS22MM
 10
1470.0
 20
245.0
 30
0.0
 50
90.0
  0
INSERT
  5
52E
100
AcDbEntity
  8
GLASMFOGNING
100
AcDbBlockReference
  2
SP6000_6260_FASAD
 10
1465.0
 20
245.0
 30
0.0
 50
90.0
  0
TEXT
  5
52F
100
AcDbEntity
  8
TEXT
 62
     6
100
AcDbText
 10
1473.908187
 20
287.387288
 30
0.0
 40
5.0
  1
%%USP 6050
 41
0.8
  7
ROMANS
 72
     1
 11
1486.846282
 21
287.387288
 31
0.0
100
AcDbText
  0
ARC
  5
530
100
AcDbEntity
  8
16
100
AcDbCircle
 10
1466.651827
 20
392.862786
 30
0.0
 40
4.277045
100
AcDbArc
 50
252.51043
 51
21.343697
  0
LINE
  5
531
100
AcDbEntity
  8
16
100
AcDbLine
 10
1457.905193
 20
391.475647
 30
0.0
 11
1470.634724
 21
394.423634
 31
0.0
  0
LINE
  5
532
100
AcDbEntity
  8
16
 62
   143
100
AcDbLine
 10
1469.885677
 20
394.257234
 30
0.0
 11
1457.887745
 21
394.257234
 31
0.0
  0
LWPOLYLINE
  5
533
100
AcDbEntity
  8
16
 62
   143
100
AcDbPolyline
 90
        2
 70
     0
 43
0.0
 10
1457.905193
 20
395.957234
 10
1469.885677
 20
395.957234
  0
LINE
  5
534
100
AcDbEntity
  8
16
100
AcDbLine
 10
1457.905193
 20
398.475647
 30
0.0
 11
1470.634724
 21
395.77766
 31
0.0
  0
HATCH
  5
535
100
AcDbEntity
  8
GLASMFOGNING
100
AcDbHatch
 10
0.0
 20
0.0
 30
0.0
210
0.0
220
0.0
230
1.0
  2
ANSI31
 70
     0
 71
     0
 91
        1
 92
        7
 72
     1
 73
     1
 93
       16
 10
1426.991064621677
 20
405.9756470966163
 42
0.0
 10
1426.991064621677
 20
407.9756470966163
 42
0.0
 10
1424.991064621677
 20
405.9756470966163
 42
0.0
 10
1424.991064621677
 20
402.9756470966163
 42
0.0
 10
1453.905192550263
 20
402.9756470966163
 42
0.0
 10
1453.905192550263
 20
398.0476502256702
 42
0.0
 10
1437.803180669904
 20
398.0476502256702
 42
0.0
 10
1437.803180669904
 20
395.8750939995748
 42
0.0
 10
1457.905192550263
 20
395.8750939995748
 42
0.0
 10
1457.905192550263
 20
398.4756470966163
 42
0.0
 10
1470.634724279211
 20
395.7776602256649
 42
0.6452980853851517
 10
1465.366437081274
 20
401.1678323041531
 42
-0.4051409009247286
 10
1463.602249340263
 20
400.0507708220602
 42
0.0
 10
1461.102953378541
 20
400.3631241475373
 42
-0.3550060014663849
 10
1459.908885353464
 20
401.8302585449486
 42
0.0
 10
1459.905192550263
 20
405.9756470966163
 42
0.0
 97
        0
 75
     0
 76
     1
 52
90.0
 41
4.0
 77
     0
 78
     1
 53
135.0
 43
1355.0
 44
180.0
 45
-0.3535533905932739
 46
-0.3535533905932736
 79
     0
 47
0.106117
 98
        1
 10
1455.0
 20
405.0
  0
LWPOLYLINE
  5
536
100
AcDbEntity
  8
16
100
AcDbPolyline
 90
       12
 70
     0
 43
0.0
 10
1424.991065
 20
405.975647
 10
1424.991065
 20
402.975647
 10
1453.905193
 20
402.975647
 10
1453.905193
 20
398.04765
 10
1437.803181
 20
398.04765
 10
1437.803181
 20
395.875094
 10
1457.905193
 20
395.875094
 10
1457.905193
 20
398.475647
 10
1470.634724
 20
395.77766
 42
0.645298
 10
1465.366437
 20
401.167832
 42
-0.405141
 10
1463.602249
 20
400.050771
 10
1461.102953
 20
400.363124
  0
INSERT
  5
537
100
AcDbEntity
  8
SPKONTUR
100
AcDbBlockReference
  2
SP6050
 10
1470.0
 20
365.0
 30
0.0
 50
90.0
  0
LINE
  5
538
100
AcDbEntity
  8
16
100
AcDbLine
 10
1457.905193
 20
394.975647
 30
0.0
 11
1457.905193
 21
398.475647
 31
0.0
  0
INSERT
  5
539
100
AcDbEntity
  8
GLASMFOGNING
100
AcDbBlockReference
  2
SP6000_6260_FASAD
 10
1465.0
 20
365.0
 30
0.0
 50
90.0
  0
INSERT
  5
53A
100
AcDbEntity
  8
GLASMFOGNING
100
AcDbBlockReference
  2
*X10
 10
1935.0
 20
-1285.0
 30
0.0
 50
90.0
1001
ACAD
1000
HATCH
1002
{
1070
    16
1000
AR-SAND
1040
1.0
1040
0.0
1002
}
  0
LINE
  5
53B
100
AcDbEntity
  8
GLASMFOGNING
100
AcDbLine
 10
1457.0
 20
338.0
 30
0.0
 11
1457.0
 21
383.0
 31
0.0
  0
LINE
  5
53C
100
AcDbEntity
  8
GLASMFOGNING
100
AcDbLine
 10
1456.0
 20
338.0
 30
0.0
 11
1456.0
 21
383.0
 31
0.0
  0
LINE
  5
53D
100
AcDbEntity
  8
GLASMFOGNING
100
AcDbLine
 10
1455.0
 20
338.0
 30
0.0
 11
1455.0
 21
383.0
 31
0.0
  0
LINE
  5
53E
100
AcDbEntity
  8
GLASMFOGNING
100
AcDbLine
 10
1437.0
 20
338.0
 30
0.0
 11
1437.0
 21
383.0
 31
0.0
  0
LINE
  5
53F
100
AcDbEntity
  8
GLASMFOGNING
100
AcDbLine
 10
1436.0
 20
338.0
 30
0.0
 11
1436.0
 21
383.0
 31
0.0
  0
LINE
  5
540
100
AcDbEntity
  8
GLASMFOGNING
100
AcDbLine
 10
1435.0
 20
338.0
 30
0.0
 11
1435.0
 21
383.0
 31
0.0
  0
INSERT
  5
541
100
AcDbEntity
  8
GLASMFOGNING
100
AcDbBlockReference
  2
*X8
 10
1930.0
 20
-1285.0
 30
0.0
 50
90.0
1001
ACAD
1000
HATCH
1002
{
1070
    16
1000
AR-SAND
1040
1.0
1040
0.0
1002
}
  0
LINE
  5
542
100
AcDbEntity
  8
DOT
100
AcDbLine
 10
1430.0
 20
338.0
 30
0.0
 11
1433.425918
 21
338.0
 31
0.0
  0
LINE
  5
543
100
AcDbEntity
  8
DOT
100
AcDbLine
 10
1440.09259
 20
338.0
 30
0.0
 11
1443.981481
 21
338.0
 31
0.0
  0
LINE
  5
544
100
AcDbEntity
  8
DOT
100
AcDbLine
 10
1437.685183
 20
338.0
 30
0.0
 11
1437.870369
 21
338.0
 31
0.0
  0
LINE
  5
545
100
AcDbEntity
  8
DOT
100
AcDbLine
 10
1436.203699
 20
338.0
 30
0.0
 11
1437.685183
 21
338.0
 31
0.0
  0
ARC
  5
546
100
AcDbEntity
  8
GLASMFOGNING
100
AcDbCircle
 10
1429.655163
 20
359.66441
 30
0.0
 40
5.583432
100
AcDbArc
 50
16.648466
 51
71.279125
  0
LINE
  5
547
100
AcDbEntity
  8
DOT
100
AcDbLine
 10
1453.981483
 20
338.0
 30
0.0
 11
1460.0
 21
338.0
 31
0.0
  0
LINE
  5
548
100
AcDbEntity
  8
DOT
100
AcDbLine
 10
1451.203702
 20
338.0
 30
0.0
 11
1452.499999
 21
338.0
 31
0.0
  0
ARC
  5
549
100
AcDbEntity
  8
GLASMFOGNING
100
AcDbCircle
 10
1463.604531
 20
357.448456
 30
0.0
 40
7.631893
100
AcDbArc
 50
98.321393
 51
149.871875
  0
LINE
  5
54A
100
AcDbEntity
  8
16
100
AcDbLine
 10
1445.360079
 20
393.35293
 30
0.0
 11
1444.883534
 21
394.283882
 31
0.0
  0
LINE
  5
54B
100
AcDbEntity
  8
16
100
AcDbLine
 10
1445.360079
 20
393.35293
 30
0.0
 11
1444.828684
 21
395.647011
 31
0.0
  0
LINE
  5
54C
100
AcDbEntity
  8
16
100
AcDbLine
 10
1445.633534
 20
394.283882
 30
0.0
 11
1445.164775
 21
395.888391
 31
0.0
  0
LINE
  5
54D
100
AcDbEntity
  8
16
100
AcDbLine
 10
1445.360079
 20
393.35293
 30
0.0
 11
1444.828684
 21
395.647011
 31
0.0
  0
LINE
  5
54E
100
AcDbEntity
  8
16
100
AcDbLine
 10
1445.633534
 20
394.283882
 30
0.0
 11
1445.164775
 21
395.888391
 31
0.0
  0
LINE
  5
54F
100
AcDbEntity
  8
16
100
AcDbLine
 10
1449.883534
 20
394.283882
 30
0.0
 11
1443.25438
 21
394.283882
 31
0.0
  0
LINE
  5
550
100
AcDbEntity
  8
GLASMFOGNING
100
AcDbLine
 10
1435.0
 20
383.0
 30
0.0
 11
1457.0
 21
383.0
 31
0.0
  0
LINE
  5
551
100
AcDbEntity
  8
16
100
AcDbLine
 10
1453.905193
 20
392.047252
 30
0.0
 11
1433.800879
 21
392.047252
 31
0.0
  0
LINE
  5
552
100
AcDbEntity
  8
16
100
AcDbLine
 10
1433.682483
 20
377.818757
 30
0.0
 11
1433.682483
 21
386.303719
 31
0.0
  0
LINE
  5
553
100
AcDbEntity
  8
16
100
AcDbLine
 10
1434.932483
 20
377.840982
 30
0.0
 11
1434.932483
 21
386.303719
 31
0.0
  0
INSERT
  5
554
100
AcDbEntity
  8
GLASMFOGNING
100
AcDbBlockReference
  2
*X4
 10
2180.0
 20
-1207.0
 30
0.0
 50
90.0
1001
ACAD
1000
HATCH
1002
{
1070
    16
1000
ANSI38
1040
4.0
1040
0.0
1002
}
  0
LWPOLYLINE
  5
555
100
AcDbEntity
  8
GLASMFOGNING
100
AcDbPolyline
 90
        4
 70
     1
 43
0.0
 10
1432.0
 20
368.0
 10
1434.962305
 20
368.0
 10
1434.962305
 20
377.818757
 10
1432.0
 20
377.818757
  0
LINE
  5
556
100
AcDbEntity
  8
16
100
AcDbLine
 10
1433.682483
 20
386.303719
 30
0.0
 11
1432.550879
 21
388.553719
 31
0.0
  0
LINE
  5
557
100
AcDbEntity
  8
16
100
AcDbLine
 10
1432.550879
 20
388.553719
 30
0.0
 11
1432.550879
 21
395.895629
 31
0.0
  0
ARC
  5
558
100
AcDbEntity
  8
16
100
AcDbCircle
 10
1434.335003
 20
395.331295
 30
0.0
 40
3.789046
100
AcDbArc
 50
187.734596
 51
240.7239
  0
LINE
  5
559
100
AcDbEntity
  8
16
100
AcDbLine
 10
1431.634777
 20
395.874848
 30
0.0
 11
1430.580429
 21
395.874848
 31
0.0
  0
LINE
  5
55A
100
AcDbEntity
  8
16
100
AcDbLine
 10
1431.634777
 20
394.821348
 30
0.0
 11
1431.634777
 21
395.874848
 31
0.0
  0
LINE
  5
55B
100
AcDbEntity
  8
16
100
AcDbLine
 10
1430.580429
 20
394.821348
 30
0.0
 11
1431.634777
 21
394.821348
 31
0.0
  0
LINE
  5
55C
100
AcDbEntity
  8
16
100
AcDbLine
 10
1441.34794
 20
393.950461
 30
0.0
 11
1442.247314
 21
393.950461
 31
0.0
  0
LINE
  5
55D
100
AcDbEntity
  8
16
100
AcDbLine
 10
1441.352413
 20
393.950461
 30
0.0
 11
1442.166131
 21
393.950461
 31
0.0
  0
LINE
  5
55E
100
AcDbEntity
  8
16
100
AcDbLine
 10
1442.50438
 20
394.283882
 30
0.0
 11
1440.875226
 21
394.283882
 31
0.0
  0
LINE
  5
55F
100
AcDbEntity
  8
16
100
AcDbLine
 10
1443.636793
 20
393.950461
 30
0.0
 11
1444.536167
 21
393.950461
 31
0.0
  0
LINE
  5
560
100
AcDbEntity
  8
16
100
AcDbLine
 10
1444.883534
 20
394.283882
 30
0.0
 11
1444.414775
 21
395.888391
 31
0.0
  0
LINE
  5
561
100
AcDbEntity
  8
16
100
AcDbLine
 10
1444.883534
 20
394.283882
 30
0.0
 11
1444.414775
 21
395.888391
 31
0.0
  0
LINE
  5
562
100
AcDbEntity
  8
16
100
AcDbLine
 10
1442.980925
 20
393.35293
 30
0.0
 11
1442.50438
 21
394.283882
 31
0.0
  0
LINE
  5
563
100
AcDbEntity
  8
16
100
AcDbLine
 10
1442.980925
 20
393.35293
 30
0.0
 11
1443.25438
 21
394.283882
 31
0.0
  0
LINE
  5
564
100
AcDbEntity
  8
16
100
AcDbLine
 10
1443.25438
 20
394.283882
 30
0.0
 11
1442.785621
 21
395.888391
 31
0.0
  0
LINE
  5
565
100
AcDbEntity
  8
16
100
AcDbLine
 10
1442.980925
 20
393.35293
 30
0.0
 11
1442.449529
 21
395.647011
 31
0.0
  0
LINE
  5
566
100
AcDbEntity
  8
16
100
AcDbLine
 10
1442.50438
 20
394.283882
 30
0.0
 11
1442.035621
 21
395.888391
 31
0.0
  0
LINE
  5
567
100
AcDbEntity
  8
16
100
AcDbLine
 10
1442.50438
 20
394.283882
 30
0.0
 11
1442.035621
 21
395.888391
 31
0.0
  0
LINE
  5
568
100
AcDbEntity
  8
16
100
AcDbLine
 10
1442.980925
 20
393.35293
 30
0.0
 11
1443.25438
 21
394.283882
 31
0.0
  0
LINE
  5
569
100
AcDbEntity
  8
16
100
AcDbLine
 10
1443.25438
 20
394.283882
 30
0.0
 11
1442.785621
 21
395.888391
 31
0.0
  0
LINE
  5
56A
100
AcDbEntity
  8
16
100
AcDbLine
 10
1442.980925
 20
393.35293
 30
0.0
 11
1442.449529
 21
395.647011
 31
0.0
  0
LINE
  5
56B
100
AcDbEntity
  8
16
100
AcDbLine
 10
1442.980925
 20
393.35293
 30
0.0
 11
1442.50438
 21
394.283882
 31
0.0
  0
LINE
  5
56C
100
AcDbEntity
  8
16
100
AcDbLine
 10
1438.90678
 20
393.950461
 30
0.0
 11
1439.677675
 21
393.950461
 31
0.0
  0
LINE
  5
56D
100
AcDbEntity
  8
16
100
AcDbLine
 10
1440.601771
 20
393.35293
 30
0.0
 11
1440.875226
 21
394.283882
 31
0.0
  0
LINE
  5
56E
100
AcDbEntity
  8
16
100
AcDbLine
 10
1440.601771
 20
393.35293
 30
0.0
 11
1440.125226
 21
394.283882
 31
0.0
  0
LINE
  5
56F
100
AcDbEntity
  8
16
100
AcDbLine
 10
1440.601771
 20
393.35293
 30
0.0
 11
1440.070375
 21
395.647011
 31
0.0
  0
LINE
  5
570
100
AcDbEntity
  8
16
100
AcDbLine
 10
1440.125226
 20
394.283882
 30
0.0
 11
1439.673725
 21
395.829316
 31
0.0
  0
LINE
  5
571
100
AcDbEntity
  8
16
100
AcDbLine
 10
1440.875226
 20
394.283882
 30
0.0
 11
1440.406467
 21
395.888391
 31
0.0
  0
LINE
  5
572
100
AcDbEntity
  8
16
100
AcDbLine
 10
1440.601771
 20
393.35293
 30
0.0
 11
1440.070375
 21
395.647011
 31
0.0
  0
LINE
  5
573
100
AcDbEntity
  8
16
100
AcDbLine
 10
1440.601771
 20
393.35293
 30
0.0
 11
1440.875226
 21
394.283882
 31
0.0
  0
LINE
  5
574
100
AcDbEntity
  8
16
100
AcDbLine
 10
1440.601771
 20
393.35293
 30
0.0
 11
1440.125226
 21
394.283882
 31
0.0
  0
LINE
  5
575
100
AcDbEntity
  8
16
100
AcDbLine
 10
1434.932483
 20
386.303719
 30
0.0
 11
1433.800879
 21
388.553719
 31
0.0
  0
LINE
  5
576
100
AcDbEntity
  8
16
100
AcDbLine
 10
1435.366917
 20
394.283882
 30
0.0
 11
1433.817462
 21
394.283882
 31
0.0
  0
LINE
  5
577
100
AcDbEntity
  8
16
100
AcDbLine
 10
1435.843463
 20
393.35293
 30
0.0
 11
1436.116917
 21
394.283882
 31
0.0
  0
LINE
  5
578
100
AcDbEntity
  8
16
100
AcDbLine
 10
1435.843463
 20
393.35293
 30
0.0
 11
1435.366917
 21
394.283882
 31
0.0
  0
LINE
  5
579
100
AcDbEntity
  8
16
100
AcDbLine
 10
1436.116917
 20
394.283882
 30
0.0
 11
1435.648158
 21
395.888391
 31
0.0
  0
LINE
  5
57A
100
AcDbEntity
  8
16
100
AcDbLine
 10
1435.843463
 20
393.35293
 30
0.0
 11
1435.312067
 21
395.647011
 31
0.0
  0
LINE
  5
57B
100
AcDbEntity
  8
16
100
AcDbLine
 10
1435.366917
 20
394.283882
 30
0.0
 11
1435.01021
 21
395.571375
 31
0.0
  0
LINE
  5
57C
100
AcDbEntity
  8
16
100
AcDbLine
 10
1433.800879
 20
388.553719
 30
0.0
 11
1433.800879
 21
395.053719
 31
0.0
  0
LINE
  5
57D
100
AcDbEntity
  8
16
100
AcDbLine
 10
1433.800879
 20
393.950461
 30
0.0
 11
1435.102282
 21
393.950461
 31
0.0
  0
LINE
  5
57E
100
AcDbEntity
  8
16
100
AcDbLine
 10
1438.222617
 20
393.35293
 30
0.0
 11
1438.496072
 21
394.283882
 31
0.0
  0
LINE
  5
57F
100
AcDbEntity
  8
16
100
AcDbLine
 10
1438.222617
 20
393.35293
 30
0.0
 11
1437.746072
 21
394.283882
 31
0.0
  0
LINE
  5
580
100
AcDbEntity
  8
16
100
AcDbLine
 10
1438.496072
 20
394.283882
 30
0.0
 11
1438.027313
 21
395.888391
 31
0.0
  0
LINE
  5
581
100
AcDbEntity
  8
16
100
AcDbLine
 10
1438.222617
 20
393.35293
 30
0.0
 11
1437.691221
 21
395.647011
 31
0.0
  0
LINE
  5
582
100
AcDbEntity
  8
16
100
AcDbLine
 10
1437.746072
 20
394.283882
 30
0.0
 11
1437.277313
 21
395.888391
 31
0.0
  0
LINE
  5
583
100
AcDbEntity
  8
16
100
AcDbLine
 10
1437.746072
 20
394.283882
 30
0.0
 11
1436.116917
 21
394.283882
 31
0.0
  0
LINE
  5
584
100
AcDbEntity
  8
16
100
AcDbLine
 10
1436.594105
 20
393.950461
 30
0.0
 11
1437.407823
 21
393.950461
 31
0.0
  0
LINE
  5
585
100
AcDbEntity
  8
16
100
AcDbLine
 10
1440.125226
 20
394.283882
 30
0.0
 11
1438.496072
 21
394.283882
 31
0.0
  0
LWPOLYLINE
  5
586
100
AcDbEntity
  8
GLASMFOGNING
100
AcDbPolyline
 90
        4
 70
     1
 43
0.0
 10
1460.0
 20
368.0
 10
1457.037695
 20
368.0
 10
1457.037695
 20
377.818757
 10
1460.0
 20
377.818757
  0
INSERT
  5
587
100
AcDbEntity
  8
GLASMFOGNING
100
AcDbBlockReference
  2
*X3
 10
2185.0
 20
-1207.0
 30
0.0
 50
90.0
1001
ACAD
1000
HATCH
1002
{
1070
    16
1000
ANSI38
1040
4.0
1040
0.0
1002
}
  0
LINE
  5
588
100
AcDbEntity
  8
16
100
AcDbLine
 10
1453.905193
 20
383.975647
 30
0.0
 11
1459.905193
 21
383.975647
 31
0.0
  0
LINE
  5
589
100
AcDbEntity
  8
16
100
AcDbLine
 10
1453.905193
 20
383.975647
 30
0.0
 11
1459.905193
 21
383.975647
 31
0.0
  0
LINE
  5
58A
100
AcDbEntity
  8
16
100
AcDbLine
 10
1454.641842
 20
394.283882
 30
0.0
 11
1453.012688
 21
394.283882
 31
0.0
  0
LINE
  5
58B
100
AcDbEntity
  8
16
100
AcDbLine
 10
1453.16196
 20
393.950461
 30
0.0
 11
1453.905193
 21
393.950461
 31
0.0
  0
LINE
  5
58C
100
AcDbEntity
  8
16
100
AcDbLine
 10
1453.905193
 20
383.975647
 30
0.0
 11
1453.905193
 21
393.950461
 31
0.0
  0
LINE
  5
58D
100
AcDbEntity
  8
16
100
AcDbLine
 10
1453.905193
 20
383.975647
 30
0.0
 11
1453.905193
 21
393.950461
 31
0.0
  0
LINE
  5
58E
100
AcDbEntity
  8
16
100
AcDbLine
 10
1455.118388
 20
393.35293
 30
0.0
 11
1454.641842
 21
394.283882
 31
0.0
  0
LINE
  5
58F
100
AcDbEntity
  8
16
100
AcDbLine
 10
1455.391842
 20
394.283882
 30
0.0
 11
1454.923083
 21
395.888391
 31
0.0
  0
LINE
  5
590
100
AcDbEntity
  8
16
100
AcDbLine
 10
1455.118388
 20
393.35293
 30
0.0
 11
1454.586992
 21
395.647011
 31
0.0
  0
LINE
  5
591
100
AcDbEntity
  8
16
100
AcDbLine
 10
1455.118388
 20
393.35293
 30
0.0
 11
1455.391842
 21
394.283882
 31
0.0
  0
LINE
  5
592
100
AcDbEntity
  8
16
100
AcDbLine
 10
1455.391842
 20
394.283882
 30
0.0
 11
1456.151147
 21
395.411727
 31
0.0
  0
LINE
  5
593
100
AcDbEntity
  8
16
100
AcDbLine
 10
1454.641842
 20
394.283882
 30
0.0
 11
1454.173083
 21
395.888391
 31
0.0
  0
LINE
  5
594
100
AcDbEntity
  8
16
100
AcDbLine
 10
1452.739233
 20
393.35293
 30
0.0
 11
1453.012688
 21
394.283882
 31
0.0
  0
LINE
  5
595
100
AcDbEntity
  8
16
100
AcDbLine
 10
1452.739233
 20
393.35293
 30
0.0
 11
1452.262688
 21
394.283882
 31
0.0
  0
LINE
  5
596
100
AcDbEntity
  8
16
100
AcDbLine
 10
1453.012688
 20
394.283882
 30
0.0
 11
1452.543929
 21
395.888391
 31
0.0
  0
LINE
  5
597
100
AcDbEntity
  8
16
100
AcDbLine
 10
1452.739233
 20
393.35293
 30
0.0
 11
1452.207838
 21
395.647011
 31
0.0
  0
LINE
  5
598
100
AcDbEntity
  8
16
100
AcDbLine
 10
1452.262688
 20
394.283882
 30
0.0
 11
1451.793929
 21
395.888391
 31
0.0
  0
LINE
  5
599
100
AcDbEntity
  8
16
100
AcDbLine
 10
1451.106248
 20
393.950461
 30
0.0
 11
1452.005622
 21
393.950461
 31
0.0
  0
LINE
  5
59A
100
AcDbEntity
  8
16
100
AcDbLine
 10
1448.518123
 20
393.950461
 30
0.0
 11
1449.417496
 21
393.950461
 31
0.0
  0
LINE
  5
59B
100
AcDbEntity
  8
16
100
AcDbLine
 10
1445.925646
 20
393.950461
 30
0.0
 11
1446.82502
 21
393.950461
 31
0.0
  0
LINE
  5
59C
100
AcDbEntity
  8
16
100
AcDbLine
 10
1447.739233
 20
393.35293
 30
0.0
 11
1447.262688
 21
394.283882
 31
0.0
  0
LINE
  5
59D
100
AcDbEntity
  8
16
100
AcDbLine
 10
1447.739233
 20
393.35293
 30
0.0
 11
1448.012688
 21
394.283882
 31
0.0
  0
LINE
  5
59E
100
AcDbEntity
  8
16
100
AcDbLine
 10
1448.012688
 20
394.283882
 30
0.0
 11
1447.543929
 21
395.888391
 31
0.0
  0
LINE
  5
59F
100
AcDbEntity
  8
16
100
AcDbLine
 10
1447.739233
 20
393.35293
 30
0.0
 11
1447.207838
 21
395.647011
 31
0.0
  0
LINE
  5
5A0
100
AcDbEntity
  8
16
100
AcDbLine
 10
1447.262688
 20
394.283882
 30
0.0
 11
1446.793929
 21
395.888391
 31
0.0
  0
LINE
  5
5A1
100
AcDbEntity
  8
16
100
AcDbLine
 10
1447.262688
 20
394.283882
 30
0.0
 11
1446.793929
 21
395.888391
 31
0.0
  0
LINE
  5
5A2
100
AcDbEntity
  8
16
100
AcDbLine
 10
1448.012688
 20
394.283882
 30
0.0
 11
1447.543929
 21
395.888391
 31
0.0
  0
LINE
  5
5A3
100
AcDbEntity
  8
16
100
AcDbLine
 10
1447.739233
 20
393.35293
 30
0.0
 11
1447.207838
 21
395.647011
 31
0.0
  0
LINE
  5
5A4
100
AcDbEntity
  8
16
100
AcDbLine
 10
1445.360079
 20
393.35293
 30
0.0
 11
1445.633534
 21
394.283882
 31
0.0
  0
LINE
  5
5A5
100
AcDbEntity
  8
16
100
AcDbLine
 10
1450.360079
 20
393.35293
 30
0.0
 11
1450.633534
 21
394.283882
 31
0.0
  0
LINE
  5
5A6
100
AcDbEntity
  8
16
100
AcDbLine
 10
1450.360079
 20
393.35293
 30
0.0
 11
1449.883534
 21
394.283882
 31
0.0
  0
LINE
  5
5A7
100
AcDbEntity
  8
16
100
AcDbLine
 10
1450.360079
 20
393.35293
 30
0.0
 11
1449.828684
 21
395.647011
 31
0.0
  0
LINE
  5
5A8
100
AcDbEntity
  8
16
100
AcDbLine
 10
1450.217454
 20
395.829316
 30
0.0
 11
1450.633534
 21
394.283882
 31
0.0
  0
LINE
  5
5A9
100
AcDbEntity
  8
16
100
AcDbLine
 10
1449.883534
 20
394.283882
 30
0.0
 11
1449.432034
 21
395.829316
 31
0.0
  0
LINE
  5
5AA
100
AcDbEntity
  8
16
100
AcDbLine
 10
1452.262688
 20
394.283882
 30
0.0
 11
1450.633534
 21
394.283882
 31
0.0
  0
ARC
  5
5AB
100
AcDbEntity
  8
16
100
AcDbCircle
 10
1463.908181
 20
388.432053
 30
0.0
 40
1.5
100
AcDbArc
 50
13.548759
 51
101.768289
  0
LINE
  5
5AC
100
AcDbEntity
  8
16
100
AcDbLine
 10
1459.908885
 20
388.121036
 30
0.0
 11
1459.905193
 21
383.975647
 31
0.0
  0
ARC
  5
5AD
100
AcDbEntity
  8
16
100
AcDbCircle
 10
1461.408885
 20
388.119699
 30
0.0
 40
1.5
100
AcDbArc
 50
101.768289
 51
179.94896
  0
ARC
  5
5AE
100
AcDbEntity
  8
16
100
AcDbCircle
 10
1461.408885
 20
388.119699
 30
0.0
 40
1.5
100
AcDbArc
 50
101.768289
 51
179.94896
  0
LINE
  5
5AF
100
AcDbEntity
  8
16
100
AcDbLine
 10
1457.905193
 20
394.975647
 30
0.0
 11
1457.905193
 21
391.475647
 31
0.0
  0
LINE
  5
5B0
100
AcDbEntity
  8
16
100
AcDbLine
 10
1461.102953
 20
389.58817
 30
0.0
 11
1463.602249
 21
389.900523
 31
0.0
  0
LWPOLYLINE
  5
5B1
100
AcDbEntity
  8
16
100
AcDbPolyline
 90
        4
 70
     0
 43
0.0
 10
1426.991065
 20
405.975647
 10
1459.905193
 20
405.975647
 10
1459.908885
 20
401.830259
 42
0.355006
 10
1461.102953
 20
400.363124
 42
0.355006
  0
LINE
  5
5B2
100
AcDbEntity
  8
RAM
100
AcDbLine
 10
1456.808043
 20
424.772161
 30
0.0
 11
1435.10767
 21
407.606119
 31
0.0
  0
LINE
  5
5B3
100
AcDbEntity
  8
RAM
100
AcDbLine
 10
1435.10767
 20
424.772161
 30
0.0
 11
1456.808043
 21
407.606119
 31
0.0
  0
LWPOLYLINE
  5
5B4
100
AcDbEntity
  8
RAM
100
AcDbPolyline
 90
        4
 70
     1
 43
0.0
 10
1456.808043
 20
424.772161
 10
1435.10767
 20
424.772161
 10
1435.10767
 20
407.606119
 10
1456.808043
 20
407.606119
  0
LINE
  5
5B5
100
AcDbEntity
  8
2
 62
     1
100
AcDbLine
 10
1426.991065
 20
405.975647
 30
0.0
 11
1426.991065
 21
407.975647
 31
0.0
  0
LINE
  5
5B6
100
AcDbEntity
  8
16
100
AcDbLine
 10
1426.991065
 20
407.975647
 30
0.0
 11
1424.991065
 21
405.975647
 31
0.0
  0
INSERT
  5
5B7
100
AcDbEntity
  8
GLASMFOGNING
100
AcDbBlockReference
  2
*X5
 10
2180.0
 20
-1203.0
 30
0.0
 50
90.0
1001
ACAD
1000
HATCH
1002
{
1070
    16
1000
ANSI38
1040
4.0
1040
0.0
1002
}
  0
LWPOLYLINE
  5
5B8
100
AcDbEntity
  8
GLASMFOGNING
100
AcDbPolyline
 90
        4
 70
     1
 43
0.0
 10
1432.0
 20
422.0
 10
1434.962305
 20
422.0
 10
1434.962305
 20
412.181243
 10
1432.0
 20
412.181243
  0
LINE
  5
5B9
100
AcDbEntity
  8
16
100
AcDbLine
 10
1453.905193
 20
402.975647
 30
0.0
 11
1453.905193
 21
398.04765
 31
0.0
  0
LWPOLYLINE
  5
5BA
100
AcDbEntity
  8
GLASMFOGNING
100
AcDbPolyline
 90
        4
 70
     1
 43
0.0
 10
1460.0
 20
422.0
 10
1457.037695
 20
422.0
 10
1457.037695
 20
412.181243
 10
1460.0
 20
412.181243
  0
INSERT
  5
5BB
100
AcDbEntity
  8
GLASMFOGNING
100
AcDbBlockReference
  2
*X6
 10
2185.0
 20
-1203.0
 30
0.0
 50
90.0
1001
ACAD
1000
HATCH
1002
{
1070
    16
1000
ANSI38
1040
4.0
1040
0.0
1002
}
  0
LINE
  5
5BC
100
AcDbEntity
  8
16
 62
   143
100
AcDbLine
 10
1470.935887
 20
394.257234
 30
0.0
 11
1470.935887
 21
395.957234
 31
0.0
  0
LINE
  5
5BD
100
AcDbEntity
  8
16
 62
   143
100
AcDbLine
 10
1471.396104
 20
394.505086
 30
0.0
 11
1471.396104
 21
395.713603
 31
0.0
  0
LINE
  5
5BE
100
AcDbEntity
  8
16
 62
   143
100
AcDbLine
 10
1470.93177
 20
394.255015
 30
0.0
 11
1471.396104
 21
394.505086
 31
0.0
  0
LWPOLYLINE
  5
5BF
100
AcDbEntity
  8
16
 62
   143
100
AcDbPolyline
 90
        2
 70
     0
 43
0.0
 10
1470.699309
 20
395.957234
 10
1470.957839
 20
395.957234
  0
TEXT
  5
5C0
100
AcDbEntity
  8
TEXT
 62
     6
100
AcDbText
 10
1473.908187
 20
407.387288
 30
0.0
 40
5.0
  1
%%USP 6050
 41
0.8
  7
ROMANS
 72
     1
 11
1486.846282
 21
407.387288
 31
0.0
100
AcDbText
  0
LINE
  5
5C1
100
AcDbEntity
  8
RAM
100
AcDbLine
 10
1676.0
 20
419.0
 30
0.0
 11
1676.0
 21
325.0
 31
0.0
  0
LINE
  5
5C2
100
AcDbEntity
  8
RAM
100
AcDbLine
 10
1676.0
 20
319.0
 30
0.0
 11
1676.0
 21
231.0
 31
0.0
  0
LINE
  5
5C3
100
AcDbEntity
  8
RAM
100
AcDbLine
 10
1964.0
 20
419.0
 30
0.0
 11
1870.0
 21
419.0
 31
0.0
  0
LINE
  5
5C4
100
AcDbEntity
  8
RAM
100
AcDbLine
 10
1870.0
 20
325.0
 30
0.0
 11
1964.0
 21
325.0
 31
0.0
  0
LINE
  5
5C5
100
AcDbEntity
  8
RAM
100
AcDbLine
 10
1870.0
 20
319.0
 30
0.0
 11
1964.0
 21
319.0
 31
0.0
  0
LINE
  5
5C6
100
AcDbEntity
  8
RAM
100
AcDbLine
 10
1870.0
 20
231.0
 30
0.0
 11
1964.0
 21
231.0
 31
0.0
  0
LINE
  5
5C7
100
AcDbEntity
  8
RAM
100
AcDbLine
 10
1870.0
 20
225.0
 30
0.0
 11
1964.0
 21
225.0
 31
0.0
  0
LINE
  5
5C8
100
AcDbEntity
  8
RAM
100
AcDbLine
 10
1870.0
 20
419.0
 30
0.0
 11
1870.0
 21
325.0
 31
0.0
  0
LINE
  5
5C9
100
AcDbEntity
  8
RAM
100
AcDbLine
 10
1864.0
 20
419.0
 30
0.0
 11
1864.0
 21
325.0
 31
0.0
  0
LINE
  5
5CA
100
AcDbEntity
  8
RAM
100
AcDbLine
 10
1776.0
 20
419.0
 30
0.0
 11
1776.0
 21
325.0
 31
0.0
  0
LINE
  5
5CB
100
AcDbEntity
  8
RAM
100
AcDbLine
 10
1770.0
 20
419.0
 30
0.0
 11
1770.0
 21
325.0
 31
0.0
  0
LINE
  5
5CC
100
AcDbEntity
  8
RAM
100
AcDbLine
 10
1776.0
 20
325.0
 30
0.0
 11
1864.0
 21
325.0
 31
0.0
  0
LINE
  5
5CD
100
AcDbEntity
  8
RAM
100
AcDbLine
 10
1776.0
 20
319.0
 30
0.0
 11
1864.0
 21
319.0
 31
0.0
  0
LINE
  5
5CE
100
AcDbEntity
  8
RAM
100
AcDbLine
 10
1776.0
 20
231.0
 30
0.0
 11
1864.0
 21
231.0
 31
0.0
  0
LINE
  5
5CF
100
AcDbEntity
  8
RAM
100
AcDbLine
 10
1776.0
 20
225.0
 30
0.0
 11
1864.0
 21
225.0
 31
0.0
  0
LINE
  5
5D0
100
AcDbEntity
  8
RAM
100
AcDbLine
 10
1776.0
 20
319.0
 30
0.0
 11
1776.0
 21
231.0
 31
0.0
  0
LINE
  5
5D1
100
AcDbEntity
  8
RAM
100
AcDbLine
 10
1770.0
 20
319.0
 30
0.0
 11
1770.0
 21
231.0
 31
0.0
  0
LINE
  5
5D2
100
AcDbEntity
  8
RAM
100
AcDbLine
 10
1864.0
 20
319.0
 30
0.0
 11
1864.0
 21
231.0
 31
0.0
  0
LINE
  5
5D3
100
AcDbEntity
  8
RAM
100
AcDbLine
 10
1870.0
 20
319.0
 30
0.0
 11
1870.0
 21
231.0
 31
0.0
  0
LINE
  5
5D4
100
AcDbEntity
  8
RAM
100
AcDbLine
 10
1864.0
 20
419.0
 30
0.0
 11
1776.0
 21
419.0
 31
0.0
  0
LINE
  5
5D5
100
AcDbEntity
  8
RAM
100
AcDbLine
 10
1964.0
 20
325.0
 30
0.0
 11
1964.0
 21
419.0
 31
0.0
  0
LINE
  5
5D6
100
AcDbEntity
  8
RAM
100
AcDbLine
 10
1964.0
 20
231.0
 30
0.0
 11
1964.0
 21
319.0
 31
0.0
  0
ENDSEC
  0
SECTION
  2
OBJECTS
  0
DICTIONARY
  5
1A
100
AcDbDictionary
  3
ACAD_GROUP
350
18
  3
ACAD_LAYOUT
350
5DA
  3
ACAD_MLINESTYLE
350
19
  3
ACAD_PLOTSETTINGS
350
5DB
  3
ACAD_PLOTSTYLENAME
350
5D8
  3
ACDBHEADERROUNDTRIPXREC
350
5E4
  0
DICTIONARY
  5
5E2
100
AcDbDictionary
280
     1
  3
ACAD_XREC_ROUNDTRIP
360
5E3
  0
DICTIONARY
  5
604
100
AcDbDictionary
280
     1
  3
ACAD_LAYOUTSELFREF
360
605
  0
DICTIONARY
  5
606
100
AcDbDictionary
280
     1
  3
ACAD_LAYOUTSELFREF
360
607
  0
DICTIONARY
  5
18
102
{ACAD_REACTORS
330
1A
102
}
100
AcDbDictionary
  0
DICTIONARY
  5
5DA
102
{ACAD_XDICTIONARY
360
609
102
}
102
{ACAD_REACTORS
330
1A
102
}
100
AcDbDictionary
  3
LAYOUT1
350
5DD
  3
MODEL
350
5DC
  0
DICTIONARY
  5
19
102
{ACAD_REACTORS
330
1A
102
}
100
AcDbDictionary
  3
STANDARD
350
1C
  0
DICTIONARY
  5
5DB
102
{ACAD_REACTORS
330
1A
102
}
100
AcDbDictionary
  0
ACAD_PROXY_OBJECT
  5
5D8
102
{ACAD_REACTORS
330
1A
102
}
100
AcDbProxyObject
 90
      499
 91
      503
 93
       86
310
405010041939BDC9B585B0
350
5D9
340
5D9
 94
        0
  0
DICTIONARY
  5
5E4
102
{ACAD_REACTORS
330
1A
102
}
100
AcDbDictionary
  3
CEPSNTYPE
350
5EE
  3
FINGERPRINTGUID
350
5EF
  3
HYPERLINKBASE
350
5E7
  3
INSUNITS
350
5ED
  3
LAYOUTDICT
350
5E9
  3
LWETCUNION
350
5EC
  3
PLOTSETDICT
350
5EA
  3
PLOTSTYLNAMDICT
350
5EB
  3
PSVPSCALE
350
5F1
  3
PUCSBASE
350
5F4
  3
PUCSORGBACK
350
5FA
  3
PUCSORGBOTTOM
350
5F6
  3
PUCSORGFRONT
350
5F9
  3
PUCSORGLEFT
350
5F7
  3
PUCSORGRIGHT
350
5F8
  3
PUCSORGTOP
350
5F5
  3
PUCSORTHOREF
350
5F2
  3
PUCSORTHOVIEW
350
5F3
  3
STYLESHEET
350
5E8
  3
TSTACKALIGN
350
5E5
  3
TSTACKSIZE
350
5E6
  3
UCSBASE
350
5FD
  3
UCSORGBACK
350
603
  3
UCSORGBOTTOM
350
5FF
  3
UCSORGFRONT
350
602
  3
UCSORGLEFT
350
600
  3
UCSORGRIGHT
350
601
  3
UCSORGTOP
350
5FE
  3
UCSORTHOREF
350
5FB
  3
UCSORTHOVIEW
350
5FC
  3
VERSIONGUID
350
5F0
  0
XRECORD
  5
5E3
102
{ACAD_REACTORS
330
5E2
102
}
100
AcDbXrecord
102
EXTNAMES
  1
*ACTIVE
  2
*Active
102
UCS
 74
     0
 71
     1
 10
0.0
 20
0.0
 30
0.0
 10
1.0
 20
0.0
 30
0.0
 10
0.0
 20
1.0
 30
0.0
146
0.0
 79
     0
102
VIEW
281
     0
  0
XRECORD
  5
605
102
{ACAD_REACTORS
330
604
102
}
100
AcDbXrecord
340
2
  0
XRECORD
  5
607
102
{ACAD_REACTORS
330
606
102
}
100
AcDbXrecord
340
7
  0
DICTIONARY
  5
609
100
AcDbDictionary
280
     1
  3
ACAD_XREC_ROUNDTRIP
360
60A
  0
ACAD_PROXY_OBJECT
  5
5DD
102
{ACAD_REACTORS
330
5DA
102
}
100
AcDbProxyObject
 90
      499
 91
      505
 93
     1092
310
91D4850204C617365724A65742034562F344D5620506F73745363726970742C00AAAAAA416AA591069074C61796F75743140501A800000000000000000000000000000000000000000101E900000000000241C902A6A6A10232D5E076BC5510408CB5781DAF154410232D5E076BC5510408CB5781DAF15C410232D5E076BC5
310
710408CB5781DAF15C47
330
7
330
0
340
0
340
0
 94
        0
  0
ACAD_PROXY_OBJECT
  5
5DC
102
{ACAD_REACTORS
330
5DA
102
}
100
AcDbProxyObject
 90
      499
 91
      505
 93
      668
310
91D4850204C617365724A65742034562F344D5620506F73745363726970742C01AAAAAAAAA5A69054D6F64656C901A800000000000000000000000000000000000000000000A1000000000000008902A6A6AAAA5
330
2
330
0
340
0
340
0
 94
        0
  0
MLINESTYLE
  5
1C
102
{ACAD_REACTORS
330
19
102
}
100
AcDbMlineStyle
  2
STANDARD
 70
     0
  3

 62
     0
 51
90.0
 52
90.0
 71
     2
 49
0.5
 62
   256
  6
BYLAYER
 49
-0.5
 62
   256
  6
BYLAYER
  0
ACAD_PROXY_OBJECT
  5
5D9
102
{ACAD_REACTORS
330
5D8
102
}
100
AcDbProxyObject
 90
      499
 91
      504
 93
        0
 94
        0
  0
XRECORD
  5
5EE
102
{ACAD_REACTORS
330
5E4
102
}
100
AcDbXrecord
 90
        0
  0
XRECORD
  5
5EF
102
{ACAD_REACTORS
330
5E4
102
}
100
AcDbXrecord
  1
{DCFA098E-0BE8-11D6-AA0B-00D0B7E2A69D}
  0
XRECORD
  5
5E7
102
{ACAD_REACTORS
330
5E4
102
}
100
AcDbXrecord
  1

  0
XRECORD
  5
5ED
102
{ACAD_REACTORS
330
5E4
102
}
100
AcDbXrecord
 90
        0
  0
XRECORD
  5
5E9
102
{ACAD_REACTORS
330
5E4
102
}
100
AcDbXrecord
340
5DA
  0
XRECORD
  5
5EC
102
{ACAD_REACTORS
330
5E4
102
}
100
AcDbXrecord
 90
    14877
  0
XRECORD
  5
5EA
102
{ACAD_REACTORS
330
5E4
102
}
100
AcDbXrecord
340
5DB
  0
XRECORD
  5
5EB
102
{ACAD_REACTORS
330
5E4
102
}
100
AcDbXrecord
340
5D8
  0
XRECORD
  5
5F1
102
{ACAD_REACTORS
330
5E4
102
}
100
AcDbXrecord
 40
0.0
  0
XRECORD
  5
5F4
102
{ACAD_REACTORS
330
5E4
102
}
100
AcDbXrecord
340
0
  0
XRECORD
  5
5FA
102
{ACAD_REACTORS
330
5E4
102
}
100
AcDbXrecord
 10
0.0
 20
0.0
 30
0.0
  0
XRECORD
  5
5F6
102
{ACAD_REACTORS
330
5E4
102
}
100
AcDbXrecord
 10
0.0
 20
0.0
 30
0.0
  0
XRECORD
  5
5F9
102
{ACAD_REACTORS
330
5E4
102
}
100
AcDbXrecord
 10
0.0
 20
0.0
 30
0.0
  0
XRECORD
  5
5F7
102
{ACAD_REACTORS
330
5E4
102
}
100
AcDbXrecord
 10
0.0
 20
0.0
 30
0.0
  0
XRECORD
  5
5F8
102
{ACAD_REACTORS
330
5E4
102
}
100
AcDbXrecord
 10
0.0
 20
0.0
 30
0.0
  0
XRECORD
  5
5F5
102
{ACAD_REACTORS
330
5E4
102
}
100
AcDbXrecord
 10
0.0
 20
0.0
 30
0.0
  0
XRECORD
  5
5F2
102
{ACAD_REACTORS
330
5E4
102
}
100
AcDbXrecord
340
0
  0
XRECORD
  5
5F3
102
{ACAD_REACTORS
330
5E4
102
}
100
AcDbXrecord
 70
     0
  0
XRECORD
  5
5E8
102
{ACAD_REACTORS
330
5E4
102
}
100
AcDbXrecord
  1

  0
XRECORD
  5
5E5
102
{ACAD_REACTORS
330
5E4
102
}
100
AcDbXrecord
 90
        1
  0
XRECORD
  5
5E6
102
{ACAD_REACTORS
330
5E4
102
}
100
AcDbXrecord
 90
       70
  0
XRECORD
  5
5FD
102
{ACAD_REACTORS
330
5E4
102
}
100
AcDbXrecord
340
0
  0
XRECORD
  5
603
102
{ACAD_REACTORS
330
5E4
102
}
100
AcDbXrecord
 10
0.0
 20
0.0
 30
0.0
  0
XRECORD
  5
5FF
102
{ACAD_REACTORS
330
5E4
102
}
100
AcDbXrecord
 10
0.0
 20
0.0
 30
0.0
  0
XRECORD
  5
602
102
{ACAD_REACTORS
330
5E4
102
}
100
AcDbXrecord
 10
0.0
 20
0.0
 30
0.0
  0
XRECORD
  5
600
102
{ACAD_REACTORS
330
5E4
102
}
100
AcDbXrecord
 10
0.0
 20
0.0
 30
0.0
  0
XRECORD
  5
601
102
{ACAD_REACTORS
330
5E4
102
}
100
AcDbXrecord
 10
0.0
 20
0.0
 30
0.0
  0
XRECORD
  5
5FE
102
{ACAD_REACTORS
330
5E4
102
}
100
AcDbXrecord
 10
0.0
 20
0.0
 30
0.0
  0
XRECORD
  5
5FB
102
{ACAD_REACTORS
330
5E4
102
}
100
AcDbXrecord
340
0
  0
XRECORD
  5
5FC
102
{ACAD_REACTORS
330
5E4
102
}
100
AcDbXrecord
 70
     0
  0
XRECORD
  5
5F0
102
{ACAD_REACTORS
330
5E4
102
}
100
AcDbXrecord
  1
{DCFA0990-0BE8-11D6-AA0B-00D0B7E2A69D}
  0
XRECORD
  5
60A
102
{ACAD_REACTORS
330
609
102
}
100
AcDbXrecord
102
EXTNAMES
  1
LAYOUT1
  2
Layout1
  1
MODEL
  2
Model
  0
ENDSEC
  0
EOF
