  0
SECTION
  2
HEADER
  9
$ACADVER
  1
AC1014
  9
$ACADMAINTVER
 70
     0
  9
$DWGCODEPAGE
  3
ANSI_1252
  9
$INSBASE
 10
-845.0
 20
5.0
 30
0.0
  9
$EXTMIN
 10
-506.719112
 20
-4.293809
 30
0.0
  9
$EXTMAX
 10
10.780888
 20
748.477225
 30
0.0
  9
$LIMMIN
 10
0.0
 20
0.0
  9
$LIMMAX
 10
840.0
 20
600.0
  9
$ORTHOMODE
 70
     0
  9
$REGENMODE
 70
     1
  9
$FILLMODE
 70
     1
  9
$QTEXTMODE
 70
     0
  9
$MIRRTEXT
 70
     1
  9
$DRAGMODE
 70
     2
  9
$LTSCALE
 40
5.0
  9
$OSMODE
 70
     0
  9
$ATTMODE
 70
     1
  9
$TEXTSIZE
 40
5.0
  9
$TRACEWID
 40
0.05
  9
$TEXTSTYLE
  7
ROMANS
  9
$CLAYER
  8
GLAS_MED_FOGNING
  9
$CELTYPE
  6
BYLAYER
  9
$CECOLOR
 62
   256
  9
$CELTSCALE
 40
1.0
  9
$DELOBJ
 70
     1
  9
$DISPSILH
 70
     0
  9
$DIMSCALE
 40
1.2
  9
$DIMASZ
 40
0.0
  9
$DIMEXO
 40
1.0
  9
$DIMDLI
 40
10.0
  9
$DIMRND
 40
0.0
  9
$DIMDLE
 40
0.0
  9
$DIMEXE
 40
2.0
  9
$DIMTP
 40
0.0
  9
$DIMTM
 40
0.0
  9
$DIMTXT
 40
3.0
  9
$DIMCEN
 40
2.5
  9
$DIMTSZ
 40
1.0
  9
$DIMTOL
 70
     0
  9
$DIMLIM
 70
     0
  9
$DIMTIH
 70
     0
  9
$DIMTOH
 70
     0
  9
$DIMSE1
 70
     0
  9
$DIMSE2
 70
     0
  9
$DIMTAD
 70
     1
  9
$DIMZIN
 70
     8
  9
$DIMBLK
  1

  9
$DIMASO
 70
     1
  9
$DIMSHO
 70
     1
  9
$DIMPOST
  1

  9
$DIMAPOST
  1

  9
$DIMALT
 70
     0
  9
$DIMALTD
 70
     2
  9
$DIMALTF
 40
25.4
  9
$DIMLFAC
 40
1.0
  9
$DIMTOFL
 70
     1
  9
$DIMTVP
 40
0.0
  9
$DIMTIX
 70
     0
  9
$DIMSOXD
 70
     0
  9
$DIMSAH
 70
     0
  9
$DIMBLK1
  1

  9
$DIMBLK2
  1

  9
$DIMSTYLE
  2
ROMANS
  9
$DIMCLRD
 70
     0
  9
$DIMCLRE
 70
     0
  9
$DIMCLRT
 70
     6
  9
$DIMTFAC
 40
1.0
  9
$DIMGAP
 40
1.25
  9
$DIMJUST
 70
     0
  9
$DIMSD1
 70
     0
  9
$DIMSD2
 70
     0
  9
$DIMTOLJ
 70
     1
  9
$DIMTZIN
 70
     0
  9
$DIMALTZ
 70
     0
  9
$DIMALTTZ
 70
     0
  9
$DIMFIT
 70
     3
  9
$DIMUPT
 70
     0
  9
$DIMUNIT
 70
     2
  9
$DIMDEC
 70
     4
  9
$DIMTDEC
 70
     4
  9
$DIMALTU
 70
     2
  9
$DIMALTTD
 70
     2
  9
$DIMTXSTY
  7
STANDARD
  9
$DIMAUNIT
 70
     0
  9
$LUNITS
 70
     2
  9
$LUPREC
 70
     2
  9
$SKETCHINC
 40
0.1
  9
$FILLETRAD
 40
0.5
  9
$AUNITS
 70
     0
  9
$AUPREC
 70
     4
  9
$MENU
  1
acad
  9
$ELEVATION
 40
0.0
  9
$PELEVATION
 40
0.0
  9
$THICKNESS
 40
0.0
  9
$LIMCHECK
 70
     0
  9
$BLIPMODE
 70
     1
  9
$CHAMFERA
 40
10.0
  9
$CHAMFERB
 40
10.0
  9
$CHAMFERC
 40
0.0
  9
$CHAMFERD
 40
0.0
  9
$SKPOLY
 70
     0
  9
$TDCREATE
 40
2450609.793525810
  9
$TDUPDATE
 40
2452293.631641898
  9
$TDINDWG
 40
1.4504680556
  9
$TDUSRTIMER
 40
1.4504680556
  9
$USRTIMER
 70
     1
  9
$ANGBASE
 50
0.0
  9
$ANGDIR
 70
     0
  9
$PDMODE
 70
    35
  9
$PDSIZE
 40
0.0
  9
$PLINEWID
 40
0.0
  9
$COORDS
 70
     2
  9
$SPLFRAME
 70
     0
  9
$SPLINETYPE
 70
     6
  9
$SPLINESEGS
 70
     8
  9
$ATTDIA
 70
     0
  9
$ATTREQ
 70
     1
  9
$HANDLING
 70
     1
  9
$HANDSEED
  5
1BD
  9
$SURFTAB1
 70
     6
  9
$SURFTAB2
 70
     6
  9
$SURFTYPE
 70
     6
  9
$SURFU
 70
     6
  9
$SURFV
 70
     6
  9
$UCSNAME
  2

  9
$UCSORG
 10
0.0
 20
0.0
 30
0.0
  9
$UCSXDIR
 10
1.0
 20
0.0
 30
0.0
  9
$UCSYDIR
 10
0.0
 20
1.0
 30
0.0
  9
$PUCSNAME
  2

  9
$PUCSORG
 10
0.0
 20
0.0
 30
0.0
  9
$PUCSXDIR
 10
1.0
 20
0.0
 30
0.0
  9
$PUCSYDIR
 10
0.0
 20
1.0
 30
0.0
  9
$USERI1
 70
     0
  9
$USERI2
 70
     0
  9
$USERI3
 70
     0
  9
$USERI4
 70
     0
  9
$USERI5
 70
     0
  9
$USERR1
 40
0.0
  9
$USERR2
 40
0.0
  9
$USERR3
 40
0.0
  9
$USERR4
 40
0.0
  9
$USERR5
 40
0.0
  9
$WORLDVIEW
 70
     1
  9
$SHADEDGE
 70
     3
  9
$SHADEDIF
 70
    70
  9
$TILEMODE
 70
     1
  9
$MAXACTVP
 70
    16
  9
$PINSBASE
 10
0.0
 20
0.0
 30
0.0
  9
$PLIMCHECK
 70
     0
  9
$PEXTMIN
 10
1.000000E+20
 20
1.000000E+20
 30
1.000000E+20
  9
$PEXTMAX
 10
-1.000000E+20
 20
-1.000000E+20
 30
-1.000000E+20
  9
$PLIMMIN
 10
0.0
 20
0.0
  9
$PLIMMAX
 10
420.0
 20
297.0
  9
$UNITMODE
 70
     0
  9
$VISRETAIN
 70
     0
  9
$PLINEGEN
 70
     0
  9
$PSLTSCALE
 70
     1
  9
$TREEDEPTH
 70
  3020
  9
$PICKSTYLE
 70
     1
  9
$CMLSTYLE
  2
STANDARD
  9
$CMLJUST
 70
     0
  9
$CMLSCALE
 40
1.0
  9
$PROXYGRAPHICS
 70
     1
  9
$MEASUREMENT
 70
     0
  0
ENDSEC
  0
SECTION
  2
CLASSES
  0
CLASS
  1
LWPOLYLINE
  2
AcDbPolyline
  3
"AutoCAD"
 90
        0
280
     0
281
     1
  0
CLASS
  1
HATCH
  2
AcDbHatch
  3
"ACAD_SEDONA"
 90
        0
280
     0
281
     1
  0
CLASS
  1
DICTIONARYVAR
  2
AcDbDictionaryVar
  3
"AutoCAD"
 90
        0
280
     0
281
     0
  0
ENDSEC
  0
SECTION
  2
TABLES
  0
TABLE
  2
VPORT
  5
12
100
AcDbSymbolTable
 70
     1
  0
VPORT
  5
1B7
100
AcDbSymbolTableRecord
100
AcDbViewportTableRecord
  2
*ACTIVE
 70
     0
 10
0.0
 20
0.0
 11
1.0
 21
1.0
 12
166.596446
 22
372.082269
 13
0.0
 23
0.0
 14
5.0
 24
5.0
 15
10.0
 25
10.0
 16
0.0
 26
0.0
 36
1.0
 17
0.0
 27
0.0
 37
0.0
 40
916.945598
 41
1.47625
 42
50.0
 43
0.0
 44
0.0
 50
0.0
 51
0.0
 71
     0
 72
   100
 73
     1
 74
     1
 75
     1
 76
     0
 77
     0
 78
     1
  0
ENDTAB
  0
TABLE
  2
LTYPE
  5
D
100
AcDbSymbolTable
 70
     1
  0
LTYPE
  5
E
100
AcDbSymbolTableRecord
100
AcDbLinetypeTableRecord
  2
BYBLOCK
 70
     0
  3

 72
    65
 73
     0
 40
0.0
  0
LTYPE
  5
F
100
AcDbSymbolTableRecord
100
AcDbLinetypeTableRecord
  2
BYLAYER
 70
     0
  3

 72
    65
 73
     0
 40
0.0
  0
LTYPE
  5
5
100
AcDbSymbolTableRecord
100
AcDbLinetypeTableRecord
  2
CONTINUOUS
 70
     0
  3
Solid line
 72
    65
 73
     0
 40
0.0
  0
ENDTAB
  0
TABLE
  2
LAYER
  5
A
100
AcDbSymbolTable
 70
     6
  0
LAYER
  5
4
100
AcDbSymbolTableRecord
100
AcDbLayerTableRecord
  2
0
 70
     0
 62
     7
  6
CONTINUOUS
  0
LAYER
  5
1B
100
AcDbSymbolTableRecord
100
AcDbLayerTableRecord
  2
GLAS_MED_FOGNING
 70
     0
 62
     2
  6
CONTINUOUS
  0
LAYER
  5
36
100
AcDbSymbolTableRecord
100
AcDbLayerTableRecord
  2
TEXT
 70
     0
 62
     6
  6
CONTINUOUS
  0
LAYER
  5
20
100
AcDbSymbolTableRecord
100
AcDbLayerTableRecord
  2
RAM
 70
     0
 62
     5
  6
CONTINUOUS
  0
LAYER
  5
23
100
AcDbSymbolTableRecord
100
AcDbLayerTableRecord
  2
RAMTEXT
 70
     0
 62
     6
  6
CONTINUOUS
  0
LAYER
  5
A0
100
AcDbSymbolTableRecord
100
AcDbLayerTableRecord
  2
FOGNINGB
 70
     0
 62
     5
  6
CONTINUOUS
  0
ENDTAB
  0
TABLE
  2
STYLE
  5
B
100
AcDbSymbolTable
 70
     4
  0
STYLE
  5
C
100
AcDbSymbolTableRecord
100
AcDbTextStyleTableRecord
  2
STANDARD
 70
     0
 40
0.0
 41
1.0
 50
0.0
 71
     0
 42
5.0
  3
txt
  4

  0
STYLE
  5
1C
100
AcDbSymbolTableRecord
100
AcDbTextStyleTableRecord
  2
ROMANS
 70
     0
 40
0.0
 41
0.8
 50
0.0
 71
     0
 42
5.0
  3
romans
  4

  0
STYLE
  5
5D
100
AcDbSymbolTableRecord
100
AcDbTextStyleTableRecord
  2
ROMANT
 70
     0
 40
0.0
 41
0.8
 50
0.0
 71
     0
 42
5.0
  3
romant
  4

  0
STYLE
  5
A1
100
AcDbSymbolTableRecord
100
AcDbTextStyleTableRecord
  2
ISO
 70
     0
 40
0.0
 41
1.0
 50
0.0
 71
     0
 42
3.15
  3
romans.shx
  4

  0
ENDTAB
  0
TABLE
  2
VIEW
  5
10
100
AcDbSymbolTable
 70
     0
  0
ENDTAB
  0
TABLE
  2
UCS
  5
11
100
AcDbSymbolTable
 70
     0
  0
ENDTAB
  0
TABLE
  2
APPID
  5
14
100
AcDbSymbolTable
 70
     3
  0
APPID
  5
15
100
AcDbSymbolTableRecord
100
AcDbRegAppTableRecord
  2
ACAD
 70
     0
  0
APPID
  5
97
100
AcDbSymbolTableRecord
100
AcDbRegAppTableRecord
  2
CONTENTTABDATA
 70
     0
  0
APPID
  5
98
100
AcDbSymbolTableRecord
100
AcDbRegAppTableRecord
  2
CONTENTCURRENTTAB
 70
     0
  0
ENDTAB
  0
TABLE
  2
DIMSTYLE
  5
16
100
AcDbSymbolTable
 70
     1
  0
DIMSTYLE
105
1E
100
AcDbSymbolTableRecord
100
AcDbDimStyleTableRecord
  2
ROMANS
 70
     0
  3

  4

  5

  6

  7

 40
1.2
 41
0.0
 42
1.0
 43
10.0
 44
2.0
 45
0.0
 46
0.0
 47
0.0
 48
0.0
140
3.5
141
2.5
142
1.0
143
25.4
144
1.0
145
0.0
146
1.0
147
0.1
 71
     0
 72
     0
 73
     0
 74
     0
 75
     0
 76
     0
 77
     1
 78
     8
170
     0
171
     2
172
     1
173
     0
174
     0
175
     0
176
     0
177
     0
178
     6
270
     2
271
     2
272
     2
273
     2
274
     2
340
1C
275
     0
280
     0
281
     0
282
     0
283
     1
284
     8
285
     8
286
     8
287
     5
288
     0
  0
ENDTAB
  0
TABLE
  2
BLOCK_RECORD
  5
1
100
AcDbSymbolTable
 70
     1
  0
BLOCK_RECORD
  5
2
100
AcDbSymbolTableRecord
100
AcDbBlockTableRecord
  2
*MODEL_SPACE
  0
BLOCK_RECORD
  5
7
100
AcDbSymbolTableRecord
100
AcDbBlockTableRecord
  2
*PAPER_SPACE
  0
BLOCK_RECORD
  5
A2
100
AcDbSymbolTableRecord
100
AcDbBlockTableRecord
  2
4-2490-A
  0
ENDTAB
  0
ENDSEC
  0
SECTION
  2
BLOCKS
  0
BLOCK
  5
3
100
AcDbEntity
  8
0
100
AcDbBlockBegin
  2
*MODEL_SPACE
 70
     2
 10
0.0
 20
0.0
 30
0.0
  3
*MODEL_SPACE
  1

  0
ENDBLK
  5
6
100
AcDbEntity
  8
0
100
AcDbBlockEnd
  0
BLOCK
  5
8
100
AcDbEntity
 67
     1
  8
0
100
AcDbBlockBegin
  2
*PAPER_SPACE
 70
     0
 10
0.0
 20
0.0
 30
0.0
  3
*PAPER_SPACE
  1

  0
ENDBLK
  5
9
100
AcDbEntity
 67
     1
  8
0
100
AcDbBlockEnd
  0
BLOCK
  5
112
100
AcDbEntity
  8
0
100
AcDbBlockBegin
  2
4-2490-A
 70
     0
 10
0.0
 20
0.0
 30
0.0
  3
4-2490-A
  1

  0
LINE
  5
A3
100
AcDbEntity
  8
RAM
100
AcDbLine
 10
669.094106
 20
-1.956195
 30
0.0
 11
674.719106
 21
9.293805
 31
0.0
  0
LINE
  5
A4
100
AcDbEntity
  8
RAM
100
AcDbLine
 10
674.719106
 20
9.293805
 30
0.0
 11
680.344106
 21
-1.956195
 31
0.0
  0
LINE
  5
A5
100
AcDbEntity
  8
RAM
100
AcDbLine
 10
622.969106
 20
-3.206195
 30
0.0
 11
622.969106
 21
9.293805
 31
0.0
  0
TEXT
  5
A6
100
AcDbEntity
  8
TEXT
 62
     1
100
AcDbText
 10
771.867509
 20
684.634466
 30
0.0
 40
13.5
  1
STALPROFIL AB
 41
0.8
  7
ROMANT
100
AcDbText
  0
TEXT
  5
A7
100
AcDbEntity
  8
TEXT
 62
     1
100
AcDbText
 10
660.339297
 20
662.634466
 30
0.0
 40
10.8
  1
GENERAL INSTRUCTIONS SP 35000 E30/E60/EI30/EI60
 41
0.8
  7
ROMANT
100
AcDbText
  0
TEXT
  5
A8
100
AcDbEntity
  8
RAMTEXT
 62
     6
100
AcDbText
 10
617.698631
 20
383.614591
 30
0.0
 40
6.695628
  1
Mortise lock with drop bolt. The bolt must not be lockable and must 
 41
0.8
  7
ROMANS
100
AcDbText
  0
TEXT
  5
A9
100
AcDbEntity
  8
RAMTEXT
 62
     6
100
AcDbText
 10
618.269132
 20
373.243967
 30
0.0
 40
6.695628
  1
gear at least 7 mm into the locking plate. The drop bolt and the 
 41
0.8
  7
ROMANS
100
AcDbText
  0
TEXT
  5
AA
100
AcDbEntity
  8
RAMTEXT
 62
     6
100
AcDbText
 10
617.796645
 20
624.045174
 30
0.0
 40
6.695628
  1
Frame profiles are jointed by welding. Sections are jointed
 41
0.8
  7
ROMANS
100
AcDbText
  0
TEXT
  5
AB
100
AcDbEntity
  8
RAMTEXT
 62
     6
100
AcDbText
 10
619.15364
 20
550.679603
 30
0.0
 40
6.695628
  1
The door can be performed without threshold and with an opening with the underedge of the door 
 41
0.8
  7
ROMANS
100
AcDbText
  0
TEXT
  5
AC
100
AcDbEntity
  8
RAMTEXT
 62
     6
100
AcDbText
 10
619.15364
 20
541.322196
 30
0.0
 40
6.695628
  1
of max 10 mm doors in this cases optional type of bristlebead, automatic threshold or rubber seal.
 41
0.8
  7
ROMANS
100
AcDbText
  0
TEXT
  5
AD
100
AcDbEntity
  8
RAMTEXT
 62
     6
100
AcDbText
 10
618.571911
 20
586.320766
 30
0.0
 40
6.695628
  1
The sides and the lower edge of the section are welded or screwed. 
 41
0.8
  7
ROMANS
100
AcDbText
  0
TEXT
  5
AE
100
AcDbEntity
  8
RAMTEXT
 62
     6
100
AcDbText
 10
618.490246
 20
576.738
 30
0.0
 40
6.695628
  1
Movable fixing for the upper edge see drawing no..4-2355-B and 4-2508
 41
0.8
  7
ROMANS
100
AcDbText
  0
TEXT
  5
AF
100
AcDbEntity
  8
RAMTEXT
 62
     6
100
AcDbText
 10
619.15364
 20
530.521899
 30
0.0
 40
6.695628
  1
As an alternative can door leaf and frame be provide with thin plate from the floor and up to 0.5 m , 
 41
0.8
  7
ROMANS
100
AcDbText
  0
TEXT
  5
B0
100
AcDbEntity
  8
RAMTEXT
 62
     6
100
AcDbText
 10
619.15364
 20
520.909198
 30
0.0
 40
6.695628
  1
fixed in a way so it not will come loose under fire.
 41
0.8
  7
ROMANS
100
AcDbText
  0
TEXT
  5
B1
100
AcDbEntity
  8
RAMTEXT
 62
     6
100
AcDbText
 10
619.15364
 20
509.435061
 30
0.0
 40
6.695628
  1
In cases when the door face against stairwell an opening will not be allowed in t
 41
0.8
  7
ROMANS
100
AcDbText
  0
TEXT
  5
B2
100
AcDbEntity
  8
RAMTEXT
 62
     6
100
AcDbText
 10
619.15364
 20
499.047152
 30
0.0
 40
6.695628
  1
in the under edge of the door leaf. Doors in fire class EI 30 
 41
0.8
  7
ROMANS
100
AcDbText
  0
TEXT
  5
B3
100
AcDbEntity
  8
RAMTEXT
 62
     6
100
AcDbText
 10
617.698631
 20
393.305631
 30
0.0
 40
6.871829
  1
LOCK ACCORDING TO FIRE RESISTANCE CLASS E30/EI30:
 41
0.8
  7
ROMANT
100
AcDbText
  0
TEXT
  5
B4
100
AcDbEntity
  8
RAMTEXT
 62
     6
100
AcDbText
 10
618.589066
 20
479.503194
 30
0.0
 40
6.695628
  1
of combustible or noncombustible  material plastic, rubber or equal, during condition that full tigthness 
 41
0.8
  7
ROMANS
100
AcDbText
  0
TEXT
  5
B5
100
AcDbEntity
  8
RAMTEXT
 62
     6
100
AcDbText
 10
618.589066
 20
469.253116
 30
0.0
 40
6.695628
  1
will be provided. The distance between the dorrleaf underedge a and floor "with out threshold" must not 
 41
0.8
  7
ROMANS
100
AcDbText
  0
TEXT
  5
B6
100
AcDbEntity
  8
RAMTEXT
 62
     6
100
AcDbText
 10
618.60165
 20
411.6281
 30
0.0
 40
6.695628
  1
used in the system, provided that thebelonging mountingsinstructions will be followed.
 41
0.8
  7
ROMANS
100
AcDbText
  0
TEXT
  5
B7
100
AcDbEntity
  8
RAMTEXT
 62
     6
100
AcDbText
 10
618.589066
 20
458.739385
 30
0.0
 40
6.695628
  1
exceed 18 mm if testing shows something else. Doors in fire rated class EI 60 and E 60 max opening 
 41
0.8
  7
ROMANS
100
AcDbText
  0
TEXT
  5
B8
100
AcDbEntity
  8
RAMTEXT
 62
     6
100
AcDbText
 10
619.15364
 20
448.948805
 30
0.0
 40
6.695628
  1
of 10 mm in this cases the SP 45065 can be used during condition that full tigthness will be provide
 41
0.8
  7
ROMANS
100
AcDbText
  0
TEXT
  5
B9
100
AcDbEntity
  8
RAMTEXT
 62
     6
100
AcDbText
 10
618.60165
 20
422.085382
 30
0.0
 40
6.695628
  1
2-3 steel hinges fitted by welding or screws. Type approwed aluminium hinges for steeldoors could be 
 41
0.8
  7
ROMANS
100
AcDbText
  0
TEXT
  5
BA
100
AcDbEntity
  8
RAMTEXT
 62
     6
100
AcDbText
 10
619.15364
 20
489.139377
 30
0.0
 40
6.695628
  1
and E 30 can be performed with threshold, rubber seal SP 45065 or an automatic threshold of 
 41
0.8
  7
ROMANS
100
AcDbText
  0
TEXT
  5
BB
100
AcDbEntity
  8
RAMTEXT
 62
     6
100
AcDbText
 10
617.796645
 20
613.063072
 30
0.0
 40
6.695628
  1
with a flat steel or square tubes that are welded or screwed.
 41
0.8
  7
ROMANS
100
AcDbText
  0
LINE
  5
BC
100
AcDbEntity
  8
RAM
100
AcDbLine
 10
1078.594106
 20
712.064839
 30
0.0
 11
611.719106
 21
712.064839
 31
0.0
  0
TEXT
  5
BD
100
AcDbEntity
  8
RAMTEXT
 62
     6
100
AcDbText
 10
731.187358
 20
17.014993
 30
0.0
 40
5.5
  1
FIRE RESISTANCE CLASS E30/E60/EI30/EI60
 41
0.8
  7
ROMANS
100
AcDbText
  0
TEXT
  5
BE
100
AcDbEntity
  8
RAMTEXT
 62
     6
100
AcDbText
 10
730.894619
 20
28.320488
 30
0.0
 40
5.5
  1
GENERAL INSTRUCTIONS SP 35000
 41
0.8
  7
ROMANS
100
AcDbText
  0
TEXT
  5
BF
100
AcDbEntity
  8
RAMTEXT
 62
     6
100
AcDbText
 10
617.998618
 20
127.473219
 30
0.0
 40
6.695628
  1
Bolts, bar bolts and the parts that affect them must be made of steel. Minimum gear into locking plate 
 41
0.8
  7
ROMANS
100
AcDbText
  0
TEXT
  5
C0
100
AcDbEntity
  8
RAMTEXT
 62
     6
100
AcDbText
 10
617.998618
 20
117.565958
 30
0.0
 40
6.695628
  1
10 mm. Fire separating windows should be possible to open only with a tool, a key or something similar.
 41
0.8
  7
ROMANS
100
AcDbText
  0
TEXT
  5
C1
100
AcDbEntity
  8
RAMTEXT
 62
     6
100
AcDbText
 10
617.998618
 20
80.413167
 30
0.0
 40
6.695628
  1
belonging instructions dont shows anything else. Outdoor sections must allways be topsealed.
 41
0.8
  7
ROMANS
100
AcDbText
  0
TEXT
  5
C2
100
AcDbEntity
  8
RAMTEXT
 62
     6
100
AcDbText
 10
617.998618
 20
70.505907
 30
0.0
 40
6.695628
  1
Bottomsealing will not be necessary if not Type approval prescribes this. 
 41
0.8
  7
ROMANS
100
AcDbText
  0
TEXT
  5
C3
100
AcDbEntity
  8
RAMTEXT
 62
     6
100
AcDbText
 10
617.698631
 20
90.337189
 30
0.0
 40
6.695628
  1
In normal indoors environment can topsealing be exclude, were the type approval certificate with
 41
0.8
  7
ROMANS
100
AcDbText
  0
LINE
  5
C4
100
AcDbEntity
  8
RAM
100
AcDbLine
 10
611.719106
 20
65.543805
 30
0.0
 11
1078.594106
 21
65.543805
 31
0.0
  0
LINE
  5
C5
100
AcDbEntity
  8
RAM
100
AcDbLine
 10
611.719106
 20
47.543805
 30
0.0
 11
1078.594106
 21
47.543805
 31
0.0
  0
LINE
  5
C6
100
AcDbEntity
  8
RAM
100
AcDbLine
 10
611.719106
 20
9.293805
 30
0.0
 11
1078.594106
 21
9.293805
 31
0.0
  0
TEXT
  5
C7
100
AcDbEntity
  8
RAMTEXT
 62
     6
100
AcDbText
 10
617.965004
 20
247.228483
 30
0.0
 40
6.695628
  1
or an alloy with a melting point exceeding 850%%dC.. Gear into locking plate at least 10 mm.
 41
0.8
  7
ROMANS
100
AcDbText
  0
TEXT
  5
C8
100
AcDbEntity
  8
RAMTEXT
 62
     6
100
AcDbText
 10
617.965004
 20
266.739595
 30
0.0
 40
6.695628
  1
With double doors the side door is provided with a two fluch bolts
 41
0.8
  7
ROMANS
100
AcDbText
  0
TEXT
  5
C9
100
AcDbEntity
  8
RAMTEXT
 62
     6
100
AcDbText
 10
617.965004
 20
257.224756
 30
0.0
 40
6.695628
  1
or a bar bolt. Bolts and the parts that affect them must be made of steel
 41
0.8
  7
ROMANS
100
AcDbText
  0
TEXT
  5
CA
100
AcDbEntity
  8
RAMTEXT
 62
     6
100
AcDbText
 10
617.698631
 20
333.499541
 30
0.0
 40
6.871829
  1
LOCK ACCORDING TO FIRE RESISTANCE CLASS E60/A60/EI60
 41
0.8
  7
ROMANT
100
AcDbText
  0
TEXT
  5
CB
100
AcDbEntity
  8
RAMTEXT
 62
     6
100
AcDbText
 10
616.989801
 20
352.793097
 30
0.0
 40
6.695628
  1
Standard approved electric locking plates can be used.
 41
0.8
  7
ROMANS
100
AcDbText
  0
TEXT
  5
CC
100
AcDbEntity
  8
RAMTEXT
 62
     6
100
AcDbText
 10
616.989801
 20
293.602018
 30
0.0
 40
6.695628
  1
Standard approved electric locking plates can be used.
 41
0.8
  7
ROMANS
100
AcDbText
  0
TEXT
  5
CD
100
AcDbEntity
  8
RAMTEXT
 62
     6
100
AcDbText
 10
617.698631
 20
312.225399
 30
0.0
 40
6.695628
  1
gear at least 10 mm into the locking plate. The drop bolt and the 
 41
0.8
  7
ROMANS
100
AcDbText
  0
TEXT
  5
CE
100
AcDbEntity
  8
RAMTEXT
 62
     6
100
AcDbText
 10
617.698631
 20
302.355519
 30
0.0
 40
6.695628
  1
parts that affect it must be made of steel or an alloy with a melting point exceeding 850%%dC.
 41
0.8
  7
ROMANS
100
AcDbText
  0
TEXT
  5
CF
100
AcDbEntity
  8
RAMTEXT
 62
     6
100
AcDbText
 10
617.698631
 20
322.630043
 30
0.0
 40
6.695628
  1
Mortise lock with drop bolt. The bolt must not be lockable and must 
 41
0.8
  7
ROMANS
100
AcDbText
  0
TEXT
  5
D0
100
AcDbEntity
  8
RAMTEXT
 62
     6
100
AcDbText
 10
618.288364
 20
207.006166
 30
0.0
 40
6.047209
  1
DOOR CLOSER IN FIRE RESISTANCE CLASS EI30/A60:
 41
0.8
  7
ROMANT
100
AcDbText
  0
TEXT
  5
D1
100
AcDbEntity
  8
RAMTEXT
 62
     6
100
AcDbText
 10
618.288364
 20
223.405231
 30
0.0
 40
6.696
  1
Får ej medverka till brandspridning på grund
 41
0.8
  7
ROMANS
100
AcDbText
  0
TEXT
  5
D2
100
AcDbEntity
  8
RAMTEXT
 62
     6
100
AcDbText
 10
617.698631
 20
164.740474
 30
0.0
 40
6.695628
  1
optionally varied, if the maximum measurements are not  exceeded.
 41
0.8
  7
ROMANS
100
AcDbText
  0
TEXT
  5
D3
100
AcDbEntity
  8
RAMTEXT
 62
     6
100
AcDbText
 10
617.698631
 20
175.329795
 30
0.0
 40
6.695628
  1
Division of glazed and filled sections and number of mullions can be
 41
0.8
  7
ROMANS
100
AcDbText
  0
TEXT
  5
D4
100
AcDbEntity
  8
RAMTEXT
 62
     6
100
AcDbText
 10
617.698631
 20
137.39724
 30
0.0
 40
6.695628
  1
With double windows the side window is provided with a flush bolt or a double action bar bolt. 
 41
0.8
  7
ROMANS
100
AcDbText
  0
TEXT
  5
D5
100
AcDbEntity
  8
RAMTEXT
 62
     6
100
AcDbText
 10
618.288364
 20
233.270175
 30
0.0
 40
6.047209
  1
DOOR CLOSER IN FIRE RESISTANCE CLASS E30/E60:
 41
0.8
  7
ROMANT
100
AcDbText
  0
TEXT
  5
D6
100
AcDbEntity
  8
RAMTEXT
 62
     6
100
AcDbText
 10
618.269132
 20
362.200211
 30
0.0
 40
6.695628
  1
parts that affect it must be made of steel or an alloy with a
 41
0.8
  7
ROMANS
100
AcDbText
  0
LINE
  5
D7
100
AcDbEntity
  8
RAM
100
AcDbLine
 10
611.719106
 20
712.064839
 30
0.0
 11
611.719106
 21
9.293805
 31
0.0
  0
TEXT
  5
D8
100
AcDbEntity
  8
RAMTEXT
 62
     6
100
AcDbText
 10
654.469106
 20
58.793805
 30
0.0
 40
4.05
  1
Ritad
 41
0.8
  7
ROMANS
100
AcDbText
  0
TEXT
  5
D9
100
AcDbEntity
  8
RAMTEXT
 62
     6
100
AcDbText
 10
656.006815
 20
50.54167
 30
0.0
 40
4.910127
  1
R.O
 41
0.8
  7
ROMANS
100
AcDbText
  0
TEXT
  5
DA
100
AcDbEntity
  8
TEXT
 62
     1
100
AcDbText
 10
631.70178
 20
20.934033
 30
0.0
 40
10.125
  1
STALPROFIL AB
 41
0.8
  7
ROMANS
100
AcDbText
  0
TEXT
  5
DB
100
AcDbEntity
  8
RAMTEXT
 62
     6
100
AcDbText
 10
617.698631
 20
101.280277
 30
0.0
 40
6.871829
  1
Top/Bottomsealing:
 41
0.8
  7
ROMANS
100
AcDbText
  0
TEXT
  5
DC
100
AcDbEntity
  8
RAMTEXT
 62
     6
100
AcDbText
 10
618.288364
 20
198.47805
 30
0.0
 40
5.892152
  1
Optional type
 41
0.8
  7
ROMANS
100
AcDbText
  0
TEXT
  5
DD
100
AcDbEntity
  8
RAMTEXT
 62
     6
100
AcDbText
 10
613.969106
 20
58.793805
 30
0.0
 40
4.05
  1
Konstr.
 41
0.8
  7
ROMANS
100
AcDbText
  0
LINE
  5
DE
100
AcDbEntity
  8
RAM
100
AcDbLine
 10
651.094106
 20
65.543805
 30
0.0
 11
651.094106
 21
47.543805
 31
0.0
  0
LINE
  5
DF
100
AcDbEntity
  8
RAM
100
AcDbLine
 10
611.719106
 20
65.543805
 30
0.0
 11
611.719106
 21
91.293805
 31
0.0
  0
CIRCLE
  5
E0
100
AcDbEntity
  8
TEXT
 62
     1
100
AcDbCircle
 10
649.065653
 20
33.64149
 30
0.0
 40
1.148774
  0
LWPOLYLINE
  5
E1
100
AcDbEntity
  8
TEXT
 62
     1
100
AcDbPolyline
 90
       12
 70
     1
 43
1.4625
 10
622.03149
 20
23.904461
 42
1.0
 10
623.065633
 20
24.938605
 10
620.880564
 20
27.123674
 42
-0.414214
 10
620.880564
 20
30.226105
 10
623.320958
 20
32.666499
 42
-0.198912
 10
624.872174
 20
33.309033
 10
626.992312
 20
33.309033
 42
1.0
 10
626.992312
 20
34.771533
 10
623.660599
 20
34.771533
 42
0.198912
 10
623.143527
 20
34.557355
 10
617.778133
 20
29.191961
 42
0.414214
 10
617.778133
 20
28.157818
  0
LWPOLYLINE
  5
E2
100
AcDbEntity
  8
TEXT
 62
     1
100
AcDbPolyline
 90
       12
 70
     1
 43
0.9
 10
622.508787
 20
24.381758
 42
1.000001
 10
622.588336
 20
24.461308
 10
620.403267
 20
26.646377
 42
-0.414214
 10
620.403267
 20
30.703402
 10
622.843661
 20
33.143796
 42
-0.198912
 10
624.872174
 20
33.984033
 10
626.992312
 20
33.984033
 42
1.0
 10
626.992312
 20
34.096533
 10
623.660599
 20
34.096533
 42
0.198912
 10
623.620824
 20
34.080058
 10
618.25543
 20
28.714664
 42
0.414214
 10
618.25543
 20
28.635115
  0
LWPOLYLINE
  5
E3
100
AcDbEntity
  8
TEXT
 62
     1
100
AcDbPolyline
 90
       12
 70
     1
 43
1.4625
 10
623.625993
 20
29.371533
 42
1.0
 10
622.591849
 20
28.337389
 10
624.776918
 20
26.15232
 42
-0.414214
 10
624.776918
 20
23.049889
 10
622.336524
 20
20.609496
 42
-0.198912
 10
620.785309
 20
19.966961
 10
618.665171
 20
19.966961
 42
1.0
 10
618.665171
 20
18.504461
 10
621.996883
 20
18.504461
 42
0.198912
 10
622.513955
 20
18.718639
 10
627.879349
 20
24.084033
 42
0.414214
 10
627.879349
 20
25.118177
  0
LWPOLYLINE
  5
E4
100
AcDbEntity
  8
TEXT
 62
     1
100
AcDbPolyline
 90
       12
 70
     1
 43
0.9
 10
623.148695
 20
28.894236
 42
1.000001
 10
623.069146
 20
28.814687
 10
625.254215
 20
26.629618
 42
-0.414214
 10
625.254215
 20
22.572592
 10
622.813821
 20
20.132199
 42
-0.198912
 10
620.785309
 20
19.291961
 10
618.665171
 20
19.291961
 42
1.0
 10
618.665171
 20
19.179461
 10
621.996883
 20
19.179461
 42
0.198912
 10
622.036658
 20
19.195937
 10
627.402052
 20
24.56133
 42
0.414214
 10
627.402052
 20
24.64088
  0
LINE
  5
E5
100
AcDbEntity
  8
RAM
100
AcDbLine
 10
611.719106
 20
9.293805
 30
0.0
 11
611.719106
 21
65.543805
 31
0.0
  0
TEXT
  5
E6
100
AcDbEntity
  8
RAMTEXT
 62
     6
100
AcDbText
 10
616.152772
 20
40.793805
 30
0.0
 40
4.05
  1
Firma
 41
0.8
  7
ROMANS
100
AcDbText
  0
TEXT
  5
E7
100
AcDbEntity
  8
RAMTEXT
 62
     6
100
AcDbText
 10
617.698631
 20
148.340328
 30
0.0
 40
6.871829
  1
WINDOWS:
 41
0.8
  7
ROMANS
100
AcDbText
  0
TEXT
  5
E8
100
AcDbEntity
  8
RAMTEXT
 62
     6
100
AcDbText
 10
617.698631
 20
184.046484
 30
0.0
 40
6.871829
  1
MEASURES:
 41
0.8
  7
ROMANS
100
AcDbText
  0
TEXT
  5
E9
100
AcDbEntity
  8
RAMTEXT
 62
     6
100
AcDbText
 10
692.719106
 20
58.793805
 30
0.0
 40
4.05
  1
Kop.
 41
0.8
  7
ROMANS
100
AcDbText
  0
LINE
  5
EA
100
AcDbEntity
  8
RAM
100
AcDbLine
 10
690.469106
 20
65.543805
 30
0.0
 11
690.469106
 21
47.543805
 31
0.0
  0
TEXT
  5
EB
100
AcDbEntity
  8
RAMTEXT
 62
     6
100
AcDbText
 10
733.219106
 20
58.793805
 30
0.0
 40
4.05
  1
Kontr.
 41
0.8
  7
ROMANS
100
AcDbText
  0
LINE
  5
EC
100
AcDbEntity
  8
RAM
100
AcDbLine
 10
769.219106
 20
65.543805
 30
0.0
 11
769.219106
 21
47.543805
 31
0.0
  0
TEXT
  5
ED
100
AcDbEntity
  8
RAMTEXT
 62
     6
100
AcDbText
 10
771.469106
 20
58.793805
 30
0.0
 40
4.05
  1
Stand.
 41
0.8
  7
ROMANS
100
AcDbText
  0
LINE
  5
EE
100
AcDbEntity
  8
RAM
100
AcDbLine
 10
729.844106
 20
65.543805
 30
0.0
 11
729.844106
 21
9.293805
 31
0.0
  0
TEXT
  5
EF
100
AcDbEntity
  8
RAMTEXT
 62
     6
100
AcDbText
 10
735.402772
 20
40.793805
 30
0.0
 40
4.05
  1
Titel
 41
0.8
  7
ROMANS
100
AcDbText
  0
TEXT
  5
F0
100
AcDbEntity
  8
RAMTEXT
 62
     6
100
AcDbText
 10
617.965004
 20
276.430636
 30
0.0
 40
6.871829
  1
FLUCH/BAR BOLT:
 41
0.8
  7
ROMANS
100
AcDbText
  0
LINE
  5
F1
100
AcDbEntity
  8
RAM
100
AcDbLine
 10
589.219106
 20
342.168805
 30
0.0
 11
611.719106
 21
342.168805
 31
0.0
  0
TEXT
  5
F2
100
AcDbEntity
  8
RAMTEXT
 62
     6
100
AcDbText
 10
618.571911
 20
596.011806
 30
0.0
 40
6.871829
  1
FIXING TO THE FRAME OF THE BUILDING:
 41
0.8
  7
ROMANS
100
AcDbText
  0
TEXT
  5
F3
100
AcDbEntity
  8
RAMTEXT
 62
     6
100
AcDbText
 10
619.15364
 20
560.370643
 30
0.0
 40
6.871829
  1
SPACE BETWEEN FLOOR AND DOOR:
 41
0.8
  7
ROMANS
100
AcDbText
  0
TEXT
  5
F4
100
AcDbEntity
  8
RAMTEXT
 62
     6
100
AcDbText
 10
618.60165
 20
431.776422
 30
0.0
 40
6.871829
  1
HINGES:
 41
0.8
  7
ROMANS
100
AcDbText
  0
TEXT
  5
F5
100
AcDbEntity
  8
RAMTEXT
 62
     6
100
AcDbText
 10
617.796645
 20
632.268952
 30
0.0
 40
6.871829
  1
GENERAL INSTRUCTIONS:
 41
0.8
  7
ROMANS
100
AcDbText
  0
LINE
  5
F6
100
AcDbEntity
  8
RAM
100
AcDbLine
 10
622.969106
 20
734.564839
 30
0.0
 11
622.969106
 21
712.064839
 31
0.0
  0
LWPOLYLINE
  5
F7
100
AcDbEntity
  8
TEXT
 62
     1
100
AcDbPolyline
 90
       12
 70
     1
 43
1.2
 10
759.610185
 20
689.508614
 42
1.000001
 10
759.716251
 20
689.61468
 10
756.802826
 20
692.528105
 42
-0.414214
 10
756.802826
 20
697.937472
 10
760.056684
 20
701.19133
 42
-0.198912
 10
762.761367
 20
702.311647
 10
765.588218
 20
702.311647
 42
1.0
 10
765.588218
 20
702.461647
 10
761.145934
 20
702.461647
 42
0.198912
 10
761.092901
 20
702.43968
 10
753.939043
 20
695.285822
 42
0.414214
 10
753.939043
 20
695.179756
  0
LWPOLYLINE
  5
F8
100
AcDbEntity
  8
TEXT
 62
     1
100
AcDbPolyline
 90
       12
 70
     1
 43
1.95
 10
758.973789
 20
688.872218
 42
1.0
 10
760.352647
 20
690.251076
 10
757.439222
 20
693.164501
 42
-0.414214
 10
757.439222
 20
697.301076
 10
760.69308
 20
700.554934
 42
-0.198912
 10
762.761367
 20
701.411647
 10
765.588218
 20
701.411647
 42
1.0
 10
765.588218
 20
703.361647
 10
761.145934
 20
703.361647
 42
0.198912
 10
760.456505
 20
703.076076
 10
753.302647
 20
695.922218
 42
0.414214
 10
753.302647
 20
694.54336
  0
LWPOLYLINE
  5
F9
100
AcDbEntity
  8
TEXT
 62
     1
100
AcDbPolyline
 90
       12
 70
     1
 43
1.2
 10
760.463397
 20
695.525251
 42
1.000001
 10
760.357331
 20
695.419185
 10
763.270756
 20
692.50576
 42
-0.414214
 10
763.270756
 20
687.096393
 10
760.016898
 20
683.842534
 42
-0.198912
 10
757.312214
 20
682.722218
 10
754.485364
 20
682.722218
 42
1.0
 10
754.485364
 20
682.572218
 10
758.927647
 20
682.572218
 42
0.198912
 10
758.98068
 20
682.594185
 10
766.134538
 20
689.748043
 42
0.414214
 10
766.134538
 20
689.854109
  0
LWPOLYLINE
  5
FA
100
AcDbEntity
  8
TEXT
 62
     1
100
AcDbPolyline
 90
       12
 70
     1
 43
1.95
 10
761.099793
 20
696.161647
 42
1.0
 10
759.720934
 20
694.782789
 10
762.63436
 20
691.869363
 42
-0.414214
 10
762.63436
 20
687.732789
 10
759.380502
 20
684.47893
 42
-0.198912
 10
757.312214
 20
683.622218
 10
754.485364
 20
683.622218
 42
1.0
 10
754.485364
 20
681.672218
 10
758.927647
 20
681.672218
 42
0.198912
 10
759.617076
 20
681.957789
 10
766.770934
 20
689.111647
 42
0.414214
 10
766.770934
 20
690.490505
  0
LINE
  5
FB
100
AcDbEntity
  8
RAM
100
AcDbLine
 10
674.719106
 20
712.064839
 30
0.0
 11
674.719106
 21
734.564839
 31
0.0
  0
LINE
  5
FC
100
AcDbEntity
  8
RAM
100
AcDbLine
 10
1078.594106
 20
9.293805
 30
0.0
 11
1078.594106
 21
712.064839
 31
0.0
  0
TEXT
  5
FD
100
AcDbEntity
  8
RAMTEXT
 62
     6
100
AcDbText
 10
1025.55468
 20
67.463547
 30
0.0
 40
3.0
  1
Rev A Added lock 010218
 41
0.8
  7
ROMANS
100
AcDbText
  0
LINE
  5
FE
100
AcDbEntity
  8
FOGNINGB
100
AcDbLine
 10
1078.594106
 20
71.970856
 30
0.0
 11
1021.161538
 21
71.970856
 31
0.0
  0
LINE
  5
FF
100
AcDbEntity
  8
RAM
100
AcDbLine
 10
892.969106
 20
31.793805
 30
0.0
 11
1078.594106
 21
31.793805
 31
0.0
  0
TEXT
  5
100
100
AcDbEntity
  8
RAMTEXT
 62
     6
100
AcDbText
 10
922.07398
 20
16.043784
 30
0.0
 40
7.659798
  1
4-2490-A
 41
0.8
  7
ROMANS
100
AcDbText
  0
TEXT
  5
101
100
AcDbEntity
  8
RAMTEXT
 62
     6
100
AcDbText
 10
850.219106
 20
58.793805
 30
0.0
 40
4.05
  1
Skala
 41
0.8
  7
ROMANS
100
AcDbText
  0
TEXT
  5
102
100
AcDbEntity
  8
RAMTEXT
 62
     6
100
AcDbText
 10
811.969106
 20
58.793805
 30
0.0
 40
4.05
  1
Godk.
 41
0.8
  7
ROMANS
100
AcDbText
  0
LINE
  5
103
100
AcDbEntity
  8
RAM
100
AcDbLine
 10
808.594106
 20
65.543805
 30
0.0
 11
808.594106
 21
47.543805
 31
0.0
  0
LINE
  5
104
100
AcDbEntity
  8
RAM
100
AcDbLine
 10
847.969106
 20
65.543805
 30
0.0
 11
847.969106
 21
47.543805
 31
0.0
  0
TEXT
  5
105
100
AcDbEntity
  8
RAMTEXT
 62
     6
100
AcDbText
 10
895.219106
 20
58.793805
 30
0.0
 40
4.05
  1
Ersätter
 41
0.8
  7
ROMANS
100
AcDbText
  0
TEXT
  5
106
100
AcDbEntity
  8
RAMTEXT
 62
     6
100
AcDbText
 10
895.219106
 20
25.043805
 30
0.0
 40
4.05
  1
Ritn.-nr
 41
0.8
  7
ROMANS
100
AcDbText
  0
LINE
  5
107
100
AcDbEntity
  8
RAM
100
AcDbLine
 10
892.969106
 20
65.543805
 30
0.0
 11
892.969106
 21
9.293805
 31
0.0
  0
TEXT
  5
108
100
AcDbEntity
  8
RAMTEXT
 62
     6
100
AcDbText
 10
895.219106
 20
40.793805
 30
0.0
 40
4.05
  1
Regist.nr
 41
0.8
  7
ROMANS
100
AcDbText
  0
TEXT
  5
109
100
AcDbEntity
  8
RAMTEXT
 62
     6
100
AcDbText
 10
962.571648
 20
36.403407
 30
0.0
 40
5.892152
  1
99-02-08
 41
0.8
  7
ROMANS
100
AcDbText
  0
TEXT
  5
10A
100
AcDbEntity
  8
RAMTEXT
 62
     6
100
AcDbText
 10
946.969106
 20
58.793805
 30
0.0
 40
4.05
  1
Ersatt av
 41
0.8
  7
ROMANS
100
AcDbText
  0
TEXT
  5
10B
100
AcDbEntity
  8
RAMTEXT
 62
     6
100
AcDbText
 10
946.969106
 20
40.793805
 30
0.0
 40
4.05
  1
Dat.
 41
0.8
  7
ROMANS
100
AcDbText
  0
LINE
  5
10C
100
AcDbEntity
  8
RAM
100
AcDbLine
 10
943.594106
 20
65.543805
 30
0.0
 11
943.594106
 21
31.793805
 31
0.0
  0
LINE
  5
10D
100
AcDbEntity
  8
FOGNINGB
100
AcDbLine
 10
1021.161538
 20
71.970856
 30
0.0
 11
1021.161538
 21
65.543805
 31
0.0
  0
TEXT
  5
10E
100
AcDbEntity
  8
RAMTEXT
 62
     6
100
AcDbText
 10
812.19131
 20
224.503034
 30
0.0
 40
6.696
  1
av värmestrålning genom glasrutor.
 41
0.8
  7
ROMANS
100
AcDbText
  0
LINE
  5
10F
100
AcDbEntity
  8
RAM
100
AcDbLine
 10
1106.719106
 20
342.168805
 30
0.0
 11
1078.594106
 21
342.168805
 31
0.0
  0
CIRCLE
  5
110
100
AcDbEntity
  8
TEXT
 62
     1
100
AcDbCircle
 10
797.538179
 20
701.405501
 30
0.0
 40
1.531699
  0
LINE
  5
111
100
AcDbEntity
  8
RAM
100
AcDbLine
 10
888.469106
 20
712.064839
 30
0.0
 11
888.469106
 21
734.564839
 31
0.0
  0
ENDBLK
  5
113
100
AcDbEntity
  8
0
100
AcDbBlockEnd
  0
ENDSEC
  0
SECTION
  2
ENTITIES
  0
LINE
  5
1F
100
AcDbEntity
  8
RAM
100
AcDbLine
 10
-17.344112
 20
18.206191
 30
0.0
 11
-17.344112
 21
725.977225
 31
0.0
  0
LINE
  5
21
100
AcDbEntity
  8
RAM
100
AcDbLine
 10
-484.219112
 20
725.977225
 30
0.0
 11
-484.219112
 21
18.206191
 31
0.0
  0
LINE
  5
28
100
AcDbEntity
  8
RAM
100
AcDbLine
 10
-202.969112
 20
40.706191
 30
0.0
 11
-17.344112
 21
40.706191
 31
0.0
  0
LINE
  5
2D
100
AcDbEntity
  8
RAM
100
AcDbLine
 10
-484.219112
 20
74.456191
 30
0.0
 11
-17.344112
 21
74.456191
 31
0.0
  0
LINE
  5
2E
100
AcDbEntity
  8
RAM
100
AcDbLine
 10
-484.219112
 20
56.456191
 30
0.0
 11
-17.344112
 21
56.456191
 31
0.0
  0
LINE
  5
2F
100
AcDbEntity
  8
RAM
100
AcDbLine
 10
-484.219112
 20
18.206191
 30
0.0
 11
-17.344112
 21
18.206191
 31
0.0
  0
TEXT
  5
33
100
AcDbEntity
  8
RAMTEXT
 62
     6
100
AcDbText
 10
-439.931403
 20
59.454057
 30
0.0
 40
4.910127
  1
R.O
 41
0.8
  7
ROMANS
100
AcDbText
  0
TEXT
  5
34
100
AcDbEntity
  8
RAMTEXT
 62
     6
100
AcDbText
 10
-441.469112
 20
67.706191
 30
0.0
 40
4.05
  1
Ritad
 41
0.8
  7
ROMANS
100
AcDbText
  0
TEXT
  5
35
100
AcDbEntity
  8
TEXT
 62
     1
100
AcDbText
 10
-464.236438
 20
29.84642
 30
0.0
 40
10.125
  1
STALPROFIL AB
 41
0.8
  7
ROMANS
100
AcDbText
  0
LINE
  5
39
100
AcDbEntity
  8
RAM
100
AcDbLine
 10
-484.219112
 20
18.206191
 30
0.0
 11
-484.219112
 21
74.456191
 31
0.0
  0
LINE
  5
3A
100
AcDbEntity
  8
RAM
100
AcDbLine
 10
-472.969112
 20
-4.293809
 30
0.0
 11
-472.969112
 21
18.206191
 31
0.0
  0
LINE
  5
3B
100
AcDbEntity
  8
RAM
100
AcDbLine
 10
-484.219112
 20
74.456191
 30
0.0
 11
-484.219112
 21
105.206191
 31
0.0
  0
LWPOLYLINE
  5
3C
100
AcDbEntity
  8
TEXT
 62
     1
100
AcDbPolyline
 90
       12
 70
     1
 43
0.9
 10
-472.789523
 20
37.806623
 42
1.000001
 10
-472.869072
 20
37.727073
 10
-470.684003
 20
35.542004
 42
-0.414214
 10
-470.684003
 20
31.484979
 10
-473.124397
 20
29.044585
 42
-0.198912
 10
-475.152909
 20
28.204348
 10
-477.273047
 20
28.204348
 42
1.0
 10
-477.273047
 20
28.091848
 10
-473.941335
 20
28.091848
 42
0.198912
 10
-473.90156
 20
28.108323
 10
-468.536166
 20
33.473717
 42
0.414214
 10
-468.536166
 20
33.553266
  0
LWPOLYLINE
  5
3D
100
AcDbEntity
  8
TEXT
 62
     1
100
AcDbPolyline
 90
       12
 70
     1
 43
1.4625
 10
-472.312225
 20
38.28392
 42
1.0
 10
-473.346369
 20
37.249776
 10
-471.1613
 20
35.064707
 42
-0.414214
 10
-471.1613
 20
31.962276
 10
-473.601694
 20
29.521882
 42
-0.198912
 10
-475.152909
 20
28.879348
 10
-477.273047
 20
28.879348
 42
1.0
 10
-477.273047
 20
27.416848
 10
-473.941335
 20
27.416848
 42
0.198912
 10
-473.424263
 20
27.631026
 10
-468.058869
 20
32.99642
 42
0.414214
 10
-468.058869
 20
34.030563
  0
LWPOLYLINE
  5
3E
100
AcDbEntity
  8
TEXT
 62
     1
100
AcDbPolyline
 90
       12
 70
     1
 43
1.4625
 10
-473.906728
 20
32.816848
 42
1.0
 10
-472.872585
 20
33.850992
 10
-475.057654
 20
36.036061
 42
-0.414214
 10
-475.057654
 20
39.138492
 10
-472.61726
 20
41.578885
 42
-0.198912
 10
-471.066044
 20
42.22142
 10
-468.945906
 20
42.22142
 42
1.0
 10
-468.945906
 20
43.68392
 10
-472.277619
 20
43.68392
 42
0.198912
 10
-472.794691
 20
43.469742
 10
-478.160085
 20
38.104348
 42
0.414214
 10
-478.160085
 20
37.070204
  0
LWPOLYLINE
  5
3F
100
AcDbEntity
  8
TEXT
 62
     1
100
AcDbPolyline
 90
       12
 70
     1
 43
0.9
 10
-473.429431
 20
33.294145
 42
1.000001
 10
-473.349882
 20
33.373694
 10
-475.534951
 20
35.558763
 42
-0.414214
 10
-475.534951
 20
39.615789
 10
-473.094557
 20
42.056182
 42
-0.198912
 10
-471.066044
 20
42.89642
 10
-468.945906
 20
42.89642
 42
1.0
 10
-468.945906
 20
43.00892
 10
-472.277619
 20
43.00892
 42
0.198912
 10
-472.317394
 20
42.992444
 10
-477.682788
 20
37.627051
 42
0.414214
 10
-477.682788
 20
37.547501
  0
CIRCLE
  5
40
100
AcDbEntity
  8
TEXT
 62
     1
100
AcDbCircle
 10
-446.872565
 20
42.553876
 30
0.0
 40
1.148774
  0
TEXT
  5
41
100
AcDbEntity
  8
RAMTEXT
 62
     6
100
AcDbText
 10
-481.969112
 20
67.706191
 30
0.0
 40
4.05
  1
Konstr.
 41
0.8
  7
ROMANS
100
AcDbText
  0
LINE
  5
42
100
AcDbEntity
  8
RAM
100
AcDbLine
 10
-444.844112
 20
74.456191
 30
0.0
 11
-444.844112
 21
56.456191
 31
0.0
  0
TEXT
  5
43
100
AcDbEntity
  8
RAMTEXT
 62
     6
100
AcDbText
 10
-479.785446
 20
49.706191
 30
0.0
 40
4.05
  1
Firma
 41
0.8
  7
ROMANS
100
AcDbText
  0
LINE
  5
44
100
AcDbEntity
  8
RAM
100
AcDbLine
 10
-202.969112
 20
74.456191
 30
0.0
 11
-202.969112
 21
18.206191
 31
0.0
  0
LINE
  5
45
100
AcDbEntity
  8
RAM
100
AcDbLine
 10
-366.094112
 20
74.456191
 30
0.0
 11
-366.094112
 21
18.206191
 31
0.0
  0
LINE
  5
46
100
AcDbEntity
  8
RAM
100
AcDbLine
 10
-421.219112
 20
18.206191
 30
0.0
 11
-415.594112
 21
6.956191
 31
0.0
  0
LINE
  5
47
100
AcDbEntity
  8
RAM
100
AcDbLine
 10
-426.844112
 20
6.956191
 30
0.0
 11
-421.219112
 21
18.206191
 31
0.0
  0
TEXT
  5
48
100
AcDbEntity
  8
RAMTEXT
 62
     6
100
AcDbText
 10
-360.822717
 20
25.366559
 30
0.0
 40
5.892152
  1
FIRE CLASS SP 976500 E-30/E-60
 41
0.8
  7
ROMANS
100
AcDbText
  0
TEXT
  5
49
100
AcDbEntity
  8
RAMTEXT
 62
     6
100
AcDbText
 10
-359.431965
 20
36.391643
 30
0.0
 40
5.892152
  1
GENERAL INSTRUCTIONS SP 76500 OCH
 41
0.8
  7
ROMANS
100
AcDbText
  0
TEXT
  5
4A
100
AcDbEntity
  8
RAMTEXT
 62
     6
100
AcDbText
 10
-362.719112
 20
67.706191
 30
0.0
 40
4.05
  1
Kontr.
 41
0.8
  7
ROMANS
100
AcDbText
  0
TEXT
  5
4B
100
AcDbEntity
  8
RAMTEXT
 62
     6
100
AcDbText
 10
-360.535446
 20
49.706191
 30
0.0
 40
4.05
  1
Titel
 41
0.8
  7
ROMANS
100
AcDbText
  0
TEXT
  5
4C
100
AcDbEntity
  8
RAMTEXT
 62
     6
100
AcDbText
 10
-403.219112
 20
67.706191
 30
0.0
 40
4.05
  1
Kop.
 41
0.8
  7
ROMANS
100
AcDbText
  0
LINE
  5
4D
100
AcDbEntity
  8
RAM
100
AcDbLine
 10
-405.469112
 20
74.456191
 30
0.0
 11
-405.469112
 21
56.456191
 31
0.0
  0
LINE
  5
4E
100
AcDbEntity
  8
RAM
100
AcDbLine
 10
-326.719112
 20
74.456191
 30
0.0
 11
-326.719112
 21
56.456191
 31
0.0
  0
TEXT
  5
4F
100
AcDbEntity
  8
RAMTEXT
 62
     6
100
AcDbText
 10
-324.469112
 20
67.706191
 30
0.0
 40
4.05
  1
Stand.
 41
0.8
  7
ROMANS
100
AcDbText
  0
LINE
  5
50
100
AcDbEntity
  8
RAM
100
AcDbLine
 10
-287.344112
 20
74.456191
 30
0.0
 11
-287.344112
 21
56.456191
 31
0.0
  0
TEXT
  5
51
100
AcDbEntity
  8
RAMTEXT
 62
     6
100
AcDbText
 10
-283.969112
 20
67.706191
 30
0.0
 40
4.05
  1
Godk.
 41
0.8
  7
ROMANS
100
AcDbText
  0
TEXT
  5
52
100
AcDbEntity
  8
RAMTEXT
 62
     6
100
AcDbText
 10
-200.719112
 20
33.956191
 30
0.0
 40
4.05
  1
Ritn.-nr
 41
0.8
  7
ROMANS
100
AcDbText
  0
LINE
  5
53
100
AcDbEntity
  8
RAM
100
AcDbLine
 10
-247.969112
 20
74.456191
 30
0.0
 11
-247.969112
 21
56.456191
 31
0.0
  0
TEXT
  5
54
100
AcDbEntity
  8
RAMTEXT
 62
     6
100
AcDbText
 10
-245.719112
 20
67.706191
 30
0.0
 40
4.05
  1
Skala
 41
0.8
  7
ROMANS
100
AcDbText
  0
TEXT
  5
55
100
AcDbEntity
  8
RAMTEXT
 62
     6
100
AcDbText
 10
-200.719112
 20
49.706191
 30
0.0
 40
4.05
  1
Regist.nr
 41
0.8
  7
ROMANS
100
AcDbText
  0
TEXT
  5
56
100
AcDbEntity
  8
RAMTEXT
 62
     6
100
AcDbText
 10
-200.719112
 20
67.706191
 30
0.0
 40
4.05
  1
Ersätter
 41
0.8
  7
ROMANS
100
AcDbText
  0
TEXT
  5
57
100
AcDbEntity
  8
RAMTEXT
 62
     6
100
AcDbText
 10
-133.36657
 20
45.315794
 30
0.0
 40
5.892152
  1
00-11-10
 41
0.8
  7
ROMANS
100
AcDbText
  0
LINE
  5
58
100
AcDbEntity
  8
RAM
100
AcDbLine
 10
-152.344112
 20
74.456191
 30
0.0
 11
-152.344112
 21
40.706191
 31
0.0
  0
TEXT
  5
59
100
AcDbEntity
  8
RAMTEXT
 62
     6
100
AcDbText
 10
-173.864238
 20
24.95617
 30
0.0
 40
7.659798
  1
4-2607
 41
0.8
  7
ROMANS
100
AcDbText
  0
TEXT
  5
5A
100
AcDbEntity
  8
RAMTEXT
 62
     6
100
AcDbText
 10
-148.969112
 20
67.706191
 30
0.0
 40
4.05
  1
Ersatt av
 41
0.8
  7
ROMANS
100
AcDbText
  0
TEXT
  5
5B
100
AcDbEntity
  8
RAMTEXT
 62
     6
100
AcDbText
 10
-148.969112
 20
49.706191
 30
0.0
 40
4.05
  1
Dat.
 41
0.8
  7
ROMANS
100
AcDbText
  0
LINE
  5
69
100
AcDbEntity
  8
RAM
100
AcDbLine
 10
-506.719112
 20
356.081191
 30
0.0
 11
-484.219112
 21
356.081191
 31
0.0
  0
LINE
  5
6B
100
AcDbEntity
  8
RAM
100
AcDbLine
 10
10.780888
 20
356.081191
 30
0.0
 11
-17.344112
 21
356.081191
 31
0.0
  0
LINE
  5
79
100
AcDbEntity
  8
RAM
100
AcDbLine
 10
-17.344112
 20
725.977225
 30
0.0
 11
-484.219112
 21
725.977225
 31
0.0
  0
TEXT
  5
7A
100
AcDbEntity
  8
TEXT
 62
     1
100
AcDbText
 10
-465.55732
 20
676.546853
 30
0.0
 40
10.8
  1
GENERAL INSTRUCTIONS  SP 76500/SP 976500 E-30/E-60
 41
0.8
  7
ROMANT
100
AcDbText
  0
LINE
  5
88
100
AcDbEntity
  8
RAM
100
AcDbLine
 10
-472.969112
 20
748.477225
 30
0.0
 11
-472.969112
 21
725.977225
 31
0.0
  0
TEXT
  5
89
100
AcDbEntity
  8
TEXT
 62
     1
100
AcDbText
 10
-324.070709
 20
698.546853
 30
0.0
 40
13.5
  1
STALPROFIL AB
 41
0.8
  7
ROMANT
100
AcDbText
  0
LWPOLYLINE
  5
8A
100
AcDbEntity
  8
TEXT
 62
     1
100
AcDbPolyline
 90
       12
 70
     1
 43
1.95
 10
-334.838425
 20
710.074034
 42
1.0
 10
-336.217284
 20
708.695175
 10
-333.303858
 20
705.78175
 42
-0.414214
 10
-333.303858
 20
701.645175
 10
-336.557716
 20
698.391317
 42
-0.198912
 10
-338.626004
 20
697.534604
 10
-341.452854
 20
697.534604
 42
1.0
 10
-341.452854
 20
695.584604
 10
-337.010571
 20
695.584604
 42
0.198912
 10
-336.321142
 20
695.870175
 10
-329.167284
 20
703.024034
 42
0.414214
 10
-329.167284
 20
704.402892
  0
LWPOLYLINE
  5
8B
100
AcDbEntity
  8
TEXT
 62
     1
100
AcDbPolyline
 90
       12
 70
     1
 43
1.2
 10
-336.328033
 20
703.421
 42
1.000001
 10
-336.221967
 20
703.527067
 10
-339.135392
 20
706.440492
 42
-0.414214
 10
-339.135392
 20
711.849859
 10
-335.881534
 20
715.103717
 42
-0.198912
 10
-333.176851
 20
716.224034
 10
-330.35
 20
716.224034
 42
1.0
 10
-330.35
 20
716.374034
 10
-334.792284
 20
716.374034
 42
0.198912
 10
-334.845317
 20
716.352067
 10
-341.999175
 20
709.198208
 42
0.414214
 10
-341.999175
 20
709.092142
  0
LWPOLYLINE
  5
8C
100
AcDbEntity
  8
TEXT
 62
     1
100
AcDbPolyline
 90
       12
 70
     1
 43
1.95
 10
-336.964429
 20
702.784604
 42
1.0
 10
-335.585571
 20
704.163463
 10
-338.498996
 20
707.076888
 42
-0.414214
 10
-338.498996
 20
711.213463
 10
-335.245138
 20
714.467321
 42
-0.198912
 10
-333.176851
 20
715.324034
 10
-330.35
 20
715.324034
 42
1.0
 10
-330.35
 20
717.274034
 10
-334.792284
 20
717.274034
 42
0.198912
 10
-335.481713
 20
716.988463
 10
-342.635571
 20
709.834604
 42
0.414214
 10
-342.635571
 20
708.455746
  0
LWPOLYLINE
  5
8D
100
AcDbEntity
  8
TEXT
 62
     1
100
AcDbPolyline
 90
       12
 70
     1
 43
1.2
 10
-335.474821
 20
709.437637
 42
1.000001
 10
-335.580887
 20
709.331571
 10
-332.667462
 20
706.418146
 42
-0.414214
 10
-332.667462
 20
701.008779
 10
-335.92132
 20
697.754921
 42
-0.198912
 10
-338.626004
 20
696.634604
 10
-341.452854
 20
696.634604
 42
1.0
 10
-341.452854
 20
696.484604
 10
-337.010571
 20
696.484604
 42
0.198912
 10
-336.957538
 20
696.506571
 10
-329.80368
 20
703.66043
 42
0.414214
 10
-329.80368
 20
703.766496
  0
CIRCLE
  5
8E
100
AcDbEntity
  8
TEXT
 62
     1
100
AcDbCircle
 10
-298.400039
 20
715.317888
 30
0.0
 40
1.531699
  0
LINE
  5
8F
100
AcDbEntity
  8
RAM
100
AcDbLine
 10
-421.219112
 20
725.977225
 30
0.0
 11
-421.219112
 21
748.477225
 31
0.0
  0
LINE
  5
90
100
AcDbEntity
  8
RAM
100
AcDbLine
 10
-207.469112
 20
725.977225
 30
0.0
 11
-207.469112
 21
748.477225
 31
0.0
  0
TEXT
  5
184
100
AcDbEntity
  8
RAMTEXT
 62
     6
100
AcDbText
 10
-477.034996
 20
291.430636
 30
0.0
 40
6.871829
  1
FLUCH/BAR BOLT:
 41
0.8
  7
ROMANS
100
AcDbText
  0
TEXT
  5
185
100
AcDbEntity
  8
RAMTEXT
 62
     6
100
AcDbText
 10
-282.80869
 20
239.503034
 30
0.0
 40
6.696
  1
av värmestrålning genom glasrutor.
 41
0.8
  7
ROMANS
100
AcDbText
  0
TEXT
  5
186
100
AcDbEntity
  8
RAMTEXT
 62
     6
100
AcDbText
 10
-477.301369
 20
152.39724
 30
0.0
 40
6.695628
  1
With double windows the side window is provided with a flush bolt or a double action bar bolt. 
 41
0.8
  7
ROMANS
100
AcDbText
  0
TEXT
  5
187
100
AcDbEntity
  8
RAMTEXT
 62
     6
100
AcDbText
 10
-477.301369
 20
190.329795
 30
0.0
 40
6.695628
  1
Division of glazed and filled sections and number of mullions can be
 41
0.8
  7
ROMANS
100
AcDbText
  0
TEXT
  5
188
100
AcDbEntity
  8
RAMTEXT
 62
     6
100
AcDbText
 10
-477.301369
 20
179.740474
 30
0.0
 40
6.695628
  1
optionally varied, if the maximum measurements are not  exceeded.
 41
0.8
  7
ROMANS
100
AcDbText
  0
TEXT
  5
189
100
AcDbEntity
  8
RAMTEXT
 62
     6
100
AcDbText
 10
-477.034996
 20
272.224756
 30
0.0
 40
6.695628
  1
or a bar bolt. Bolts and the parts that affect them must be made of steel
 41
0.8
  7
ROMANS
100
AcDbText
  0
TEXT
  5
18A
100
AcDbEntity
  8
RAMTEXT
 62
     6
100
AcDbText
 10
-477.034996
 20
281.739595
 30
0.0
 40
6.695628
  1
With double doors the side door is provided with a two fluch bolts
 41
0.8
  7
ROMANS
100
AcDbText
  0
TEXT
  5
18B
100
AcDbEntity
  8
RAMTEXT
 62
     6
100
AcDbText
 10
-477.034996
 20
262.228483
 30
0.0
 40
6.695628
  1
or an alloy with a melting point exceeding 850%%dC.. Gear into locking plate at least 10 mm.
 41
0.8
  7
ROMANS
100
AcDbText
  0
TEXT
  5
18C
100
AcDbEntity
  8
RAMTEXT
 62
     6
100
AcDbText
 10
-477.301369
 20
105.337189
 30
0.0
 40
6.695628
  1
In normal indoors environment can topsealing be exclude, were the type approval certificate with
 41
0.8
  7
ROMANS
100
AcDbText
  0
TEXT
  5
18D
100
AcDbEntity
  8
RAMTEXT
 62
     6
100
AcDbText
 10
-477.001382
 20
85.505907
 30
0.0
 40
6.695628
  1
Bottomsealing will not be necessary if not Type approval prescribes this. 
 41
0.8
  7
ROMANS
100
AcDbText
  0
TEXT
  5
18E
100
AcDbEntity
  8
RAMTEXT
 62
     6
100
AcDbText
 10
-477.001382
 20
95.413167
 30
0.0
 40
6.695628
  1
belonging instructions dont shows anything else. Outdoor sections must allways be topsealed.
 41
0.8
  7
ROMANS
100
AcDbText
  0
TEXT
  5
18F
100
AcDbEntity
  8
RAMTEXT
 62
     6
100
AcDbText
 10
-477.001382
 20
132.565958
 30
0.0
 40
6.695628
  1
10 mm. Fire separating windows should be possible to open only with a tool, a key or something similar.
 41
0.8
  7
ROMANS
100
AcDbText
  0
TEXT
  5
190
100
AcDbEntity
  8
RAMTEXT
 62
     6
100
AcDbText
 10
-477.001382
 20
142.473219
 30
0.0
 40
6.695628
  1
Bolts, bar bolts and the parts that affect them must be made of steel. Minimum gear into locking plate 
 41
0.8
  7
ROMANS
100
AcDbText
  0
TEXT
  5
191
100
AcDbEntity
  8
RAMTEXT
 62
     6
100
AcDbText
 10
-477.301369
 20
199.046484
 30
0.0
 40
6.871829
  1
MEASURES:
 41
0.8
  7
ROMANS
100
AcDbText
  0
TEXT
  5
192
100
AcDbEntity
  8
RAMTEXT
 62
     6
100
AcDbText
 10
-477.301369
 20
163.340328
 30
0.0
 40
6.871829
  1
WINDOWS:
 41
0.8
  7
ROMANS
100
AcDbText
  0
TEXT
  5
193
100
AcDbEntity
  8
RAMTEXT
 62
     6
100
AcDbText
 10
-476.711636
 20
213.47805
 30
0.0
 40
5.892152
  1
Optional type
 41
0.8
  7
ROMANS
100
AcDbText
  0
TEXT
  5
194
100
AcDbEntity
  8
RAMTEXT
 62
     6
100
AcDbText
 10
-477.301369
 20
116.280277
 30
0.0
 40
6.871829
  1
Top/Bottomsealing:
 41
0.8
  7
ROMANS
100
AcDbText
  0
TEXT
  5
195
100
AcDbEntity
  8
RAMTEXT
 62
     6
100
AcDbText
 10
-476.711636
 20
248.270175
 30
0.0
 40
6.047209
  1
DOOR CLOSER IN FIRE RESISTANCE CLASS E30/E60:
 41
0.8
  7
ROMANT
100
AcDbText
  0
TEXT
  5
196
100
AcDbEntity
  8
RAMTEXT
 62
     6
100
AcDbText
 10
-476.711636
 20
238.405231
 30
0.0
 40
6.696
  1
Får ej medverka till brandspridning på grund
 41
0.8
  7
ROMANS
100
AcDbText
  0
TEXT
  5
197
100
AcDbEntity
  8
RAMTEXT
 62
     6
100
AcDbText
 10
-476.711636
 20
222.006166
 30
0.0
 40
6.047209
  1
DOOR CLOSER IN FIRE RESISTANCE CLASS EI30/A60:
 41
0.8
  7
ROMANT
100
AcDbText
  0
TEXT
  5
198
100
AcDbEntity
  8
RAMTEXT
 62
     6
100
AcDbText
 10
-476.730868
 20
377.200211
 30
0.0
 40
6.695628
  1
parts that affect it must be made of steel or an alloy with a
 41
0.8
  7
ROMANS
100
AcDbText
  0
TEXT
  5
199
100
AcDbEntity
  8
RAMTEXT
 62
     6
100
AcDbText
 10
-477.301369
 20
337.630043
 30
0.0
 40
6.695628
  1
Mortise lock with drop bolt. The bolt must not be lockable and must 
 41
0.8
  7
ROMANS
100
AcDbText
  0
TEXT
  5
19A
100
AcDbEntity
  8
RAMTEXT
 62
     6
100
AcDbText
 10
-477.301369
 20
317.355519
 30
0.0
 40
6.695628
  1
parts that affect it must be made of steel or an alloy with a melting point exceeding 850%%dC.
 41
0.8
  7
ROMANS
100
AcDbText
  0
TEXT
  5
19B
100
AcDbEntity
  8
RAMTEXT
 62
     6
100
AcDbText
 10
-477.301369
 20
327.225399
 30
0.0
 40
6.695628
  1
gear at least 10 mm into the locking plate. The drop bolt and the 
 41
0.8
  7
ROMANS
100
AcDbText
  0
TEXT
  5
19C
100
AcDbEntity
  8
RAMTEXT
 62
     6
100
AcDbText
 10
-477.301369
 20
348.499541
 30
0.0
 40
6.871829
  1
LOCK ACCORDING TO FIRE RESISTANCE CLASS E60/A60/EI60
 41
0.8
  7
ROMANT
100
AcDbText
  0
TEXT
  5
19D
100
AcDbEntity
  8
RAMTEXT
 62
     6
100
AcDbText
 10
-477.203355
 20
628.063072
 30
0.0
 40
6.695628
  1
with a flat steel or square tubes that are welded or screwed.
 41
0.8
  7
ROMANS
100
AcDbText
  0
TEXT
  5
19E
100
AcDbEntity
  8
RAMTEXT
 62
     6
100
AcDbText
 10
-475.84636
 20
504.139377
 30
0.0
 40
6.695628
  1
and E 30 can be performed with threshold, rubber seal SP 45065 or an automatic threshold of 
 41
0.8
  7
ROMANS
100
AcDbText
  0
TEXT
  5
19F
100
AcDbEntity
  8
RAMTEXT
 62
     6
100
AcDbText
 10
-476.39835
 20
437.085382
 30
0.0
 40
6.695628
  1
2-3 steel hinges fitted by welding or screws. Type approwed aluminium hinges for steeldoors could be 
 41
0.8
  7
ROMANS
100
AcDbText
  0
TEXT
  5
1A0
100
AcDbEntity
  8
RAMTEXT
 62
     6
100
AcDbText
 10
-475.84636
 20
463.948805
 30
0.0
 40
6.695628
  1
of 10 mm in this cases the SP 45065 can be used during condition that full tigthness will be provide
 41
0.8
  7
ROMANS
100
AcDbText
  0
TEXT
  5
1A1
100
AcDbEntity
  8
RAMTEXT
 62
     6
100
AcDbText
 10
-476.410934
 20
473.739385
 30
0.0
 40
6.695628
  1
exceed 18 mm if testing shows something else. Doors in fire rated class EI 60 and E 60 max opening 
 41
0.8
  7
ROMANS
100
AcDbText
  0
TEXT
  5
1A2
100
AcDbEntity
  8
RAMTEXT
 62
     6
100
AcDbText
 10
-476.39835
 20
426.6281
 30
0.0
 40
6.695628
  1
used in the system, provided that thebelonging mountingsinstructions will be followed.
 41
0.8
  7
ROMANS
100
AcDbText
  0
TEXT
  5
1A3
100
AcDbEntity
  8
RAMTEXT
 62
     6
100
AcDbText
 10
-476.410934
 20
484.253116
 30
0.0
 40
6.695628
  1
will be provided. The distance between the dorrleaf underedge a and floor "with out threshold" must not 
 41
0.8
  7
ROMANS
100
AcDbText
  0
TEXT
  5
1A4
100
AcDbEntity
  8
RAMTEXT
 62
     6
100
AcDbText
 10
-476.410934
 20
494.503194
 30
0.0
 40
6.695628
  1
of combustible or noncombustible  material plastic, rubber or equal, during condition that full tigthness 
 41
0.8
  7
ROMANS
100
AcDbText
  0
TEXT
  5
1A5
100
AcDbEntity
  8
RAMTEXT
 62
     6
100
AcDbText
 10
-477.301369
 20
408.305631
 30
0.0
 40
6.871829
  1
LOCK ACCORDING TO FIRE RESISTANCE CLASS E30/EI30:
 41
0.8
  7
ROMANT
100
AcDbText
  0
TEXT
  5
1A6
100
AcDbEntity
  8
RAMTEXT
 62
     6
100
AcDbText
 10
-475.84636
 20
514.047152
 30
0.0
 40
6.695628
  1
in the under edge of the door leaf. Doors in fire class EI 30 
 41
0.8
  7
ROMANS
100
AcDbText
  0
TEXT
  5
1A7
100
AcDbEntity
  8
RAMTEXT
 62
     6
100
AcDbText
 10
-475.84636
 20
524.435061
 30
0.0
 40
6.695628
  1
In cases when the door face against stairwell an opening will not be allowed in t
 41
0.8
  7
ROMANS
100
AcDbText
  0
TEXT
  5
1A8
100
AcDbEntity
  8
RAMTEXT
 62
     6
100
AcDbText
 10
-475.84636
 20
545.521899
 30
0.0
 40
6.695628
  1
As an alternative can door leaf and frame be provide with thin plate from the floor and up to 0.5 m , 
 41
0.8
  7
ROMANS
100
AcDbText
  0
TEXT
  5
1A9
100
AcDbEntity
  8
RAMTEXT
 62
     6
100
AcDbText
 10
-476.509754
 20
591.738
 30
0.0
 40
6.695628
  1
Movable fixing for the upper edge see drawing no..4-2355-B and 4-2508
 41
0.8
  7
ROMANS
100
AcDbText
  0
TEXT
  5
1AA
100
AcDbEntity
  8
RAMTEXT
 62
     6
100
AcDbText
 10
-476.428089
 20
601.320766
 30
0.0
 40
6.695628
  1
The sides and the lower edge of the section are welded or screwed. 
 41
0.8
  7
ROMANS
100
AcDbText
  0
TEXT
  5
1AB
100
AcDbEntity
  8
RAMTEXT
 62
     6
100
AcDbText
 10
-475.84636
 20
556.322196
 30
0.0
 40
6.695628
  1
of max 10 mm doors in this cases optional type of bristlebead, automatic threshold or rubber seal.
 41
0.8
  7
ROMANS
100
AcDbText
  0
TEXT
  5
1AC
100
AcDbEntity
  8
RAMTEXT
 62
     6
100
AcDbText
 10
-475.84636
 20
565.679603
 30
0.0
 40
6.695628
  1
The door can be performed without threshold and with an opening with the underedge of the door 
 41
0.8
  7
ROMANS
100
AcDbText
  0
TEXT
  5
1AD
100
AcDbEntity
  8
RAMTEXT
 62
     6
100
AcDbText
 10
-477.203355
 20
639.045174
 30
0.0
 40
6.695628
  1
Frame profiles are jointed by welding. Sections are jointed
 41
0.8
  7
ROMANS
100
AcDbText
  0
TEXT
  5
1AE
100
AcDbEntity
  8
RAMTEXT
 62
     6
100
AcDbText
 10
-476.730868
 20
388.243967
 30
0.0
 40
6.695628
  1
gear at least 7 mm into the locking plate. The drop bolt and the 
 41
0.8
  7
ROMANS
100
AcDbText
  0
TEXT
  5
1AF
100
AcDbEntity
  8
RAMTEXT
 62
     6
100
AcDbText
 10
-477.301369
 20
398.614591
 30
0.0
 40
6.695628
  1
Mortise lock with drop bolt. The bolt must not be lockable and must 
 41
0.8
  7
ROMANS
100
AcDbText
  0
TEXT
  5
1B0
100
AcDbEntity
  8
RAMTEXT
 62
     6
100
AcDbText
 10
-478.010199
 20
308.602018
 30
0.0
 40
6.695628
  1
Standard approved electric locking plates can be used.
 41
0.8
  7
ROMANS
100
AcDbText
  0
TEXT
  5
1B1
100
AcDbEntity
  8
RAMTEXT
 62
     6
100
AcDbText
 10
-478.010199
 20
367.793097
 30
0.0
 40
6.695628
  1
Standard approved electric locking plates can be used.
 41
0.8
  7
ROMANS
100
AcDbText
  0
TEXT
  5
1B2
100
AcDbEntity
  8
RAMTEXT
 62
     6
100
AcDbText
 10
-476.39835
 20
446.776422
 30
0.0
 40
6.871829
  1
HINGES:
 41
0.8
  7
ROMANS
100
AcDbText
  0
TEXT
  5
1B3
100
AcDbEntity
  8
RAMTEXT
 62
     6
100
AcDbText
 10
-477.203355
 20
647.268952
 30
0.0
 40
6.871829
  1
GENERAL INSTRUCTIONS:
 41
0.8
  7
ROMANS
100
AcDbText
  0
TEXT
  5
1B4
100
AcDbEntity
  8
RAMTEXT
 62
     6
100
AcDbText
 10
-475.84636
 20
575.370643
 30
0.0
 40
6.871829
  1
SPACE BETWEEN FLOOR AND DOOR:
 41
0.8
  7
ROMANS
100
AcDbText
  0
TEXT
  5
1B5
100
AcDbEntity
  8
RAMTEXT
 62
     6
100
AcDbText
 10
-476.428089
 20
611.011806
 30
0.0
 40
6.871829
  1
FIXING TO THE FRAME OF THE BUILDING:
 41
0.8
  7
ROMANS
100
AcDbText
  0
TEXT
  5
1B6
100
AcDbEntity
  8
RAMTEXT
 62
     6
100
AcDbText
 10
-475.84636
 20
535.909198
 30
0.0
 40
6.695628
  1
fixed in a way so it not will come loose under fire.
 41
0.8
  7
ROMANS
100
AcDbText
  0
ENDSEC
  0
SECTION
  2
OBJECTS
  0
DICTIONARY
  5
1A
100
AcDbDictionary
  3
ACAD_GROUP
350
18
  3
ACAD_MLINESTYLE
350
19
  3
CONTENTDICTIONARY
350
96
  0
DICTIONARY
  5
18
102
{ACAD_REACTORS
330
1A
102
}
100
AcDbDictionary
  0
DICTIONARY
  5
19
102
{ACAD_REACTORS
330
1A
102
}
100
AcDbDictionary
  3
STANDARD
350
1D
  0
DICTIONARY
  5
96
102
{ACAD_REACTORS
330
1A
102
}
100
AcDbDictionary
  0
MLINESTYLE
  5
1D
102
{ACAD_REACTORS
330
19
102
}
100
AcDbMlineStyle
  2
STANDARD
 70
     0
  3

 62
     0
 51
90.0
 52
90.0
 71
     2
 49
0.5
 62
   256
  6
BYLAYER
 49
-0.5
 62
   256
  6
BYLAYER
  0
ENDSEC
  0
EOF
