  0
SECTION
  2
HEADER
  9
$ACADVER
  1
AC1014
  9
$ACADMAINTVER
 70
     0
  9
$DWGCODEPAGE
  3
ANSI_1252
  9
$INSBASE
 10
-1990.0
 20
15.0
 30
0.0
  9
$EXTMIN
 10
-2506.719112
 20
25.706191
 30
0.0
  9
$EXTMAX
 10
-1401.950117
 20
775.797075
 30
0.0
  9
$LIMMIN
 10
0.0
 20
0.0
  9
$LIMMAX
 10
840.0
 20
600.0
  9
$ORTHOMODE
 70
     1
  9
$REGENMODE
 70
     1
  9
$FILLMODE
 70
     1
  9
$QTEXTMODE
 70
     0
  9
$MIRRTEXT
 70
     1
  9
$DRAGMODE
 70
     2
  9
$LTSCALE
 40
5.0
  9
$OSMODE
 70
     0
  9
$ATTMODE
 70
     1
  9
$TEXTSIZE
 40
5.0
  9
$TRACEWID
 40
0.05
  9
$TEXTSTYLE
  7
ROMANS
  9
$CLAYER
  8
GLAS_MED_FOGNING
  9
$CELTYPE
  6
BYLAYER
  9
$CECOLOR
 62
   256
  9
$CELTSCALE
 40
1.0
  9
$DELOBJ
 70
     1
  9
$DISPSILH
 70
     0
  9
$DIMSCALE
 40
1.2
  9
$DIMASZ
 40
0.0
  9
$DIMEXO
 40
1.0
  9
$DIMDLI
 40
10.0
  9
$DIMRND
 40
0.0
  9
$DIMDLE
 40
0.0
  9
$DIMEXE
 40
2.0
  9
$DIMTP
 40
0.0
  9
$DIMTM
 40
0.0
  9
$DIMTXT
 40
3.0
  9
$DIMCEN
 40
2.5
  9
$DIMTSZ
 40
1.0
  9
$DIMTOL
 70
     0
  9
$DIMLIM
 70
     0
  9
$DIMTIH
 70
     0
  9
$DIMTOH
 70
     0
  9
$DIMSE1
 70
     0
  9
$DIMSE2
 70
     0
  9
$DIMTAD
 70
     1
  9
$DIMZIN
 70
     8
  9
$DIMBLK
  1

  9
$DIMASO
 70
     1
  9
$DIMSHO
 70
     1
  9
$DIMPOST
  1

  9
$DIMAPOST
  1

  9
$DIMALT
 70
     0
  9
$DIMALTD
 70
     2
  9
$DIMALTF
 40
25.4
  9
$DIMLFAC
 40
1.0
  9
$DIMTOFL
 70
     1
  9
$DIMTVP
 40
0.0
  9
$DIMTIX
 70
     0
  9
$DIMSOXD
 70
     0
  9
$DIMSAH
 70
     0
  9
$DIMBLK1
  1

  9
$DIMBLK2
  1

  9
$DIMSTYLE
  2
ROMANS
  9
$DIMCLRD
 70
     0
  9
$DIMCLRE
 70
     0
  9
$DIMCLRT
 70
     6
  9
$DIMTFAC
 40
1.0
  9
$DIMGAP
 40
1.25
  9
$DIMJUST
 70
     0
  9
$DIMSD1
 70
     0
  9
$DIMSD2
 70
     0
  9
$DIMTOLJ
 70
     1
  9
$DIMTZIN
 70
     0
  9
$DIMALTZ
 70
     0
  9
$DIMALTTZ
 70
     0
  9
$DIMFIT
 70
     3
  9
$DIMUPT
 70
     0
  9
$DIMUNIT
 70
     2
  9
$DIMDEC
 70
     4
  9
$DIMTDEC
 70
     4
  9
$DIMALTU
 70
     2
  9
$DIMALTTD
 70
     2
  9
$DIMTXSTY
  7
STANDARD
  9
$DIMAUNIT
 70
     0
  9
$LUNITS
 70
     2
  9
$LUPREC
 70
     2
  9
$SKETCHINC
 40
0.1
  9
$FILLETRAD
 40
0.5
  9
$AUNITS
 70
     0
  9
$AUPREC
 70
     4
  9
$MENU
  1
acad
  9
$ELEVATION
 40
0.0
  9
$PELEVATION
 40
0.0
  9
$THICKNESS
 40
0.0
  9
$LIMCHECK
 70
     0
  9
$BLIPMODE
 70
     1
  9
$CHAMFERA
 40
10.0
  9
$CHAMFERB
 40
10.0
  9
$CHAMFERC
 40
0.0
  9
$CHAMFERD
 40
0.0
  9
$SKPOLY
 70
     0
  9
$TDCREATE
 40
2450609.793525810
  9
$TDUPDATE
 40
2452293.558949421
  9
$TDINDWG
 40
1.4461208333
  9
$TDUSRTIMER
 40
1.4461208333
  9
$USRTIMER
 70
     1
  9
$ANGBASE
 50
0.0
  9
$ANGDIR
 70
     0
  9
$PDMODE
 70
    35
  9
$PDSIZE
 40
0.0
  9
$PLINEWID
 40
0.0
  9
$COORDS
 70
     2
  9
$SPLFRAME
 70
     0
  9
$SPLINETYPE
 70
     6
  9
$SPLINESEGS
 70
     8
  9
$ATTDIA
 70
     0
  9
$ATTREQ
 70
     1
  9
$HANDLING
 70
     1
  9
$HANDSEED
  5
173
  9
$SURFTAB1
 70
     6
  9
$SURFTAB2
 70
     6
  9
$SURFTYPE
 70
     6
  9
$SURFU
 70
     6
  9
$SURFV
 70
     6
  9
$UCSNAME
  2

  9
$UCSORG
 10
0.0
 20
0.0
 30
0.0
  9
$UCSXDIR
 10
1.0
 20
0.0
 30
0.0
  9
$UCSYDIR
 10
0.0
 20
1.0
 30
0.0
  9
$PUCSNAME
  2

  9
$PUCSORG
 10
0.0
 20
0.0
 30
0.0
  9
$PUCSXDIR
 10
1.0
 20
0.0
 30
0.0
  9
$PUCSYDIR
 10
0.0
 20
1.0
 30
0.0
  9
$USERI1
 70
     0
  9
$USERI2
 70
     0
  9
$USERI3
 70
     0
  9
$USERI4
 70
     0
  9
$USERI5
 70
     0
  9
$USERR1
 40
0.0
  9
$USERR2
 40
0.0
  9
$USERR3
 40
0.0
  9
$USERR4
 40
0.0
  9
$USERR5
 40
0.0
  9
$WORLDVIEW
 70
     1
  9
$SHADEDGE
 70
     3
  9
$SHADEDIF
 70
    70
  9
$TILEMODE
 70
     1
  9
$MAXACTVP
 70
    16
  9
$PINSBASE
 10
0.0
 20
0.0
 30
0.0
  9
$PLIMCHECK
 70
     0
  9
$PEXTMIN
 10
1.000000E+20
 20
1.000000E+20
 30
1.000000E+20
  9
$PEXTMAX
 10
-1.000000E+20
 20
-1.000000E+20
 30
-1.000000E+20
  9
$PLIMMIN
 10
0.0
 20
0.0
  9
$PLIMMAX
 10
420.0
 20
297.0
  9
$UNITMODE
 70
     0
  9
$VISRETAIN
 70
     0
  9
$PLINEGEN
 70
     0
  9
$PSLTSCALE
 70
     1
  9
$TREEDEPTH
 70
  3020
  9
$PICKSTYLE
 70
     1
  9
$CMLSTYLE
  2
STANDARD
  9
$CMLJUST
 70
     0
  9
$CMLSCALE
 40
1.0
  9
$PROXYGRAPHICS
 70
     1
  9
$MEASUREMENT
 70
     0
  0
ENDSEC
  0
SECTION
  2
CLASSES
  0
CLASS
  1
LWPOLYLINE
  2
AcDbPolyline
  3
"AutoCAD"
 90
        0
280
     0
281
     1
  0
CLASS
  1
HATCH
  2
AcDbHatch
  3
"ACAD_SEDONA"
 90
        0
280
     0
281
     1
  0
CLASS
  1
DICTIONARYVAR
  2
AcDbDictionaryVar
  3
"AutoCAD"
 90
        0
280
     0
281
     0
  0
ENDSEC
  0
SECTION
  2
TABLES
  0
TABLE
  2
VPORT
  5
12
100
AcDbSymbolTable
 70
     2
  0
VPORT
  5
172
100
AcDbSymbolTableRecord
100
AcDbViewportTableRecord
  2
*ACTIVE
 70
     0
 10
0.0
 20
0.0
 11
1.0
 21
1.0
 12
-1700.0
 22
415.0
 13
0.0
 23
0.0
 14
5.0
 24
5.0
 15
10.0
 25
10.0
 16
0.0
 26
0.0
 36
1.0
 17
0.0
 27
0.0
 37
0.0
 40
790.0
 41
1.47625
 42
50.0
 43
0.0
 44
0.0
 50
0.0
 51
0.0
 71
     0
 72
   100
 73
     1
 74
     1
 75
     1
 76
     0
 77
     0
 78
     1
  0
ENDTAB
  0
TABLE
  2
LTYPE
  5
D
100
AcDbSymbolTable
 70
     1
  0
LTYPE
  5
E
100
AcDbSymbolTableRecord
100
AcDbLinetypeTableRecord
  2
BYBLOCK
 70
     0
  3

 72
    65
 73
     0
 40
0.0
  0
LTYPE
  5
F
100
AcDbSymbolTableRecord
100
AcDbLinetypeTableRecord
  2
BYLAYER
 70
     0
  3

 72
    65
 73
     0
 40
0.0
  0
LTYPE
  5
5
100
AcDbSymbolTableRecord
100
AcDbLinetypeTableRecord
  2
CONTINUOUS
 70
     0
  3
Solid line
 72
    65
 73
     0
 40
0.0
  0
ENDTAB
  0
TABLE
  2
LAYER
  5
A
100
AcDbSymbolTable
 70
     5
  0
LAYER
  5
4
100
AcDbSymbolTableRecord
100
AcDbLayerTableRecord
  2
0
 70
     0
 62
     7
  6
CONTINUOUS
  0
LAYER
  5
1B
100
AcDbSymbolTableRecord
100
AcDbLayerTableRecord
  2
GLAS_MED_FOGNING
 70
     0
 62
     2
  6
CONTINUOUS
  0
LAYER
  5
2D
100
AcDbSymbolTableRecord
100
AcDbLayerTableRecord
  2
TEXT
 70
     0
 62
     6
  6
CONTINUOUS
  0
LAYER
  5
20
100
AcDbSymbolTableRecord
100
AcDbLayerTableRecord
  2
RAM
 70
     0
 62
     5
  6
CONTINUOUS
  0
LAYER
  5
22
100
AcDbSymbolTableRecord
100
AcDbLayerTableRecord
  2
RAMTEXT
 70
     0
 62
     6
  6
CONTINUOUS
  0
ENDTAB
  0
TABLE
  2
STYLE
  5
B
100
AcDbSymbolTable
 70
     3
  0
STYLE
  5
C
100
AcDbSymbolTableRecord
100
AcDbTextStyleTableRecord
  2
STANDARD
 70
     0
 40
0.0
 41
1.0
 50
0.0
 71
     0
 42
5.0
  3
txt
  4

  0
STYLE
  5
1C
100
AcDbSymbolTableRecord
100
AcDbTextStyleTableRecord
  2
ROMANS
 70
     0
 40
0.0
 41
0.8
 50
0.0
 71
     0
 42
5.0
  3
romans
  4

  0
STYLE
  5
62
100
AcDbSymbolTableRecord
100
AcDbTextStyleTableRecord
  2
ROMANT
 70
     0
 40
0.0
 41
0.8
 50
0.0
 71
     0
 42
5.0
  3
romant
  4

  0
ENDTAB
  0
TABLE
  2
VIEW
  5
10
100
AcDbSymbolTable
 70
     0
  0
ENDTAB
  0
TABLE
  2
UCS
  5
11
100
AcDbSymbolTable
 70
     0
  0
ENDTAB
  0
TABLE
  2
APPID
  5
14
100
AcDbSymbolTable
 70
     1
  0
APPID
  5
15
100
AcDbSymbolTableRecord
100
AcDbRegAppTableRecord
  2
ACAD
 70
     0
  0
ENDTAB
  0
TABLE
  2
DIMSTYLE
  5
16
100
AcDbSymbolTable
 70
     1
  0
DIMSTYLE
105
1E
100
AcDbSymbolTableRecord
100
AcDbDimStyleTableRecord
  2
ROMANS
 70
     0
  3

  4

  5

  6

  7

 40
1.2
 41
0.0
 42
1.0
 43
10.0
 44
2.0
 45
0.0
 46
0.0
 47
0.0
 48
0.0
140
3.5
141
2.5
142
1.0
143
25.4
144
1.0
145
0.0
146
1.0
147
0.1
 71
     0
 72
     0
 73
     0
 74
     0
 75
     0
 76
     0
 77
     1
 78
     8
170
     0
171
     2
172
     1
173
     0
174
     0
175
     0
176
     0
177
     0
178
     6
270
     2
271
     2
272
     2
273
     2
274
     2
340
1C
275
     0
280
     0
281
     0
282
     0
283
     1
284
     8
285
     8
286
     8
287
     5
288
     0
  0
ENDTAB
  0
TABLE
  2
BLOCK_RECORD
  5
1
100
AcDbSymbolTable
 70
     1
  0
BLOCK_RECORD
  5
2
100
AcDbSymbolTableRecord
100
AcDbBlockTableRecord
  2
*MODEL_SPACE
  0
BLOCK_RECORD
  5
7
100
AcDbSymbolTableRecord
100
AcDbBlockTableRecord
  2
*PAPER_SPACE
  0
BLOCK_RECORD
  5
96
100
AcDbSymbolTableRecord
100
AcDbBlockTableRecord
  2
4-2615
  0
ENDTAB
  0
ENDSEC
  0
SECTION
  2
BLOCKS
  0
BLOCK
  5
3
100
AcDbEntity
  8
0
100
AcDbBlockBegin
  2
*MODEL_SPACE
 70
     2
 10
0.0
 20
0.0
 30
0.0
  3
*MODEL_SPACE
  1

  0
ENDBLK
  5
6
100
AcDbEntity
  8
0
100
AcDbBlockEnd
  0
BLOCK
  5
8
100
AcDbEntity
 67
     1
  8
0
100
AcDbBlockBegin
  2
*PAPER_SPACE
 70
     0
 10
0.0
 20
0.0
 30
0.0
  3
*PAPER_SPACE
  1

  0
ENDBLK
  5
9
100
AcDbEntity
 67
     1
  8
0
100
AcDbBlockEnd
  0
BLOCK
  5
103
100
AcDbEntity
  8
0
100
AcDbBlockBegin
  2
4-2615
 70
     0
 10
0.0
 20
0.0
 30
0.0
  3
4-2615
  1

  0
LINE
  5
97
100
AcDbEntity
  8
RAM
100
AcDbLine
 10
3.435405
 20
713.297075
 30
0.0
 11
3.435405
 21
10.526041
 31
0.0
  0
TEXT
  5
98
100
AcDbEntity
  8
RAMTEXT
 62
     6
100
AcDbText
 10
9.985431
 20
348.432448
 30
0.0
 40
6.695628
  1
parts that affect it must be made of steel or an alloy with a
 41
0.8
  7
ROMANS
100
AcDbText
  0
LINE
  5
99
100
AcDbEntity
  8
RAM
100
AcDbLine
 10
470.310405
 20
10.526041
 30
0.0
 11
470.310405
 21
713.297075
 31
0.0
  0
LINE
  5
9A
100
AcDbEntity
  8
RAM
100
AcDbLine
 10
284.685405
 20
33.026041
 30
0.0
 11
470.310405
 21
33.026041
 31
0.0
  0
LINE
  5
9B
100
AcDbEntity
  8
RAM
100
AcDbLine
 10
3.435405
 20
10.526041
 30
0.0
 11
470.310405
 21
10.526041
 31
0.0
  0
LINE
  5
9C
100
AcDbEntity
  8
RAM
100
AcDbLine
 10
3.435405
 20
48.776041
 30
0.0
 11
470.310405
 21
48.776041
 31
0.0
  0
LINE
  5
9D
100
AcDbEntity
  8
RAM
100
AcDbLine
 10
3.435405
 20
66.776041
 30
0.0
 11
470.310405
 21
66.776041
 31
0.0
  0
TEXT
  5
9E
100
AcDbEntity
  8
RAMTEXT
 62
     6
100
AcDbText
 10
163.185405
 20
60.026041
 30
0.0
 40
4.05
  1
Stand.
 41
0.8
  7
ROMANS
100
AcDbText
  0
TEXT
  5
9F
100
AcDbEntity
  8
RAMTEXT
 62
     6
100
AcDbText
 10
128.222553
 20
28.711493
 30
0.0
 40
5.892152
  1
GENERAL INSTRUCTIONS SP 79000
 41
0.8
  7
ROMANS
100
AcDbText
  0
TEXT
  5
A0
100
AcDbEntity
  8
RAMTEXT
 62
     6
100
AcDbText
 10
126.8318
 20
17.686409
 30
0.0
 40
5.892152
  1
FIRE RESISTANCE CLASS EI-60/E-60
 41
0.8
  7
ROMANS
100
AcDbText
  0
TEXT
  5
A1
100
AcDbEntity
  8
RAMTEXT
 62
     6
100
AcDbText
 10
9.41493
 20
91.569426
 30
0.0
 40
6.695628
  1
In normal indoors environment can topsealing be exclude, were the type approval certificate with
 41
0.8
  7
ROMANS
100
AcDbText
  0
TEXT
  5
A2
100
AcDbEntity
  8
RAMTEXT
 62
     6
100
AcDbText
 10
9.714918
 20
71.738143
 30
0.0
 40
6.695628
  1
Bottomsealing will not be necessary if not Type approval prescribes this. 
 41
0.8
  7
ROMANS
100
AcDbText
  0
TEXT
  5
A3
100
AcDbEntity
  8
RAMTEXT
 62
     6
100
AcDbText
 10
9.714918
 20
81.645404
 30
0.0
 40
6.695628
  1
belonging instructions dont shows anything else. Outdoor sections must allways be topsealed.
 41
0.8
  7
ROMANS
100
AcDbText
  0
LINE
  5
A4
100
AcDbEntity
  8
RAM
100
AcDbLine
 10
3.435405
 20
10.526041
 30
0.0
 11
3.435405
 21
66.776041
 31
0.0
  0
LINE
  5
A5
100
AcDbEntity
  8
RAM
100
AcDbLine
 10
160.935405
 20
66.776041
 30
0.0
 11
160.935405
 21
48.776041
 31
0.0
  0
LINE
  5
A6
100
AcDbEntity
  8
RAM
100
AcDbLine
 10
121.560405
 20
66.776041
 30
0.0
 11
121.560405
 21
10.526041
 31
0.0
  0
LINE
  5
A7
100
AcDbEntity
  8
RAM
100
AcDbLine
 10
82.185405
 20
66.776041
 30
0.0
 11
82.185405
 21
48.776041
 31
0.0
  0
LINE
  5
A8
100
AcDbEntity
  8
RAM
100
AcDbLine
 10
42.810405
 20
66.776041
 30
0.0
 11
42.810405
 21
48.776041
 31
0.0
  0
TEXT
  5
A9
100
AcDbEntity
  8
RAMTEXT
 62
     6
100
AcDbText
 10
47.723115
 20
51.773907
 30
0.0
 40
4.910127
  1
R.O
 41
0.8
  7
ROMANS
100
AcDbText
  0
TEXT
  5
AA
100
AcDbEntity
  8
RAMTEXT
 62
     6
100
AcDbText
 10
7.869071
 20
42.026041
 30
0.0
 40
4.05
  1
Firma
 41
0.8
  7
ROMANS
100
AcDbText
  0
LWPOLYLINE
  5
AB
100
AcDbEntity
  8
TEXT
 62
     1
100
AcDbPolyline
 90
       12
 70
     1
 43
1.4625
 10
15.342292
 20
30.60377
 42
1.0
 10
14.308149
 20
29.569626
 10
16.493218
 20
27.384557
 42
-0.414214
 10
16.493218
 20
24.282126
 10
14.052824
 20
21.841732
 42
-0.198912
 10
12.501608
 20
21.199198
 10
10.38147
 20
21.199198
 42
1.0
 10
10.38147
 20
19.736698
 10
13.713183
 20
19.736698
 42
0.198912
 10
14.230255
 20
19.950876
 10
19.595649
 20
25.31627
 42
0.414214
 10
19.595649
 20
26.350413
  0
LWPOLYLINE
  5
AC
100
AcDbEntity
  8
TEXT
 62
     1
100
AcDbPolyline
 90
       12
 70
     1
 43
0.9
 10
14.225087
 20
25.613995
 42
1.000001
 10
14.304636
 20
25.693544
 10
12.119567
 20
27.878613
 42
-0.414214
 10
12.119567
 20
31.935639
 10
14.559961
 20
34.376032
 42
-0.198912
 10
16.588473
 20
35.21627
 10
18.708611
 20
35.21627
 42
1.0
 10
18.708611
 20
35.32877
 10
15.376899
 20
35.32877
 42
0.198912
 10
15.337124
 20
35.312294
 10
9.97173
 20
29.946901
 42
0.414214
 10
9.97173
 20
29.867351
  0
LWPOLYLINE
  5
AD
100
AcDbEntity
  8
TEXT
 62
     1
100
AcDbPolyline
 90
       12
 70
     1
 43
1.4625
 10
13.747789
 20
25.136698
 42
1.0
 10
14.781933
 20
26.170842
 10
12.596864
 20
28.355911
 42
-0.414214
 10
12.596864
 20
31.458342
 10
15.037258
 20
33.898735
 42
-0.198912
 10
16.588473
 20
34.54127
 10
18.708611
 20
34.54127
 42
1.0
 10
18.708611
 20
36.00377
 10
15.376899
 20
36.00377
 42
0.198912
 10
14.859827
 20
35.789592
 10
9.494433
 20
30.424198
 42
0.414214
 10
9.494433
 20
29.390054
  0
LWPOLYLINE
  5
AE
100
AcDbEntity
  8
TEXT
 62
     1
100
AcDbPolyline
 90
       12
 70
     1
 43
0.9
 10
14.864995
 20
30.126473
 42
1.000001
 10
14.785446
 20
30.046923
 10
16.970515
 20
27.861854
 42
-0.414214
 10
16.970515
 20
23.804829
 10
14.530121
 20
21.364435
 42
-0.198912
 10
12.501608
 20
20.524198
 10
10.38147
 20
20.524198
 42
1.0
 10
10.38147
 20
20.411698
 10
13.713183
 20
20.411698
 42
0.198912
 10
13.752958
 20
20.428173
 10
19.118351
 20
25.793567
 42
0.414214
 10
19.118351
 20
25.873116
  0
TEXT
  5
AF
100
AcDbEntity
  8
TEXT
 62
     1
100
AcDbText
 10
23.41808
 20
22.16627
 30
0.0
 40
10.125
  1
STALPROFIL AB
 41
0.8
  7
ROMANS
100
AcDbText
  0
LINE
  5
B0
100
AcDbEntity
  8
RAM
100
AcDbLine
 10
14.685405
 20
-1.973959
 30
0.0
 11
14.685405
 21
10.526041
 31
0.0
  0
LINE
  5
B1
100
AcDbEntity
  8
RAM
100
AcDbLine
 10
66.435405
 20
10.526041
 30
0.0
 11
72.060405
 21
-0.723959
 31
0.0
  0
LINE
  5
B2
100
AcDbEntity
  8
RAM
100
AcDbLine
 10
60.810405
 20
-0.723959
 30
0.0
 11
66.435405
 21
10.526041
 31
0.0
  0
CIRCLE
  5
B3
100
AcDbEntity
  8
TEXT
 62
     1
100
AcDbCircle
 10
40.781952
 20
34.873726
 30
0.0
 40
1.148774
  0
TEXT
  5
B4
100
AcDbEntity
  8
RAMTEXT
 62
     6
100
AcDbText
 10
127.119071
 20
42.026041
 30
0.0
 40
4.05
  1
Titel
 41
0.8
  7
ROMANS
100
AcDbText
  0
TEXT
  5
B5
100
AcDbEntity
  8
RAMTEXT
 62
     6
100
AcDbText
 10
5.685405
 20
60.026041
 30
0.0
 40
4.05
  1
Konstr.
 41
0.8
  7
ROMANS
100
AcDbText
  0
TEXT
  5
B6
100
AcDbEntity
  8
RAMTEXT
 62
     6
100
AcDbText
 10
9.41493
 20
102.512514
 30
0.0
 40
6.871829
  1
Top/Bottomsealing:
 41
0.8
  7
ROMANS
100
AcDbText
  0
LINE
  5
B7
100
AcDbEntity
  8
RAM
100
AcDbLine
 10
3.435405
 20
66.776041
 30
0.0
 11
3.435405
 21
92.526041
 31
0.0
  0
TEXT
  5
B8
100
AcDbEntity
  8
RAMTEXT
 62
     6
100
AcDbText
 10
84.435405
 20
60.026041
 30
0.0
 40
4.05
  1
Kop.
 41
0.8
  7
ROMANS
100
AcDbText
  0
TEXT
  5
B9
100
AcDbEntity
  8
RAMTEXT
 62
     6
100
AcDbText
 10
46.185405
 20
60.026041
 30
0.0
 40
4.05
  1
Ritad
 41
0.8
  7
ROMANS
100
AcDbText
  0
TEXT
  5
BA
100
AcDbEntity
  8
RAMTEXT
 62
     6
100
AcDbText
 10
124.935405
 20
60.026041
 30
0.0
 40
4.05
  1
Kontr.
 41
0.8
  7
ROMANS
100
AcDbText
  0
LINE
  5
BB
100
AcDbEntity
  8
RAM
100
AcDbLine
 10
335.310405
 20
66.776041
 30
0.0
 11
335.310405
 21
33.026041
 31
0.0
  0
LINE
  5
BC
100
AcDbEntity
  8
RAM
100
AcDbLine
 10
239.685405
 20
66.776041
 30
0.0
 11
239.685405
 21
48.776041
 31
0.0
  0
LINE
  5
BD
100
AcDbEntity
  8
RAM
100
AcDbLine
 10
200.310405
 20
66.776041
 30
0.0
 11
200.310405
 21
48.776041
 31
0.0
  0
LINE
  5
BE
100
AcDbEntity
  8
RAM
100
AcDbLine
 10
284.685405
 20
66.776041
 30
0.0
 11
284.685405
 21
10.526041
 31
0.0
  0
TEXT
  5
BF
100
AcDbEntity
  8
RAMTEXT
 62
     6
100
AcDbText
 10
313.790279
 20
17.27602
 30
0.0
 40
7.659798
  1
4-2515
 41
0.8
  7
ROMANS
100
AcDbText
  0
TEXT
  5
C0
100
AcDbEntity
  8
RAMTEXT
 62
     6
100
AcDbText
 10
286.935405
 20
42.026041
 30
0.0
 40
4.05
  1
Regist.nr
 41
0.8
  7
ROMANS
100
AcDbText
  0
TEXT
  5
C1
100
AcDbEntity
  8
RAMTEXT
 62
     6
100
AcDbText
 10
286.935405
 20
26.276041
 30
0.0
 40
4.05
  1
Ritn.-nr
 41
0.8
  7
ROMANS
100
AcDbText
  0
TEXT
  5
C2
100
AcDbEntity
  8
RAMTEXT
 62
     6
100
AcDbText
 10
354.287947
 20
37.635644
 30
0.0
 40
5.892152
  1
99-03-08
 41
0.8
  7
ROMANS
100
AcDbText
  0
TEXT
  5
C3
100
AcDbEntity
  8
RAMTEXT
 62
     6
100
AcDbText
 10
338.685405
 20
42.026041
 30
0.0
 40
4.05
  1
Dat.
 41
0.8
  7
ROMANS
100
AcDbText
  0
TEXT
  5
C4
100
AcDbEntity
  8
RAMTEXT
 62
     6
100
AcDbText
 10
203.685405
 20
60.026041
 30
0.0
 40
4.05
  1
Godk.
 41
0.8
  7
ROMANS
100
AcDbText
  0
TEXT
  5
C5
100
AcDbEntity
  8
RAMTEXT
 62
     6
100
AcDbText
 10
241.935405
 20
60.026041
 30
0.0
 40
4.05
  1
Skala
 41
0.8
  7
ROMANS
100
AcDbText
  0
TEXT
  5
C6
100
AcDbEntity
  8
RAMTEXT
 62
     6
100
AcDbText
 10
286.935405
 20
60.026041
 30
0.0
 40
4.05
  1
Ersätter
 41
0.8
  7
ROMANS
100
AcDbText
  0
TEXT
  5
C7
100
AcDbEntity
  8
RAMTEXT
 62
     6
100
AcDbText
 10
338.685405
 20
60.026041
 30
0.0
 40
4.05
  1
Ersatt av
 41
0.8
  7
ROMANS
100
AcDbText
  0
TEXT
  5
C8
100
AcDbEntity
  8
RAMTEXT
 62
     6
100
AcDbText
 10
10.004663
 20
229.502411
 30
0.0
 40
6.047209
  1
DOOR CLOSER IN FIRE RESISTANCE CLASS E30/E60:
 41
0.8
  7
ROMANT
100
AcDbText
  0
TEXT
  5
C9
100
AcDbEntity
  8
RAMTEXT
 62
     6
100
AcDbText
 10
9.714918
 20
118.798194
 30
0.0
 40
6.695628
  1
10 mm. Fire separating windows should be possible to open only with a tool, a key or something similar.
 41
0.8
  7
ROMANS
100
AcDbText
  0
TEXT
  5
CA
100
AcDbEntity
  8
RAMTEXT
 62
     6
100
AcDbText
 10
9.714918
 20
128.705455
 30
0.0
 40
6.695628
  1
Bolts, bar bolts and the parts that affect them must be made of steel. Minimum gear into locking plate 
 41
0.8
  7
ROMANS
100
AcDbText
  0
TEXT
  5
CB
100
AcDbEntity
  8
RAMTEXT
 62
     6
100
AcDbText
 10
9.41493
 20
138.629477
 30
0.0
 40
6.695628
  1
With double windows the side window is provided with a flush bolt or a double action bar bolt. 
 41
0.8
  7
ROMANS
100
AcDbText
  0
TEXT
  5
CC
100
AcDbEntity
  8
RAMTEXT
 62
     6
100
AcDbText
 10
9.41493
 20
176.562031
 30
0.0
 40
6.695628
  1
Division of glazed and filled sections and number of mullions can be
 41
0.8
  7
ROMANS
100
AcDbText
  0
TEXT
  5
CD
100
AcDbEntity
  8
RAMTEXT
 62
     6
100
AcDbText
 10
9.41493
 20
165.972711
 30
0.0
 40
6.695628
  1
optionally varied, if the maximum measurements are not  exceeded.
 41
0.8
  7
ROMANS
100
AcDbText
  0
TEXT
  5
CE
100
AcDbEntity
  8
RAMTEXT
 62
     6
100
AcDbText
 10
10.004663
 20
219.637468
 30
0.0
 40
6.696
  1
Får ej medverka till brandspridning på grund
 41
0.8
  7
ROMANS
100
AcDbText
  0
TEXT
  5
CF
100
AcDbEntity
  8
RAMTEXT
 62
     6
100
AcDbText
 10
10.004663
 20
208.238402
 30
0.0
 40
6.047209
  1
DOOR CLOSER IN FIRE RESISTANCE CLASS EI30/A60:
 41
0.8
  7
ROMANT
100
AcDbText
  0
TEXT
  5
D0
100
AcDbEntity
  8
RAMTEXT
 62
     6
100
AcDbText
 10
9.41493
 20
149.572565
 30
0.0
 40
6.871829
  1
WINDOWS:
 41
0.8
  7
ROMANS
100
AcDbText
  0
TEXT
  5
D1
100
AcDbEntity
  8
RAMTEXT
 62
     6
100
AcDbText
 10
10.004663
 20
199.710287
 30
0.0
 40
5.892152
  1
Optional type
 41
0.8
  7
ROMANS
100
AcDbText
  0
TEXT
  5
D2
100
AcDbEntity
  8
RAMTEXT
 62
     6
100
AcDbText
 10
9.41493
 20
185.278721
 30
0.0
 40
6.871829
  1
MEASURES:
 41
0.8
  7
ROMANS
100
AcDbText
  0
TEXT
  5
D3
100
AcDbEntity
  8
RAMTEXT
 62
     6
100
AcDbText
 10
203.90761
 20
220.735271
 30
0.0
 40
6.696
  1
av värmestrålning genom glasrutor.
 41
0.8
  7
ROMANS
100
AcDbText
  0
TEXT
  5
D4
100
AcDbEntity
  8
RAMTEXT
 62
     6
100
AcDbText
 10
9.41493
 20
313.862279
 30
0.0
 40
6.695628
  1
Mortise lock with drop bolt. The bolt must not be lockable and must 
 41
0.8
  7
ROMANS
100
AcDbText
  0
TEXT
  5
D5
100
AcDbEntity
  8
RAMTEXT
 62
     6
100
AcDbText
 10
9.41493
 20
293.587756
 30
0.0
 40
6.695628
  1
parts that affect it must be made of steel or an alloy with a melting point exceeding 850%%dC.
 41
0.8
  7
ROMANS
100
AcDbText
  0
TEXT
  5
D6
100
AcDbEntity
  8
RAMTEXT
 62
     6
100
AcDbText
 10
9.41493
 20
303.457636
 30
0.0
 40
6.695628
  1
gear at least 10 mm into the locking plate. The drop bolt and the 
 41
0.8
  7
ROMANS
100
AcDbText
  0
TEXT
  5
D7
100
AcDbEntity
  8
RAMTEXT
 62
     6
100
AcDbText
 10
8.706101
 20
284.834255
 30
0.0
 40
6.695628
  1
Standard approved electric locking plates can be used.
 41
0.8
  7
ROMANS
100
AcDbText
  0
TEXT
  5
D8
100
AcDbEntity
  8
RAMTEXT
 62
     6
100
AcDbText
 10
8.706101
 20
339.025333
 30
0.0
 40
6.695628
  1
Standard approved electric locking plates can be used.
 41
0.8
  7
ROMANS
100
AcDbText
  0
TEXT
  5
D9
100
AcDbEntity
  8
RAMTEXT
 62
     6
100
AcDbText
 10
9.41493
 20
324.731778
 30
0.0
 40
6.871829
  1
LOCK ACCORDING TO FIRE RESISTANCE CLASS E60/A60:
 41
0.8
  7
ROMANT
100
AcDbText
  0
TEXT
  5
DA
100
AcDbEntity
  8
RAMTEXT
 62
     6
100
AcDbText
 10
9.681304
 20
253.456992
 30
0.0
 40
6.695628
  1
or a bar bolt. Bolts and the parts that affect them must be made of steel
 41
0.8
  7
ROMANS
100
AcDbText
  0
TEXT
  5
DB
100
AcDbEntity
  8
RAMTEXT
 62
     6
100
AcDbText
 10
9.681304
 20
262.971832
 30
0.0
 40
6.695628
  1
With double doors the side door is provided with a two fluch bolts
 41
0.8
  7
ROMANS
100
AcDbText
  0
TEXT
  5
DC
100
AcDbEntity
  8
RAMTEXT
 62
     6
100
AcDbText
 10
9.681304
 20
243.46072
 30
0.0
 40
6.695628
  1
or an alloy with a melting point exceeding 850%%dC.. Gear into locking plate at least 10 mm.
 41
0.8
  7
ROMANS
100
AcDbText
  0
TEXT
  5
DD
100
AcDbEntity
  8
RAMTEXT
 62
     6
100
AcDbText
 10
9.681304
 20
272.662872
 30
0.0
 40
6.871829
  1
FLUCH/BAR BOLT:
 41
0.8
  7
ROMANS
100
AcDbText
  0
LINE
  5
DE
100
AcDbEntity
  8
RAM
100
AcDbLine
 10
-19.064595
 20
343.401041
 30
0.0
 11
3.435405
 21
343.401041
 31
0.0
  0
LINE
  5
DF
100
AcDbEntity
  8
RAM
100
AcDbLine
 10
498.435405
 20
343.401041
 30
0.0
 11
470.310405
 21
343.401041
 31
0.0
  0
TEXT
  5
E0
100
AcDbEntity
  8
RAMTEXT
 62
     6
100
AcDbText
 10
9.512945
 20
589.295309
 30
0.0
 40
6.695628
  1
with a flat steel or square tubes that are welded or screwed.
 41
0.8
  7
ROMANS
100
AcDbText
  0
TEXT
  5
E1
100
AcDbEntity
  8
RAMTEXT
 62
     6
100
AcDbText
 10
10.86994
 20
470.371613
 30
0.0
 40
6.695628
  1
and E 30 can be performed with threshold, rubber seal SP 45065 or an automatic threshold of 
 41
0.8
  7
ROMANS
100
AcDbText
  0
TEXT
  5
E2
100
AcDbEntity
  8
RAMTEXT
 62
     6
100
AcDbText
 10
10.317949
 20
408.317619
 30
0.0
 40
6.695628
  1
2-3 steel hinges fitted by welding or screws. Type approwed aluminium hinges for steeldoors could be 
 41
0.8
  7
ROMANS
100
AcDbText
  0
TEXT
  5
E3
100
AcDbEntity
  8
RAMTEXT
 62
     6
100
AcDbText
 10
10.86994
 20
430.181042
 30
0.0
 40
6.695628
  1
of 10 mm in this cases the SP 45065 can be used during condition that full tigthness will be provide
 41
0.8
  7
ROMANS
100
AcDbText
  0
TEXT
  5
E4
100
AcDbEntity
  8
RAMTEXT
 62
     6
100
AcDbText
 10
10.305366
 20
439.971622
 30
0.0
 40
6.695628
  1
exceed 18 mm if testing shows something else. Doors in fire rated class EI 60 and E 60 max opening 
 41
0.8
  7
ROMANS
100
AcDbText
  0
TEXT
  5
E5
100
AcDbEntity
  8
RAMTEXT
 62
     6
100
AcDbText
 10
10.317949
 20
397.860337
 30
0.0
 40
6.695628
  1
used in the system, provided that thebelonging mountingsinstructions will be followed.
 41
0.8
  7
ROMANS
100
AcDbText
  0
TEXT
  5
E6
100
AcDbEntity
  8
RAMTEXT
 62
     6
100
AcDbText
 10
10.305366
 20
450.485352
 30
0.0
 40
6.695628
  1
will be provided. The distance between the dorrleaf underedge a and floor "with out threshold" must not 
 41
0.8
  7
ROMANS
100
AcDbText
  0
TEXT
  5
E7
100
AcDbEntity
  8
RAMTEXT
 62
     6
100
AcDbText
 10
10.305366
 20
460.735431
 30
0.0
 40
6.695628
  1
of combustible or noncombustible  material plastic, rubber or equal, during condition that full tigthness 
 41
0.8
  7
ROMANS
100
AcDbText
  0
TEXT
  5
E8
100
AcDbEntity
  8
RAMTEXT
 62
     6
100
AcDbText
 10
9.985431
 20
359.476203
 30
0.0
 40
6.695628
  1
gear at least 7 mm into the locking plate. The drop bolt and the 
 41
0.8
  7
ROMANS
100
AcDbText
  0
TEXT
  5
E9
100
AcDbEntity
  8
RAMTEXT
 62
     6
100
AcDbText
 10
9.41493
 20
369.846828
 30
0.0
 40
6.695628
  1
Mortise lock with drop bolt. The bolt must not be lockable and must 
 41
0.8
  7
ROMANS
100
AcDbText
  0
TEXT
  5
EA
100
AcDbEntity
  8
RAMTEXT
 62
     6
100
AcDbText
 10
9.41493
 20
379.537868
 30
0.0
 40
6.871829
  1
LOCK ACCORDING TO FIRE RESISTANCE CLASS E30/EI30:
 41
0.8
  7
ROMANT
100
AcDbText
  0
TEXT
  5
EB
100
AcDbEntity
  8
RAMTEXT
 62
     6
100
AcDbText
 10
10.317949
 20
418.008659
 30
0.0
 40
6.871829
  1
HINGES:
 41
0.8
  7
ROMANS
100
AcDbText
  0
TEXT
  5
EC
100
AcDbEntity
  8
RAMTEXT
 62
     6
100
AcDbText
 10
10.86994
 20
480.279388
 30
0.0
 40
6.695628
  1
in the under edge of the door leaf. Doors in fire class EI 30 
 41
0.8
  7
ROMANS
100
AcDbText
  0
TEXT
  5
ED
100
AcDbEntity
  8
RAMTEXT
 62
     6
100
AcDbText
 10
10.86994
 20
490.667298
 30
0.0
 40
6.695628
  1
In cases when the door face against stairwell an opening will not be allowed in t
 41
0.8
  7
ROMANS
100
AcDbText
  0
TEXT
  5
EE
100
AcDbEntity
  8
RAMTEXT
 62
     6
100
AcDbText
 10
10.86994
 20
502.141435
 30
0.0
 40
6.695628
  1
fixed in a way so it not will come loose under fire.
 41
0.8
  7
ROMANS
100
AcDbText
  0
TEXT
  5
EF
100
AcDbEntity
  8
RAMTEXT
 62
     6
100
AcDbText
 10
10.86994
 20
511.754136
 30
0.0
 40
6.695628
  1
As an alternative can door leaf and frame be provide with thin plate from the floor and up to 0.5 m , 
 41
0.8
  7
ROMANS
100
AcDbText
  0
TEXT
  5
F0
100
AcDbEntity
  8
RAMTEXT
 62
     6
100
AcDbText
 10
10.206546
 20
557.970237
 30
0.0
 40
6.695628
  1
Movable fixing for the upper edge see drawing no..4-2358-B. 
 41
0.8
  7
ROMANS
100
AcDbText
  0
TEXT
  5
F1
100
AcDbEntity
  8
RAMTEXT
 62
     6
100
AcDbText
 10
10.288211
 20
567.553002
 30
0.0
 40
6.695628
  1
The sides and the lower edge of the section are welded or screwed. 
 41
0.8
  7
ROMANS
100
AcDbText
  0
TEXT
  5
F2
100
AcDbEntity
  8
RAMTEXT
 62
     6
100
AcDbText
 10
10.86994
 20
522.554433
 30
0.0
 40
6.695628
  1
of max 10 mm doors in this cases optional type of bristlebead, automatic threshold or rubber seal.
 41
0.8
  7
ROMANS
100
AcDbText
  0
TEXT
  5
F3
100
AcDbEntity
  8
RAMTEXT
 62
     6
100
AcDbText
 10
10.86994
 20
531.911839
 30
0.0
 40
6.695628
  1
The door can be performed without threshold and with an opening with the underedge of the door 
 41
0.8
  7
ROMANS
100
AcDbText
  0
TEXT
  5
F4
100
AcDbEntity
  8
RAMTEXT
 62
     6
100
AcDbText
 10
10.288211
 20
577.244043
 30
0.0
 40
6.871829
  1
FIXING TO THE FRAME OF THE BUILDING:
 41
0.8
  7
ROMANS
100
AcDbText
  0
TEXT
  5
F5
100
AcDbEntity
  8
RAMTEXT
 62
     6
100
AcDbText
 10
10.86994
 20
541.60288
 30
0.0
 40
6.871829
  1
SPACE BETWEEN FLOOR AND DOOR:
 41
0.8
  7
ROMANS
100
AcDbText
  0
LINE
  5
F6
100
AcDbEntity
  8
RAM
100
AcDbLine
 10
470.310405
 20
713.297075
 30
0.0
 11
3.435405
 21
713.297075
 31
0.0
  0
TEXT
  5
F7
100
AcDbEntity
  8
TEXT
 62
     1
100
AcDbText
 10
52.055597
 20
663.866703
 30
0.0
 40
10.8
  1
GENERAL INSTRUCTIONS SP 79000 EI-60/E-60
 41
0.8
  7
ROMANT
100
AcDbText
  0
TEXT
  5
F8
100
AcDbEntity
  8
RAMTEXT
 62
     6
100
AcDbText
 10
9.512945
 20
600.277411
 30
0.0
 40
6.695628
  1
Frame profiles are jointed by welding. Sections are jointed
 41
0.8
  7
ROMANS
100
AcDbText
  0
TEXT
  5
F9
100
AcDbEntity
  8
RAMTEXT
 62
     6
100
AcDbText
 10
9.512945
 20
608.501189
 30
0.0
 40
6.871829
  1
GENERAL INSTRUCTIONS:
 41
0.8
  7
ROMANS
100
AcDbText
  0
LWPOLYLINE
  5
FA
100
AcDbEntity
  8
TEXT
 62
     1
100
AcDbPolyline
 90
       12
 70
     1
 43
1.95
 10
152.816092
 20
697.393884
 42
1.0
 10
151.437234
 20
696.015025
 10
154.350659
 20
693.1016
 42
-0.414214
 10
154.350659
 20
688.965025
 10
151.096801
 20
685.711167
 42
-0.198912
 10
149.028514
 20
684.854454
 10
146.201663
 20
684.854454
 42
1.0
 10
146.201663
 20
682.904454
 10
150.643947
 20
682.904454
 42
0.198912
 10
151.333376
 20
683.190025
 10
158.487234
 20
690.343884
 42
0.414214
 10
158.487234
 20
691.722742
  0
LWPOLYLINE
  5
FB
100
AcDbEntity
  8
TEXT
 62
     1
100
AcDbPolyline
 90
       12
 70
     1
 43
1.95
 10
150.690089
 20
690.104454
 42
1.0
 10
152.068947
 20
691.483313
 10
149.155521
 20
694.396738
 42
-0.414214
 10
149.155521
 20
698.533313
 10
152.40938
 20
701.787171
 42
-0.198912
 10
154.477667
 20
702.643884
 10
157.304518
 20
702.643884
 42
1.0
 10
157.304518
 20
704.593884
 10
152.862234
 20
704.593884
 42
0.198912
 10
152.172805
 20
704.308313
 10
145.018947
 20
697.154454
 42
0.414214
 10
145.018947
 20
695.775596
  0
LWPOLYLINE
  5
FC
100
AcDbEntity
  8
TEXT
 62
     1
100
AcDbPolyline
 90
       12
 70
     1
 43
1.2
 10
151.326485
 20
690.74085
 42
1.000001
 10
151.432551
 20
690.846917
 10
148.519125
 20
693.760342
 42
-0.414214
 10
148.519125
 20
699.169709
 10
151.772984
 20
702.423567
 42
-0.198912
 10
154.477667
 20
703.543884
 10
157.304518
 20
703.543884
 42
1.0
 10
157.304518
 20
703.693884
 10
152.862234
 20
703.693884
 42
0.198912
 10
152.809201
 20
703.671917
 10
145.655343
 20
696.518058
 42
0.414214
 10
145.655343
 20
696.411992
  0
LWPOLYLINE
  5
FD
100
AcDbEntity
  8
TEXT
 62
     1
100
AcDbPolyline
 90
       12
 70
     1
 43
1.2
 10
152.179696
 20
696.757487
 42
1.000001
 10
152.07363
 20
696.651421
 10
154.987056
 20
693.737996
 42
-0.414214
 10
154.987056
 20
688.328629
 10
151.733197
 20
685.074771
 42
-0.198912
 10
149.028514
 20
683.954454
 10
146.201663
 20
683.954454
 42
1.0
 10
146.201663
 20
683.804454
 10
150.643947
 20
683.804454
 42
0.198912
 10
150.69698
 20
683.826421
 10
157.850838
 20
690.98028
 42
0.414214
 10
157.850838
 20
691.086346
  0
TEXT
  5
FE
100
AcDbEntity
  8
TEXT
 62
     1
100
AcDbText
 10
163.583809
 20
685.866703
 30
0.0
 40
13.5
  1
STALPROFIL AB
 41
0.8
  7
ROMANT
100
AcDbText
  0
CIRCLE
  5
FF
100
AcDbEntity
  8
TEXT
 62
     1
100
AcDbCircle
 10
189.254479
 20
702.637738
 30
0.0
 40
1.531699
  0
LINE
  5
100
100
AcDbEntity
  8
RAM
100
AcDbLine
 10
66.435405
 20
713.297075
 30
0.0
 11
66.435405
 21
735.797075
 31
0.0
  0
LINE
  5
101
100
AcDbEntity
  8
RAM
100
AcDbLine
 10
14.685405
 20
735.797075
 30
0.0
 11
14.685405
 21
713.297075
 31
0.0
  0
LINE
  5
102
100
AcDbEntity
  8
RAM
100
AcDbLine
 10
280.185405
 20
713.297075
 30
0.0
 11
280.185405
 21
735.797075
 31
0.0
  0
ENDBLK
  5
104
100
AcDbEntity
  8
0
100
AcDbBlockEnd
  0
ENDSEC
  0
SECTION
  2
ENTITIES
  0
LINE
  5
106
100
AcDbEntity
  8
RAM
100
AcDbLine
 10
-1961.564595
 20
753.297075
 30
0.0
 11
-1961.564595
 21
50.526041
 31
0.0
  0
TEXT
  5
107
100
AcDbEntity
  8
RAMTEXT
 62
     6
100
AcDbText
 10
-1955.014569
 20
388.432448
 30
0.0
 40
6.695628
  1
parts that affect it must be made of steel or an alloy with a
 41
0.8
  7
ROMANS
100
AcDbText
  0
LINE
  5
108
100
AcDbEntity
  8
RAM
100
AcDbLine
 10
-1494.689595
 20
50.526041
 30
0.0
 11
-1494.689595
 21
753.297075
 31
0.0
  0
LINE
  5
109
100
AcDbEntity
  8
RAM
100
AcDbLine
 10
-1680.314595
 20
73.026041
 30
0.0
 11
-1494.689595
 21
73.026041
 31
0.0
  0
LINE
  5
10A
100
AcDbEntity
  8
RAM
100
AcDbLine
 10
-1961.564595
 20
50.526041
 30
0.0
 11
-1494.689595
 21
50.526041
 31
0.0
  0
LINE
  5
10B
100
AcDbEntity
  8
RAM
100
AcDbLine
 10
-1961.564595
 20
88.776041
 30
0.0
 11
-1494.689595
 21
88.776041
 31
0.0
  0
LINE
  5
10C
100
AcDbEntity
  8
RAM
100
AcDbLine
 10
-1961.564595
 20
106.776041
 30
0.0
 11
-1494.689595
 21
106.776041
 31
0.0
  0
TEXT
  5
10D
100
AcDbEntity
  8
RAMTEXT
 62
     6
100
AcDbText
 10
-1801.814595
 20
100.026041
 30
0.0
 40
4.05
  1
Stand.
 41
0.8
  7
ROMANS
100
AcDbText
  0
TEXT
  5
10E
100
AcDbEntity
  8
RAMTEXT
 62
     6
100
AcDbText
 10
-1836.777447
 20
68.711493
 30
0.0
 40
5.892152
  1
GENERAL INSTRUCTIONS SP 79000
 41
0.8
  7
ROMANS
100
AcDbText
  0
TEXT
  5
10F
100
AcDbEntity
  8
RAMTEXT
 62
     6
100
AcDbText
 10
-1838.1682
 20
57.686409
 30
0.0
 40
5.892152
  1
FIRE RESISTANCE CLASS EI-60/E-60
 41
0.8
  7
ROMANS
100
AcDbText
  0
TEXT
  5
110
100
AcDbEntity
  8
RAMTEXT
 62
     6
100
AcDbText
 10
-1955.58507
 20
131.569426
 30
0.0
 40
6.695628
  1
In normal indoors environment can topsealing be exclude, were the type approval certificate with
 41
0.8
  7
ROMANS
100
AcDbText
  0
TEXT
  5
111
100
AcDbEntity
  8
RAMTEXT
 62
     6
100
AcDbText
 10
-1955.285082
 20
111.738143
 30
0.0
 40
6.695628
  1
Bottomsealing will not be necessary if not Type approval prescribes this. 
 41
0.8
  7
ROMANS
100
AcDbText
  0
TEXT
  5
112
100
AcDbEntity
  8
RAMTEXT
 62
     6
100
AcDbText
 10
-1955.285082
 20
121.645404
 30
0.0
 40
6.695628
  1
belonging instructions dont shows anything else. Outdoor sections must allways be topsealed.
 41
0.8
  7
ROMANS
100
AcDbText
  0
LINE
  5
113
100
AcDbEntity
  8
RAM
100
AcDbLine
 10
-1961.564595
 20
50.526041
 30
0.0
 11
-1961.564595
 21
106.776041
 31
0.0
  0
LINE
  5
114
100
AcDbEntity
  8
RAM
100
AcDbLine
 10
-1804.064595
 20
106.776041
 30
0.0
 11
-1804.064595
 21
88.776041
 31
0.0
  0
LINE
  5
115
100
AcDbEntity
  8
RAM
100
AcDbLine
 10
-1843.439595
 20
106.776041
 30
0.0
 11
-1843.439595
 21
50.526041
 31
0.0
  0
LINE
  5
116
100
AcDbEntity
  8
RAM
100
AcDbLine
 10
-1882.814595
 20
106.776041
 30
0.0
 11
-1882.814595
 21
88.776041
 31
0.0
  0
LINE
  5
117
100
AcDbEntity
  8
RAM
100
AcDbLine
 10
-1922.189595
 20
106.776041
 30
0.0
 11
-1922.189595
 21
88.776041
 31
0.0
  0
TEXT
  5
118
100
AcDbEntity
  8
RAMTEXT
 62
     6
100
AcDbText
 10
-1917.276885
 20
91.773907
 30
0.0
 40
4.910127
  1
R.O
 41
0.8
  7
ROMANS
100
AcDbText
  0
TEXT
  5
119
100
AcDbEntity
  8
RAMTEXT
 62
     6
100
AcDbText
 10
-1957.130929
 20
82.026041
 30
0.0
 40
4.05
  1
Firma
 41
0.8
  7
ROMANS
100
AcDbText
  0
LWPOLYLINE
  5
11A
100
AcDbEntity
  8
TEXT
 62
     1
100
AcDbPolyline
 90
       12
 70
     1
 43
1.4625
 10
-1949.657708
 20
70.60377
 42
1.0
 10
-1950.691851
 20
69.569626
 10
-1948.506782
 20
67.384557
 42
-0.414214
 10
-1948.506782
 20
64.282126
 10
-1950.947176
 20
61.841732
 42
-0.198912
 10
-1952.498392
 20
61.199198
 10
-1954.61853
 20
61.199198
 42
1.0
 10
-1954.61853
 20
59.736698
 10
-1951.286817
 20
59.736698
 42
0.198912
 10
-1950.769745
 20
59.950876
 10
-1945.404351
 20
65.31627
 42
0.414214
 10
-1945.404351
 20
66.350413
  0
LWPOLYLINE
  5
11B
100
AcDbEntity
  8
TEXT
 62
     1
100
AcDbPolyline
 90
       12
 70
     1
 43
0.9
 10
-1950.774913
 20
65.613995
 42
1.000001
 10
-1950.695364
 20
65.693544
 10
-1952.880433
 20
67.878613
 42
-0.414214
 10
-1952.880433
 20
71.935639
 10
-1950.440039
 20
74.376032
 42
-0.198912
 10
-1948.411527
 20
75.21627
 10
-1946.291389
 20
75.21627
 42
1.0
 10
-1946.291389
 20
75.32877
 10
-1949.623101
 20
75.32877
 42
0.198912
 10
-1949.662876
 20
75.312294
 10
-1955.02827
 20
69.946901
 42
0.414214
 10
-1955.02827
 20
69.867351
  0
LWPOLYLINE
  5
11C
100
AcDbEntity
  8
TEXT
 62
     1
100
AcDbPolyline
 90
       12
 70
     1
 43
1.4625
 10
-1951.252211
 20
65.136698
 42
1.0
 10
-1950.218067
 20
66.170842
 10
-1952.403136
 20
68.355911
 42
-0.414214
 10
-1952.403136
 20
71.458342
 10
-1949.962742
 20
73.898735
 42
-0.198912
 10
-1948.411527
 20
74.54127
 10
-1946.291389
 20
74.54127
 42
1.0
 10
-1946.291389
 20
76.00377
 10
-1949.623101
 20
76.00377
 42
0.198912
 10
-1950.140173
 20
75.789592
 10
-1955.505567
 20
70.424198
 42
0.414214
 10
-1955.505567
 20
69.390054
  0
LWPOLYLINE
  5
11D
100
AcDbEntity
  8
TEXT
 62
     1
100
AcDbPolyline
 90
       12
 70
     1
 43
0.9
 10
-1950.135005
 20
70.126473
 42
1.000001
 10
-1950.214554
 20
70.046923
 10
-1948.029485
 20
67.861854
 42
-0.414214
 10
-1948.029485
 20
63.804829
 10
-1950.469879
 20
61.364435
 42
-0.198912
 10
-1952.498392
 20
60.524198
 10
-1954.61853
 20
60.524198
 42
1.0
 10
-1954.61853
 20
60.411698
 10
-1951.286817
 20
60.411698
 42
0.198912
 10
-1951.247042
 20
60.428173
 10
-1945.881649
 20
65.793567
 42
0.414214
 10
-1945.881649
 20
65.873116
  0
TEXT
  5
11E
100
AcDbEntity
  8
TEXT
 62
     1
100
AcDbText
 10
-1941.58192
 20
62.16627
 30
0.0
 40
10.125
  1
STALPROFIL AB
 41
0.8
  7
ROMANS
100
AcDbText
  0
LINE
  5
11F
100
AcDbEntity
  8
RAM
100
AcDbLine
 10
-1950.314595
 20
38.026041
 30
0.0
 11
-1950.314595
 21
50.526041
 31
0.0
  0
LINE
  5
120
100
AcDbEntity
  8
RAM
100
AcDbLine
 10
-1898.564595
 20
50.526041
 30
0.0
 11
-1892.939595
 21
39.276041
 31
0.0
  0
LINE
  5
121
100
AcDbEntity
  8
RAM
100
AcDbLine
 10
-1904.189595
 20
39.276041
 30
0.0
 11
-1898.564595
 21
50.526041
 31
0.0
  0
CIRCLE
  5
122
100
AcDbEntity
  8
TEXT
 62
     1
100
AcDbCircle
 10
-1924.218048
 20
74.873726
 30
0.0
 40
1.148774
  0
TEXT
  5
123
100
AcDbEntity
  8
RAMTEXT
 62
     6
100
AcDbText
 10
-1837.880929
 20
82.026041
 30
0.0
 40
4.05
  1
Titel
 41
0.8
  7
ROMANS
100
AcDbText
  0
TEXT
  5
124
100
AcDbEntity
  8
RAMTEXT
 62
     6
100
AcDbText
 10
-1959.314595
 20
100.026041
 30
0.0
 40
4.05
  1
Konstr.
 41
0.8
  7
ROMANS
100
AcDbText
  0
TEXT
  5
125
100
AcDbEntity
  8
RAMTEXT
 62
     6
100
AcDbText
 10
-1955.58507
 20
142.512514
 30
0.0
 40
6.871829
  1
Top/Bottomsealing:
 41
0.8
  7
ROMANS
100
AcDbText
  0
LINE
  5
126
100
AcDbEntity
  8
RAM
100
AcDbLine
 10
-1961.564595
 20
106.776041
 30
0.0
 11
-1961.564595
 21
132.526041
 31
0.0
  0
TEXT
  5
127
100
AcDbEntity
  8
RAMTEXT
 62
     6
100
AcDbText
 10
-1880.564595
 20
100.026041
 30
0.0
 40
4.05
  1
Kop.
 41
0.8
  7
ROMANS
100
AcDbText
  0
TEXT
  5
128
100
AcDbEntity
  8
RAMTEXT
 62
     6
100
AcDbText
 10
-1918.814595
 20
100.026041
 30
0.0
 40
4.05
  1
Ritad
 41
0.8
  7
ROMANS
100
AcDbText
  0
TEXT
  5
129
100
AcDbEntity
  8
RAMTEXT
 62
     6
100
AcDbText
 10
-1840.064595
 20
100.026041
 30
0.0
 40
4.05
  1
Kontr.
 41
0.8
  7
ROMANS
100
AcDbText
  0
LINE
  5
12A
100
AcDbEntity
  8
RAM
100
AcDbLine
 10
-1629.689595
 20
106.776041
 30
0.0
 11
-1629.689595
 21
73.026041
 31
0.0
  0
LINE
  5
12B
100
AcDbEntity
  8
RAM
100
AcDbLine
 10
-1725.314595
 20
106.776041
 30
0.0
 11
-1725.314595
 21
88.776041
 31
0.0
  0
LINE
  5
12C
100
AcDbEntity
  8
RAM
100
AcDbLine
 10
-1764.689595
 20
106.776041
 30
0.0
 11
-1764.689595
 21
88.776041
 31
0.0
  0
LINE
  5
12D
100
AcDbEntity
  8
RAM
100
AcDbLine
 10
-1680.314595
 20
106.776041
 30
0.0
 11
-1680.314595
 21
50.526041
 31
0.0
  0
TEXT
  5
12E
100
AcDbEntity
  8
RAMTEXT
 62
     6
100
AcDbText
 10
-1651.209721
 20
57.27602
 30
0.0
 40
7.659798
  1
4-2608
 41
0.8
  7
ROMANS
100
AcDbText
  0
TEXT
  5
12F
100
AcDbEntity
  8
RAMTEXT
 62
     6
100
AcDbText
 10
-1678.064595
 20
82.026041
 30
0.0
 40
4.05
  1
Regist.nr
 41
0.8
  7
ROMANS
100
AcDbText
  0
TEXT
  5
130
100
AcDbEntity
  8
RAMTEXT
 62
     6
100
AcDbText
 10
-1678.064595
 20
66.276041
 30
0.0
 40
4.05
  1
Ritn.-nr
 41
0.8
  7
ROMANS
100
AcDbText
  0
TEXT
  5
131
100
AcDbEntity
  8
RAMTEXT
 62
     6
100
AcDbText
 10
-1610.712053
 20
77.635644
 30
0.0
 40
5.892152
  1
99-03-08
 41
0.8
  7
ROMANS
100
AcDbText
  0
TEXT
  5
132
100
AcDbEntity
  8
RAMTEXT
 62
     6
100
AcDbText
 10
-1626.314595
 20
82.026041
 30
0.0
 40
4.05
  1
Dat.
 41
0.8
  7
ROMANS
100
AcDbText
  0
TEXT
  5
133
100
AcDbEntity
  8
RAMTEXT
 62
     6
100
AcDbText
 10
-1761.314595
 20
100.026041
 30
0.0
 40
4.05
  1
Godk.
 41
0.8
  7
ROMANS
100
AcDbText
  0
TEXT
  5
134
100
AcDbEntity
  8
RAMTEXT
 62
     6
100
AcDbText
 10
-1723.064595
 20
100.026041
 30
0.0
 40
4.05
  1
Skala
 41
0.8
  7
ROMANS
100
AcDbText
  0
TEXT
  5
135
100
AcDbEntity
  8
RAMTEXT
 62
     6
100
AcDbText
 10
-1678.064595
 20
100.026041
 30
0.0
 40
4.05
  1
Ersätter
 41
0.8
  7
ROMANS
100
AcDbText
  0
TEXT
  5
136
100
AcDbEntity
  8
RAMTEXT
 62
     6
100
AcDbText
 10
-1626.314595
 20
100.026041
 30
0.0
 40
4.05
  1
Ersatt av
 41
0.8
  7
ROMANS
100
AcDbText
  0
TEXT
  5
137
100
AcDbEntity
  8
RAMTEXT
 62
     6
100
AcDbText
 10
-1954.995337
 20
269.502411
 30
0.0
 40
6.047209
  1
DOOR CLOSER IN FIRE RESISTANCE CLASS E30/E60:
 41
0.8
  7
ROMANT
100
AcDbText
  0
TEXT
  5
138
100
AcDbEntity
  8
RAMTEXT
 62
     6
100
AcDbText
 10
-1955.285082
 20
158.798194
 30
0.0
 40
6.695628
  1
10 mm. Fire separating windows should be possible to open only with a tool, a key or something similar.
 41
0.8
  7
ROMANS
100
AcDbText
  0
TEXT
  5
139
100
AcDbEntity
  8
RAMTEXT
 62
     6
100
AcDbText
 10
-1955.285082
 20
168.705455
 30
0.0
 40
6.695628
  1
Bolts, bar bolts and the parts that affect them must be made of steel. Minimum gear into locking plate 
 41
0.8
  7
ROMANS
100
AcDbText
  0
TEXT
  5
13A
100
AcDbEntity
  8
RAMTEXT
 62
     6
100
AcDbText
 10
-1955.58507
 20
178.629477
 30
0.0
 40
6.695628
  1
With double windows the side window is provided with a flush bolt or a double action bar bolt. 
 41
0.8
  7
ROMANS
100
AcDbText
  0
TEXT
  5
13B
100
AcDbEntity
  8
RAMTEXT
 62
     6
100
AcDbText
 10
-1955.58507
 20
216.562031
 30
0.0
 40
6.695628
  1
Division of glazed and filled sections and number of mullions can be
 41
0.8
  7
ROMANS
100
AcDbText
  0
TEXT
  5
13C
100
AcDbEntity
  8
RAMTEXT
 62
     6
100
AcDbText
 10
-1955.58507
 20
205.972711
 30
0.0
 40
6.695628
  1
optionally varied, if the maximum measurements are not  exceeded.
 41
0.8
  7
ROMANS
100
AcDbText
  0
TEXT
  5
13D
100
AcDbEntity
  8
RAMTEXT
 62
     6
100
AcDbText
 10
-1954.995337
 20
259.637468
 30
0.0
 40
6.696
  1
Får ej medverka till brandspridning på grund
 41
0.8
  7
ROMANS
100
AcDbText
  0
TEXT
  5
13E
100
AcDbEntity
  8
RAMTEXT
 62
     6
100
AcDbText
 10
-1954.995337
 20
248.238402
 30
0.0
 40
6.047209
  1
DOOR CLOSER IN FIRE RESISTANCE CLASS EI30/A60:
 41
0.8
  7
ROMANT
100
AcDbText
  0
TEXT
  5
13F
100
AcDbEntity
  8
RAMTEXT
 62
     6
100
AcDbText
 10
-1955.58507
 20
189.572565
 30
0.0
 40
6.871829
  1
WINDOWS:
 41
0.8
  7
ROMANS
100
AcDbText
  0
TEXT
  5
140
100
AcDbEntity
  8
RAMTEXT
 62
     6
100
AcDbText
 10
-1954.995337
 20
239.710287
 30
0.0
 40
5.892152
  1
Optional type
 41
0.8
  7
ROMANS
100
AcDbText
  0
TEXT
  5
141
100
AcDbEntity
  8
RAMTEXT
 62
     6
100
AcDbText
 10
-1955.58507
 20
225.278721
 30
0.0
 40
6.871829
  1
MEASURES:
 41
0.8
  7
ROMANS
100
AcDbText
  0
TEXT
  5
142
100
AcDbEntity
  8
RAMTEXT
 62
     6
100
AcDbText
 10
-1761.09239
 20
260.735271
 30
0.0
 40
6.696
  1
av värmestrålning genom glasrutor.
 41
0.8
  7
ROMANS
100
AcDbText
  0
TEXT
  5
143
100
AcDbEntity
  8
RAMTEXT
 62
     6
100
AcDbText
 10
-1955.58507
 20
353.862279
 30
0.0
 40
6.695628
  1
Mortise lock with drop bolt. The bolt must not be lockable and must 
 41
0.8
  7
ROMANS
100
AcDbText
  0
TEXT
  5
144
100
AcDbEntity
  8
RAMTEXT
 62
     6
100
AcDbText
 10
-1955.58507
 20
333.587756
 30
0.0
 40
6.695628
  1
parts that affect it must be made of steel or an alloy with a melting point exceeding 850%%dC.
 41
0.8
  7
ROMANS
100
AcDbText
  0
TEXT
  5
145
100
AcDbEntity
  8
RAMTEXT
 62
     6
100
AcDbText
 10
-1955.58507
 20
343.457636
 30
0.0
 40
6.695628
  1
gear at least 10 mm into the locking plate. The drop bolt and the 
 41
0.8
  7
ROMANS
100
AcDbText
  0
TEXT
  5
146
100
AcDbEntity
  8
RAMTEXT
 62
     6
100
AcDbText
 10
-1956.293899
 20
324.834255
 30
0.0
 40
6.695628
  1
Standard approved electric locking plates can be used.
 41
0.8
  7
ROMANS
100
AcDbText
  0
TEXT
  5
147
100
AcDbEntity
  8
RAMTEXT
 62
     6
100
AcDbText
 10
-1956.293899
 20
379.025333
 30
0.0
 40
6.695628
  1
Standard approved electric locking plates can be used.
 41
0.8
  7
ROMANS
100
AcDbText
  0
TEXT
  5
148
100
AcDbEntity
  8
RAMTEXT
 62
     6
100
AcDbText
 10
-1955.58507
 20
364.731778
 30
0.0
 40
6.871829
  1
LOCK ACCORDING TO FIRE RESISTANCE CLASS E60/A60:
 41
0.8
  7
ROMANT
100
AcDbText
  0
TEXT
  5
149
100
AcDbEntity
  8
RAMTEXT
 62
     6
100
AcDbText
 10
-1955.318696
 20
293.456992
 30
0.0
 40
6.695628
  1
or a bar bolt. Bolts and the parts that affect them must be made of steel
 41
0.8
  7
ROMANS
100
AcDbText
  0
TEXT
  5
14A
100
AcDbEntity
  8
RAMTEXT
 62
     6
100
AcDbText
 10
-1955.318696
 20
302.971832
 30
0.0
 40
6.695628
  1
With double doors the side door is provided with a two fluch bolts
 41
0.8
  7
ROMANS
100
AcDbText
  0
TEXT
  5
14B
100
AcDbEntity
  8
RAMTEXT
 62
     6
100
AcDbText
 10
-1955.318696
 20
283.46072
 30
0.0
 40
6.695628
  1
or an alloy with a melting point exceeding 850%%dC.. Gear into locking plate at least 10 mm.
 41
0.8
  7
ROMANS
100
AcDbText
  0
TEXT
  5
14C
100
AcDbEntity
  8
RAMTEXT
 62
     6
100
AcDbText
 10
-1955.318696
 20
312.662872
 30
0.0
 40
6.871829
  1
FLUCH/BAR BOLT:
 41
0.8
  7
ROMANS
100
AcDbText
  0
LINE
  5
14D
100
AcDbEntity
  8
RAM
100
AcDbLine
 10
-1984.064595
 20
383.401041
 30
0.0
 11
-1961.564595
 21
383.401041
 31
0.0
  0
LINE
  5
14E
100
AcDbEntity
  8
RAM
100
AcDbLine
 10
-1466.564595
 20
383.401041
 30
0.0
 11
-1494.689595
 21
383.401041
 31
0.0
  0
TEXT
  5
14F
100
AcDbEntity
  8
RAMTEXT
 62
     6
100
AcDbText
 10
-1955.487055
 20
629.295309
 30
0.0
 40
6.695628
  1
with a flat steel or square tubes that are welded or screwed.
 41
0.8
  7
ROMANS
100
AcDbText
  0
TEXT
  5
150
100
AcDbEntity
  8
RAMTEXT
 62
     6
100
AcDbText
 10
-1954.13006
 20
510.371613
 30
0.0
 40
6.695628
  1
and E 30 can be performed with threshold, rubber seal SP 45065 or an automatic threshold of 
 41
0.8
  7
ROMANS
100
AcDbText
  0
TEXT
  5
151
100
AcDbEntity
  8
RAMTEXT
 62
     6
100
AcDbText
 10
-1954.682051
 20
448.317619
 30
0.0
 40
6.695628
  1
2-3 steel hinges fitted by welding or screws. Type approwed aluminium hinges for steeldoors could be 
 41
0.8
  7
ROMANS
100
AcDbText
  0
TEXT
  5
152
100
AcDbEntity
  8
RAMTEXT
 62
     6
100
AcDbText
 10
-1954.13006
 20
470.181042
 30
0.0
 40
6.695628
  1
of 10 mm in this cases the SP 45065 can be used during condition that full tigthness will be provide
 41
0.8
  7
ROMANS
100
AcDbText
  0
TEXT
  5
153
100
AcDbEntity
  8
RAMTEXT
 62
     6
100
AcDbText
 10
-1954.694634
 20
479.971622
 30
0.0
 40
6.695628
  1
exceed 18 mm if testing shows something else. Doors in fire rated class EI 60 and E 60 max opening 
 41
0.8
  7
ROMANS
100
AcDbText
  0
TEXT
  5
154
100
AcDbEntity
  8
RAMTEXT
 62
     6
100
AcDbText
 10
-1954.682051
 20
437.860337
 30
0.0
 40
6.695628
  1
used in the system, provided that thebelonging mountingsinstructions will be followed.
 41
0.8
  7
ROMANS
100
AcDbText
  0
TEXT
  5
155
100
AcDbEntity
  8
RAMTEXT
 62
     6
100
AcDbText
 10
-1954.694634
 20
490.485352
 30
0.0
 40
6.695628
  1
will be provided. The distance between the dorrleaf underedge a and floor "with out threshold" must not 
 41
0.8
  7
ROMANS
100
AcDbText
  0
TEXT
  5
156
100
AcDbEntity
  8
RAMTEXT
 62
     6
100
AcDbText
 10
-1954.694634
 20
500.735431
 30
0.0
 40
6.695628
  1
of combustible or noncombustible  material plastic, rubber or equal, during condition that full tigthness 
 41
0.8
  7
ROMANS
100
AcDbText
  0
TEXT
  5
157
100
AcDbEntity
  8
RAMTEXT
 62
     6
100
AcDbText
 10
-1955.014569
 20
399.476203
 30
0.0
 40
6.695628
  1
gear at least 7 mm into the locking plate. The drop bolt and the 
 41
0.8
  7
ROMANS
100
AcDbText
  0
TEXT
  5
158
100
AcDbEntity
  8
RAMTEXT
 62
     6
100
AcDbText
 10
-1955.58507
 20
409.846828
 30
0.0
 40
6.695628
  1
Mortise lock with drop bolt. The bolt must not be lockable and must 
 41
0.8
  7
ROMANS
100
AcDbText
  0
TEXT
  5
159
100
AcDbEntity
  8
RAMTEXT
 62
     6
100
AcDbText
 10
-1955.58507
 20
419.537868
 30
0.0
 40
6.871829
  1
LOCK ACCORDING TO FIRE RESISTANCE CLASS E30/EI30:
 41
0.8
  7
ROMANT
100
AcDbText
  0
TEXT
  5
15A
100
AcDbEntity
  8
RAMTEXT
 62
     6
100
AcDbText
 10
-1954.682051
 20
458.008659
 30
0.0
 40
6.871829
  1
HINGES:
 41
0.8
  7
ROMANS
100
AcDbText
  0
TEXT
  5
15B
100
AcDbEntity
  8
RAMTEXT
 62
     6
100
AcDbText
 10
-1954.13006
 20
520.279388
 30
0.0
 40
6.695628
  1
in the under edge of the door leaf. Doors in fire class EI 30 
 41
0.8
  7
ROMANS
100
AcDbText
  0
TEXT
  5
15C
100
AcDbEntity
  8
RAMTEXT
 62
     6
100
AcDbText
 10
-1954.13006
 20
530.667298
 30
0.0
 40
6.695628
  1
In cases when the door face against stairwell an opening will not be allowed in t
 41
0.8
  7
ROMANS
100
AcDbText
  0
TEXT
  5
15D
100
AcDbEntity
  8
RAMTEXT
 62
     6
100
AcDbText
 10
-1954.13006
 20
542.141435
 30
0.0
 40
6.695628
  1
fixed in a way so it not will come loose under fire.
 41
0.8
  7
ROMANS
100
AcDbText
  0
TEXT
  5
15E
100
AcDbEntity
  8
RAMTEXT
 62
     6
100
AcDbText
 10
-1954.13006
 20
551.754136
 30
0.0
 40
6.695628
  1
As an alternative can door leaf and frame be provide with thin plate from the floor and up to 0.5 m , 
 41
0.8
  7
ROMANS
100
AcDbText
  0
TEXT
  5
15F
100
AcDbEntity
  8
RAMTEXT
 62
     6
100
AcDbText
 10
-1954.793454
 20
597.970237
 30
0.0
 40
6.695628
  1
Movable fixing for the upper edge see drawing no..4-2358-B. 
 41
0.8
  7
ROMANS
100
AcDbText
  0
TEXT
  5
160
100
AcDbEntity
  8
RAMTEXT
 62
     6
100
AcDbText
 10
-1954.711789
 20
607.553002
 30
0.0
 40
6.695628
  1
The sides and the lower edge of the section are welded or screwed. 
 41
0.8
  7
ROMANS
100
AcDbText
  0
TEXT
  5
161
100
AcDbEntity
  8
RAMTEXT
 62
     6
100
AcDbText
 10
-1954.13006
 20
562.554433
 30
0.0
 40
6.695628
  1
of max 10 mm doors in this cases optional type of bristlebead, automatic threshold or rubber seal.
 41
0.8
  7
ROMANS
100
AcDbText
  0
TEXT
  5
162
100
AcDbEntity
  8
RAMTEXT
 62
     6
100
AcDbText
 10
-1954.13006
 20
571.911839
 30
0.0
 40
6.695628
  1
The door can be performed without threshold and with an opening with the underedge of the door 
 41
0.8
  7
ROMANS
100
AcDbText
  0
TEXT
  5
163
100
AcDbEntity
  8
RAMTEXT
 62
     6
100
AcDbText
 10
-1954.711789
 20
617.244043
 30
0.0
 40
6.871829
  1
FIXING TO THE FRAME OF THE BUILDING:
 41
0.8
  7
ROMANS
100
AcDbText
  0
TEXT
  5
164
100
AcDbEntity
  8
RAMTEXT
 62
     6
100
AcDbText
 10
-1954.13006
 20
581.60288
 30
0.0
 40
6.871829
  1
SPACE BETWEEN FLOOR AND DOOR:
 41
0.8
  7
ROMANS
100
AcDbText
  0
LINE
  5
165
100
AcDbEntity
  8
RAM
100
AcDbLine
 10
-1494.689595
 20
753.297075
 30
0.0
 11
-1961.564595
 21
753.297075
 31
0.0
  0
TEXT
  5
166
100
AcDbEntity
  8
TEXT
 62
     1
100
AcDbText
 10
-1957.944403
 20
703.866703
 30
0.0
 40
9.0
  1
GENERAL INSTRUCTIONS SP 79000/SP 979000 E-30/E-60 EI-60/E-60
 41
0.8
  7
ROMANT
100
AcDbText
  0
TEXT
  5
167
100
AcDbEntity
  8
RAMTEXT
 62
     6
100
AcDbText
 10
-1955.487055
 20
640.277411
 30
0.0
 40
6.695628
  1
Frame profiles are jointed by welding. Sections are jointed
 41
0.8
  7
ROMANS
100
AcDbText
  0
TEXT
  5
168
100
AcDbEntity
  8
RAMTEXT
 62
     6
100
AcDbText
 10
-1955.487055
 20
648.501189
 30
0.0
 40
6.871829
  1
GENERAL INSTRUCTIONS:
 41
0.8
  7
ROMANS
100
AcDbText
  0
LWPOLYLINE
  5
169
100
AcDbEntity
  8
TEXT
 62
     1
100
AcDbPolyline
 90
       12
 70
     1
 43
1.95
 10
-1812.183908
 20
737.393884
 42
1.0
 10
-1813.562766
 20
736.015025
 10
-1810.649341
 20
733.1016
 42
-0.414214
 10
-1810.649341
 20
728.965025
 10
-1813.903199
 20
725.711167
 42
-0.198912
 10
-1815.971486
 20
724.854454
 10
-1818.798337
 20
724.854454
 42
1.0
 10
-1818.798337
 20
722.904454
 10
-1814.356053
 20
722.904454
 42
0.198912
 10
-1813.666624
 20
723.190025
 10
-1806.512766
 20
730.343884
 42
0.414214
 10
-1806.512766
 20
731.722742
  0
LWPOLYLINE
  5
16A
100
AcDbEntity
  8
TEXT
 62
     1
100
AcDbPolyline
 90
       12
 70
     1
 43
1.95
 10
-1814.309911
 20
730.104454
 42
1.0
 10
-1812.931053
 20
731.483313
 10
-1815.844479
 20
734.396738
 42
-0.414214
 10
-1815.844479
 20
738.533313
 10
-1812.59062
 20
741.787171
 42
-0.198912
 10
-1810.522333
 20
742.643884
 10
-1807.695482
 20
742.643884
 42
1.0
 10
-1807.695482
 20
744.593884
 10
-1812.137766
 20
744.593884
 42
0.198912
 10
-1812.827195
 20
744.308313
 10
-1819.981053
 20
737.154454
 42
0.414214
 10
-1819.981053
 20
735.775596
  0
LWPOLYLINE
  5
16B
100
AcDbEntity
  8
TEXT
 62
     1
100
AcDbPolyline
 90
       12
 70
     1
 43
1.2
 10
-1813.673515
 20
730.74085
 42
1.000001
 10
-1813.567449
 20
730.846917
 10
-1816.480875
 20
733.760342
 42
-0.414214
 10
-1816.480875
 20
739.169709
 10
-1813.227016
 20
742.423567
 42
-0.198912
 10
-1810.522333
 20
743.543884
 10
-1807.695482
 20
743.543884
 42
1.0
 10
-1807.695482
 20
743.693884
 10
-1812.137766
 20
743.693884
 42
0.198912
 10
-1812.190799
 20
743.671917
 10
-1819.344657
 20
736.518058
 42
0.414214
 10
-1819.344657
 20
736.411992
  0
LWPOLYLINE
  5
16C
100
AcDbEntity
  8
TEXT
 62
     1
100
AcDbPolyline
 90
       12
 70
     1
 43
1.2
 10
-1812.820304
 20
736.757487
 42
1.000001
 10
-1812.92637
 20
736.651421
 10
-1810.012944
 20
733.737996
 42
-0.414214
 10
-1810.012944
 20
728.328629
 10
-1813.266803
 20
725.074771
 42
-0.198912
 10
-1815.971486
 20
723.954454
 10
-1818.798337
 20
723.954454
 42
1.0
 10
-1818.798337
 20
723.804454
 10
-1814.356053
 20
723.804454
 42
0.198912
 10
-1814.30302
 20
723.826421
 10
-1807.149162
 20
730.98028
 42
0.414214
 10
-1807.149162
 20
731.086346
  0
TEXT
  5
16D
100
AcDbEntity
  8
TEXT
 62
     1
100
AcDbText
 10
-1801.416191
 20
725.866703
 30
0.0
 40
13.5
  1
STALPROFIL AB
 41
0.8
  7
ROMANT
100
AcDbText
  0
CIRCLE
  5
16E
100
AcDbEntity
  8
TEXT
 62
     1
100
AcDbCircle
 10
-1775.745521
 20
742.637738
 30
0.0
 40
1.531699
  0
LINE
  5
16F
100
AcDbEntity
  8
RAM
100
AcDbLine
 10
-1898.564595
 20
753.297075
 30
0.0
 11
-1898.564595
 21
775.797075
 31
0.0
  0
LINE
  5
170
100
AcDbEntity
  8
RAM
100
AcDbLine
 10
-1950.314595
 20
775.797075
 30
0.0
 11
-1950.314595
 21
753.297075
 31
0.0
  0
LINE
  5
171
100
AcDbEntity
  8
RAM
100
AcDbLine
 10
-1684.814595
 20
753.297075
 30
0.0
 11
-1684.814595
 21
775.797075
 31
0.0
  0
ENDSEC
  0
SECTION
  2
OBJECTS
  0
DICTIONARY
  5
1A
100
AcDbDictionary
  3
ACAD_GROUP
350
18
  3
ACAD_MLINESTYLE
350
19
  0
DICTIONARY
  5
18
102
{ACAD_REACTORS
330
1A
102
}
100
AcDbDictionary
  0
DICTIONARY
  5
19
102
{ACAD_REACTORS
330
1A
102
}
100
AcDbDictionary
  3
STANDARD
350
1D
  0
MLINESTYLE
  5
1D
102
{ACAD_REACTORS
330
19
102
}
100
AcDbMlineStyle
  2
STANDARD
 70
     0
  3

 62
     0
 51
90.0
 52
90.0
 71
     2
 49
0.5
 62
   256
  6
BYLAYER
 49
-0.5
 62
   256
  6
BYLAYER
  0
ENDSEC
  0
EOF
