  0
SECTION
  2
HEADER
  9
$ACADVER
  1
AC1014
  9
$ACADMAINTVER
 70
     0
  9
$DWGCODEPAGE
  3
ANSI_1252
  9
$INSBASE
 10
-5.0
 20
20.0
 30
0.0
  9
$EXTMIN
 10
-380.0
 20
24.0
 30
0.0
  9
$EXTMAX
 10
-20.0
 20
560.0
 30
0.0
  9
$LIMMIN
 10
0.0
 20
0.0
  9
$LIMMAX
 10
840.0
 20
600.0
  9
$ORTHOMODE
 70
     0
  9
$REGENMODE
 70
     1
  9
$FILLMODE
 70
     1
  9
$QTEXTMODE
 70
     0
  9
$MIRRTEXT
 70
     1
  9
$DRAGMODE
 70
     2
  9
$LTSCALE
 40
5.0
  9
$OSMODE
 70
   547
  9
$ATTMODE
 70
     1
  9
$TEXTSIZE
 40
3.15
  9
$TRACEWID
 40
0.05
  9
$TEXTSTYLE
  7
STANDARD
  9
$CLAYER
  8
GLAS_MED_FOGNING
  9
$CELTYPE
  6
BYLAYER
  9
$CECOLOR
 62
   256
  9
$CELTSCALE
 40
1.0
  9
$DELOBJ
 70
     1
  9
$DISPSILH
 70
     0
  9
$DIMSCALE
 40
1.0
  9
$DIMASZ
 40
0.0
  9
$DIMEXO
 40
1.0
  9
$DIMDLI
 40
10.0
  9
$DIMRND
 40
0.0
  9
$DIMDLE
 40
0.0
  9
$DIMEXE
 40
2.0
  9
$DIMTP
 40
0.0
  9
$DIMTM
 40
0.0
  9
$DIMTXT
 40
3.5
  9
$DIMCEN
 40
2.5
  9
$DIMTSZ
 40
1.0
  9
$DIMTOL
 70
     0
  9
$DIMLIM
 70
     0
  9
$DIMTIH
 70
     0
  9
$DIMTOH
 70
     0
  9
$DIMSE1
 70
     0
  9
$DIMSE2
 70
     0
  9
$DIMTAD
 70
     1
  9
$DIMZIN
 70
     8
  9
$DIMBLK
  1

  9
$DIMASO
 70
     1
  9
$DIMSHO
 70
     1
  9
$DIMPOST
  1

  9
$DIMAPOST
  1

  9
$DIMALT
 70
     0
  9
$DIMALTD
 70
     2
  9
$DIMALTF
 40
25.4
  9
$DIMLFAC
 40
1.0
  9
$DIMTOFL
 70
     1
  9
$DIMTVP
 40
0.0
  9
$DIMTIX
 70
     0
  9
$DIMSOXD
 70
     0
  9
$DIMSAH
 70
     0
  9
$DIMBLK1
  1

  9
$DIMBLK2
  1

  9
$DIMSTYLE
  2
STANDARD
  9
$DIMCLRD
 70
     0
  9
$DIMCLRE
 70
     0
  9
$DIMCLRT
 70
     6
  9
$DIMTFAC
 40
1.0
  9
$DIMGAP
 40
0.1
  9
$DIMJUST
 70
     0
  9
$DIMSD1
 70
     0
  9
$DIMSD2
 70
     0
  9
$DIMTOLJ
 70
     1
  9
$DIMTZIN
 70
     0
  9
$DIMALTZ
 70
     0
  9
$DIMALTTZ
 70
     0
  9
$DIMFIT
 70
     3
  9
$DIMUPT
 70
     0
  9
$DIMUNIT
 70
     2
  9
$DIMDEC
 70
     4
  9
$DIMTDEC
 70
     4
  9
$DIMALTU
 70
     2
  9
$DIMALTTD
 70
     2
  9
$DIMTXSTY
  7
STANDARD
  9
$DIMAUNIT
 70
     0
  9
$LUNITS
 70
     2
  9
$LUPREC
 70
     2
  9
$SKETCHINC
 40
0.1
  9
$FILLETRAD
 40
0.5
  9
$AUNITS
 70
     0
  9
$AUPREC
 70
     4
  9
$MENU
  1
acad
  9
$ELEVATION
 40
0.0
  9
$PELEVATION
 40
0.0
  9
$THICKNESS
 40
0.0
  9
$LIMCHECK
 70
     0
  9
$BLIPMODE
 70
     0
  9
$CHAMFERA
 40
10.0
  9
$CHAMFERB
 40
10.0
  9
$CHAMFERC
 40
0.0
  9
$CHAMFERD
 40
0.0
  9
$SKPOLY
 70
     0
  9
$TDCREATE
 40
2450619.740852661
  9
$TDUPDATE
 40
2452293.501655324
  9
$TDINDWG
 40
0.0034552083
  9
$TDUSRTIMER
 40
0.0034552083
  9
$USRTIMER
 70
     1
  9
$ANGBASE
 50
0.0
  9
$ANGDIR
 70
     0
  9
$PDMODE
 70
    35
  9
$PDSIZE
 40
0.0
  9
$PLINEWID
 40
0.0
  9
$COORDS
 70
     1
  9
$SPLFRAME
 70
     0
  9
$SPLINETYPE
 70
     6
  9
$SPLINESEGS
 70
     8
  9
$ATTDIA
 70
     0
  9
$ATTREQ
 70
     1
  9
$HANDLING
 70
     1
  9
$HANDSEED
  5
13F
  9
$SURFTAB1
 70
     6
  9
$SURFTAB2
 70
     6
  9
$SURFTYPE
 70
     6
  9
$SURFU
 70
     6
  9
$SURFV
 70
     6
  9
$UCSNAME
  2

  9
$UCSORG
 10
0.0
 20
0.0
 30
0.0
  9
$UCSXDIR
 10
1.0
 20
0.0
 30
0.0
  9
$UCSYDIR
 10
0.0
 20
1.0
 30
0.0
  9
$PUCSNAME
  2

  9
$PUCSORG
 10
0.0
 20
0.0
 30
0.0
  9
$PUCSXDIR
 10
1.0
 20
0.0
 30
0.0
  9
$PUCSYDIR
 10
0.0
 20
1.0
 30
0.0
  9
$USERI1
 70
     0
  9
$USERI2
 70
     0
  9
$USERI3
 70
     0
  9
$USERI4
 70
     0
  9
$USERI5
 70
     0
  9
$USERR1
 40
0.0
  9
$USERR2
 40
0.0
  9
$USERR3
 40
0.0
  9
$USERR4
 40
0.0
  9
$USERR5
 40
0.0
  9
$WORLDVIEW
 70
     1
  9
$SHADEDGE
 70
     3
  9
$SHADEDIF
 70
    70
  9
$TILEMODE
 70
     1
  9
$MAXACTVP
 70
    16
  9
$PINSBASE
 10
0.0
 20
0.0
 30
0.0
  9
$PLIMCHECK
 70
     0
  9
$PEXTMIN
 10
1.000000E+20
 20
1.000000E+20
 30
1.000000E+20
  9
$PEXTMAX
 10
-1.000000E+20
 20
-1.000000E+20
 30
-1.000000E+20
  9
$PLIMMIN
 10
0.0
 20
0.0
  9
$PLIMMAX
 10
420.0
 20
297.0
  9
$UNITMODE
 70
     0
  9
$VISRETAIN
 70
     0
  9
$PLINEGEN
 70
     0
  9
$PSLTSCALE
 70
     1
  9
$TREEDEPTH
 70
  3020
  9
$PICKSTYLE
 70
     1
  9
$CMLSTYLE
  2
STANDARD
  9
$CMLJUST
 70
     0
  9
$CMLSCALE
 40
1.0
  9
$PROXYGRAPHICS
 70
     1
  9
$MEASUREMENT
 70
     0
  0
ENDSEC
  0
SECTION
  2
CLASSES
  0
CLASS
  1
LWPOLYLINE
  2
AcDbPolyline
  3
"AutoCAD"
 90
        0
280
     0
281
     1
  0
CLASS
  1
ACDBDICTIONARYWDFLT
  2
AcDbDictionaryWithDefault
  3
AutoCAD 2000
 90
        0
280
     0
281
     0
  0
CLASS
  1
ACDBPLACEHOLDER
  2
AcDbPlaceHolder
  3
AutoCAD 2000
 90
        0
280
     0
281
     0
  0
CLASS
  1
LAYOUT
  2
AcDbLayout
  3
AutoCAD 2000
 90
        0
280
     0
281
     0
  0
CLASS
  1
LONG_TRANSACTION
  2
AcDbLongTransaction
  3
AutoCAD 2000
 90
        0
280
     0
281
     0
  0
CLASS
  1
LWPOLYLINE
  2
AcDbPolyline
  3
"AutoCAD"
 90
        0
280
     0
281
     1
  0
CLASS
  1
HATCH
  2
AcDbHatch
  3
"ACAD_SEDONA"
 90
        0
280
     0
281
     1
  0
CLASS
  1
XRECORD
  2
AcDbXrecord
  3
"<Built In>"
 90
        0
280
     0
281
     0
  0
ENDSEC
  0
SECTION
  2
TABLES
  0
TABLE
  2
VPORT
  5
12
100
AcDbSymbolTable
 70
     1
  0
VPORT
  5
10D
102
{ACAD_XDICTIONARY
360
10E
102
}
100
AcDbSymbolTableRecord
100
AcDbViewportTableRecord
  2
*ACTIVE
 70
     0
 10
0.0
 20
0.0
 11
1.0
 21
1.0
 12
-127.255054
 22
288.753965
 13
0.0
 23
0.0
 14
5.0
 24
5.0
 15
10.0
 25
10.0
 16
0.0
 26
0.0
 36
1.0
 17
0.0
 27
0.0
 37
0.0
 40
660.75662
 41
1.630435
 42
50.0
 43
0.0
 44
0.0
 50
0.0
 51
0.0
 71
     0
 72
   100
 73
     1
 74
     1
 75
     1
 76
     0
 77
     0
 78
     0
  0
ENDTAB
  0
TABLE
  2
LTYPE
  5
D
100
AcDbSymbolTable
 70
     1
  0
LTYPE
  5
E
100
AcDbSymbolTableRecord
100
AcDbLinetypeTableRecord
  2
BYBLOCK
 70
     0
  3

 72
    65
 73
     0
 40
0.0
  0
LTYPE
  5
F
100
AcDbSymbolTableRecord
100
AcDbLinetypeTableRecord
  2
BYLAYER
 70
     0
  3

 72
    65
 73
     0
 40
0.0
  0
LTYPE
  5
5
100
AcDbSymbolTableRecord
100
AcDbLinetypeTableRecord
  2
CONTINUOUS
 70
     0
  3
Solid line
 72
    65
 73
     0
 40
0.0
  0
ENDTAB
  0
TABLE
  2
LAYER
  5
A
100
AcDbSymbolTable
 70
     6
  0
LAYER
  5
4
100
AcDbSymbolTableRecord
100
AcDbLayerTableRecord
  2
0
 70
     0
 62
     7
  6
CONTINUOUS
  0
LAYER
  5
BC
100
AcDbSymbolTableRecord
100
AcDbLayerTableRecord
  2
STALPROFIL
 70
     0
 62
     1
  6
CONTINUOUS
  0
LAYER
  5
BF
100
AcDbSymbolTableRecord
100
AcDbLayerTableRecord
  2
SPKONTUR
 70
     0
 62
     7
  6
CONTINUOUS
  0
LAYER
  5
1B
100
AcDbSymbolTableRecord
100
AcDbLayerTableRecord
  2
GLAS_MED_FOGNING
 70
     0
 62
     2
  6
CONTINUOUS
  0
LAYER
  5
DC
100
AcDbSymbolTableRecord
100
AcDbLayerTableRecord
  2
TEXT
 70
     0
 62
     6
  6
CONTINUOUS
  0
LAYER
  5
1F
100
AcDbSymbolTableRecord
100
AcDbLayerTableRecord
  2
RAM
 70
     0
 62
     5
  6
CONTINUOUS
  0
ENDTAB
  0
TABLE
  2
STYLE
  5
B
100
AcDbSymbolTable
 70
     2
  0
STYLE
  5
C
100
AcDbSymbolTableRecord
100
AcDbTextStyleTableRecord
  2
STANDARD
 70
     0
 40
0.0
 41
1.0
 50
0.0
 71
     0
 42
5.0
  3
txt
  4

  0
STYLE
  5
D9
100
AcDbSymbolTableRecord
100
AcDbTextStyleTableRecord
  2
ROMANS
 70
     0
 40
0.0
 41
0.8
 50
0.0
 71
     0
 42
5.0
  3
romans
  4

  0
ENDTAB
  0
TABLE
  2
VIEW
  5
10
100
AcDbSymbolTable
 70
     0
  0
ENDTAB
  0
TABLE
  2
UCS
  5
11
100
AcDbSymbolTable
 70
     0
  0
ENDTAB
  0
TABLE
  2
APPID
  5
14
100
AcDbSymbolTable
 70
     2
  0
APPID
  5
15
100
AcDbSymbolTableRecord
100
AcDbRegAppTableRecord
  2
ACAD
 70
     0
  0
APPID
  5
C6
100
AcDbSymbolTableRecord
100
AcDbRegAppTableRecord
  2
CONTENTBLOCKICON
 70
     0
  0
ENDTAB
  0
TABLE
  2
DIMSTYLE
  5
16
100
AcDbSymbolTable
 70
     1
  0
DIMSTYLE
105
1D
100
AcDbSymbolTableRecord
100
AcDbDimStyleTableRecord
  2
STANDARD
 70
     0
  3

  4

  5

  6

  7

 40
1.0
 41
0.18
 42
0.0625
 43
0.38
 44
0.18
 45
0.0
 46
0.0
 47
0.0
 48
0.0
140
0.18
141
0.09
142
0.0
143
25.4
144
1.0
145
0.0
146
1.0
147
0.09
 71
     0
 72
     0
 73
     1
 74
     1
 75
     0
 76
     0
 77
     0
 78
     0
170
     0
171
     2
172
     0
173
     0
174
     0
175
     0
176
     0
177
     0
178
     0
270
     2
271
     4
272
     4
273
     2
274
     2
340
C
275
     0
280
     0
281
     0
282
     0
283
     1
284
     0
285
     0
286
     0
287
     3
288
     0
  0
ENDTAB
  0
TABLE
  2
BLOCK_RECORD
  5
1
100
AcDbSymbolTable
 70
     6
  0
BLOCK_RECORD
  5
2
102
{ACAD_XDICTIONARY
360
130
102
}
100
AcDbSymbolTableRecord
100
AcDbBlockTableRecord
  2
*MODEL_SPACE
  0
BLOCK_RECORD
  5
7
102
{ACAD_XDICTIONARY
360
132
102
}
100
AcDbSymbolTableRecord
100
AcDbBlockTableRecord
  2
*PAPER_SPACE
  0
BLOCK_RECORD
  5
27
100
AcDbSymbolTableRecord
100
AcDbBlockTableRecord
  2
*X0
  0
BLOCK_RECORD
  5
23
100
AcDbSymbolTableRecord
100
AcDbBlockTableRecord
  2
SP711020
1001
CONTENTBLOCKICON
1071
        0
1004
2800000020000000200000000100040000000000000200000000000000000000000000000000000000000000000080000080000000808000800000008000800080800000C0C0C000808080000000FF0000FF000000FFFF00FF000000FF00FF00FFFF0000FFFFFF00FFFFFFFFFFFFFFFFFFFFFFFFFFFFFFFFFFFFFFFFFFFFFF
1004
FFFFFFFFFFFFFFFFFFFFFFFFFFFFFFFFFFFFFFFFFFFFFFFFFFFFFFFFFFFFFFFFFFFFFFFFFFFFFFFFFFFFFFFFFFFFFFFFFFFFFFFFFFFFFFFFFFFFFFFFFFFFFFFFFFFFFFFFFFFFFFFFFFFFFFFFFFFFFFFFFFFFFFFFFFFFFFFFFFFFFFFFFFFFFFFFFFFFFFFFFFFFFFFFFFFFFFFFFFFFFFFFFFFFFFFFFFFFFFFFFF0F00000BBBBB
1004
B000000BBBBBB0F00000099999FFBBBFB09999FBFFBBF099999F0FFFF90FBBFFB0FFFF0BBBFBB0FFFF900FFFF90BBFBBB0FFFF0FBBFBB0FFFF900FFFF90BFFBBF0FFFF0BFBBFF0FFFF900FFFF90BBBBFB0FFFF0BFBBBF0FFFF900FFFF90FBBFBB0FFFF0BBFFBB0FFFF900FFFF90BFBBFF0FFFF0BBBFBB0FFFF900FFFF90BFB
1004
BBF0FFFF0FFBBBF0FFFF900FFFF90BBFFBB0FFFF0FBBBFF0FFFF900FFFF90BBBFBB0FFFF0BBFBBB0FFFF900FFFF90FFBBFF0FFFF0BBFFBB0FFFF900FFFF90FBBBBF0FFFF0FBBBFB0FFFF900FFFF90BBFFBB0FFFF0BFBBFF0FFFF90000009BBBBBBBB00000BBBBBB0000090FFFFFFFFFFFFFFFFFFFFFFFFFFFFFFFFFFFFFFFF
1004
FFFFFFFFFFFFFFFFFFFFFFFFFFFFFFFFFFFFFFFFFFFFFFFFFFFFFFFFFFFFFFFFFFFFFFFFFFFFFFFFFFFFFFFFFFFFFFFFFFFFFFFFFFFFFFFFFFFFFFFFFFFFFFFFFFFFFFFFFFFFFFFFFFFFFFFFFFFFFFFFFFFFFFFFFFFFFFFFFFFFFFFFFFFFFFFFFFFFFFFFFFFFFFFFFFFFFFFF
  0
BLOCK_RECORD
  5
E7
100
AcDbSymbolTableRecord
100
AcDbBlockTableRecord
  2
SP711022
1001
CONTENTBLOCKICON
1071
        0
1004
2800000020000000200000000100040000000000000200000000000000000000000000000000000000000000000080000080000000808000800000008000800080800000C0C0C000808080000000FF0000FF000000FFFF00FF000000FF00FF00FFFF0000FFFFFF00FFF0F000000000000000000000000FFFFFF99999909999
1004
999999999000000FFFFFFFFFFFF0FFFFFFFFFFFF90FFFFFFFFFFFFFFFFF0FFFFFFFFFFFF90FFFFFFFFFFFFFFFFF0FFFFFFFFFFFF90FFFFFFFFFFFFFFFFF0FFFFFFFFFFFF90FFFFFFFFFFFFFFFFFB000000000000BBFFFFFFFFFFFFFFFFFBBFBBFFBBFFBBFBFFFFFFFFFFFFFFFFFBFFBBBBFBBBFBBBFFFFFFFFFFFFFFFFFBBB
1004
BFBBFFBBFFBBFFFFFFFFFFFFFFFFFBBBFBFBBBFBBBBBFFFFFFFFFFFFFFFFFBBFBBBFBBFFBBFBFFFFFFFFFFFFFFFFFBBBFBFBFBBBBFBBFFFFFFFFFFFFFFFFFB0000000000000BFFFFFFFFFFFFFFFFF0FFFFFFFFFFFF90FFFFFFFFFFFFFFFFF0FFFFFFFFFFFF90FFFFFFFFFFFFFFFFF0FFFFFFFFFFFF90FFFFFFFFFFFFFFFFF0
1004
FFFFFFFFFFFF90FFFFFFFFFFFFFFFFFB000000000000BBFFFFFFFFFFFFFFFFFBBFFBBFFBBFBBBBFFFFFFFFFFFFFFFFFBBBBFBBBFFBBFFBFFFFFFFFFFFFFFFFFBFBBFFBBBFBBBFBFFFFFFFFFFFFFFFFFBBFBBBBFBBFFBBBFFFFFFFFFFFFFFFFFBBBFBBFFBBBFBBBFFFFFFFFFFFFFFFFFBBFBBFBBBFBBFFBFFFFFFFFFFFFFFFF
1004
FB0000000000000BFFFFFFFFFFFFFFFFF099999999999990FFFFFFFFFFFFFFFFF0FFFFFFFFFFFF90FFFFFFFFFFFFFFFFF0FFFFFFFFFFFF90FFFFFFFFFFFFFFFFF0FFFFFFFFFFFF90FFFFFFFFFFFFFFFFF0FFFFFFFFFFFF90FFFFFFFFFFFFFFFFF000000000000000FFFFFFFF
  0
BLOCK_RECORD
  5
21
100
AcDbSymbolTableRecord
100
AcDbBlockTableRecord
  2
110_SP711020
1001
CONTENTBLOCKICON
1071
        0
1004
2800000020000000200000000100040000000000000200000000000000000000000000000000000000000000000080000080000000808000800000008000800080800000C0C0C000808080000000FF0000FF000000FFFF00FF000000FF00FF00FFFF0000FFFFFF00FFFFFFFF0F0000000000000FFFFFFFFFFFFFFFFF099999
1004
99999999FFFFFFFFFFFFFFFFFF0FFFFFFFFFFFFF0FFFFFFFFFFFFFFFFF0FFFFFFFFFFFFF0FFFFFFFFFFFFFFFFF0FFFFFFFFFFFFF0FFFFFFFFFFFFFFFFF9FFFFFFFFFFFFF0FFFFFFFFFFFFFFFFFB00000000000000FFFFFFFFFFFFFFFFFBBFFBBBFBBBFBFBFFFFFFFFFFFFFFFFFBBFBBBFFBBFBBBBFFFFFFFFFFFFFFFFFBFBB
1004
FBBBBFBFBFBFFFFFFFFFFFFFFFFFBBBBFFBBFBBBFBBFFFFFFFFFFFFFFFFFBBFBBBFBBFBFBFBFFFFFFFFFFFFFFFFFBBFFBBFFBBFBBBBFFFFFFFFFFFFFFFFFBB0000000000000FFFFFFFFFFFFFFFFF0FFFFFFFFFFFFF0FFFFFFFFFFFFFFFFF0FFFFFFFFFFFFF0FFFFFFFFFFFFFFFFF0FFFFFFFFFFFFF0FFFFFFFFFFFFFFFFF0F
1004
FFFFFFFFFFFF0FFFFFFFFFFFFFFFFF000000000000000FFFFFFFFFFFFFFFFFBBFBBFFBBFBBBBBFFFFFFFFFFFFFFFFFBBBBBFBBBFFBBFBFFFFFFFFFFFFFFFFFBBBFFBBFBBBFBBBFFFFFFFFFFFFFFFFFBBFBBBBFFBBFFBBFFFFFFFFFFFFFFFFFBFFBBFBBBFBBBFBFFFFFFFFFFFFFFFFFBBBBFBFBBFFBBFBFFFFFFFFFFFFFFFFF
1004
0B0000000000000FFFFFFFFFFFFFFFFF09999999999999FFFFFFFFFFFFFFFFFF0FFFFFFFFFFFFF0FFFFFFFFFFFFFFFFF0FFFFFFFFFFFFF0FFFFFFFFFFFFFFFFF0FFFFFFFFFFFFF0FFFFFFFFFFFFFFFFF9FFFFFFFFFFFFF0FFFFFFFFFFFFFFFFF000000000000000FFFFFFFFF
  0
BLOCK_RECORD
  5
CA
100
AcDbSymbolTableRecord
100
AcDbBlockTableRecord
  2
110_SP711021
1001
CONTENTBLOCKICON
1071
        0
1004
2800000020000000200000000100040000000000000200000000000000000000000000000000000000000000000080000080000000808000800000008000800080800000C0C0C000808080000000FF0000FF000000FFFF00FF000000FF00FF00FFFF0000FFFFFF00FFFFFF000000000000000000000FFFFFFFFFFF09999999
1004
9999990000000FFFFFFFFFFF0FFFFFFFFFFFFF0FFFFFFFFFFFFFFFFF0FFFFFFFFFFFFF0FFFFFFFFFFFFFFFFF0FFFFFFFFFFFFF0FFFFFFFFFFFFFFFFF0FFFFFFFFFFFFF0FFFFFFFFFFFFFFFFF000000000000000FFFFFFFFFFFFFFFFFBBBBFBFBBFFBBFBFFFFFFFFFFFFFFFFFBFFBBFBBBFBBBFBFFFFFFFFFFFFFFFFFBBFBBB
1004
BFFBBFFBBFFFFFFFFFFFFFFFFFBBBFFBBFBBBFBBBFFFFFFFFFFFFFFFFFBBBBBFBBBFFBBFBFFFFFFFFFFFFFFFFFBBFBBFFBBFBBBBBFFFFFFFFFFFFFFFFF000000000000000FFFFFFFFFFFFFFFFF9FFFFFFFFFFFFF0FFFFFFFFFFFFFFFFF9FFFFFFFFFFFFF0FFFFFFFFFFFFFFFFF9FFFFFFFFFFFFF0FFFFFFFFFFFFFFFFF9FFF
1004
FFFFFFFFFF0FFFFFFFFFFFFFFFFF900000000000000FFFFFFFFFFFFFFFFFBBFFBBFFBBFBBBBFFFFFFFFFFFFFFFFFBBFBBBFBBFBFBFBFFFFFFFFFFFFFFFFFBBBBFFBBFBBBFBBFFFFFFFFFFFFFFFFFBFBBFBBBBFBFBFBFFFFFFFFFFFFFFFFFBBFBBBFFBBFBBBBFFFFFFFFFFFFFFFFFBBFFBBBFBBBFBFBFFFFFFFFFFFFFFFFF00
1004
0000000000000FFFFFFFFFFFFFFFFF999999999999990FFFFFFFFFFFFFFFFF9FFFFFFFFFFFFF0FFFFFFFFFFFFFFFFF9FFFFFFFFFFFFF0FFFFFFFFFFFFFFFFF9FFFFFFFFFFFFF0FFFFFFFFFFFFFFFFF9FFFFFFFFFFFFF0FFFFFFFFFFFFFFFFF999999999999990FFFFFFFFFFF
  0
BLOCK_RECORD
  5
DF
100
AcDbSymbolTableRecord
100
AcDbBlockTableRecord
  2
110_SP711022
1001
CONTENTBLOCKICON
1071
        0
1004
2800000020000000200000000100040000000000000200000000000000000000000000000000000000000000000080000080000000808000800000008000800080800000C0C0C000808080000000FF0000FF000000FFFF00FF000000FF00FF00FFFF0000FFFFFF00FFF0F000000000000000000000000FFFFFF99999909999
1004
999999999000000FFFFFFFFFFFF0FFFFFFFFFFFF90FFFFFFFFFFFFFFFFF0FFFFFFFFFFFF90FFFFFFFFFFFFFFFFF0FFFFFFFFFFFF90FFFFFFFFFFFFFFFFF0FFFFFFFFFFFF90FFFFFFFFFFFFFFFFFBBBB0BBBB0BBBBBFFFFFFFFFFFFFFFFFBBFBBFFBBFFBBFBFFFFFFFFFFFFFFFFFBFFBBBBFBBBFBBBFFFFFFFFFFFFFFFFFBBB
1004
BFBBFFBBFFBBFFFFFFFFFFFFFFFFFBBBFBFBBBFBBBBBFFFFFFFFFFFFFFFFFBBFBBBFBBFFBBFBFFFFFFFFFFFFFFFFFBBBFBFBFBBBBFBBFFFFFFFFFFFFFFFFF000000000000000FFFFFFFFFFFFFFFFF0FFFFFFFFFFFF90FFFFFFFFFFFFFFFFF0FFFFFFFFFFFF90FFFFFFFFFFFFFFFFF0FFFFFFFFFFFF90FFFFFFFFFFFFFFFFF0
1004
FFFFFFFFFFFF90FFFFFFFFFFFFFFFFF000000000000000FFFFFFFFFFFFFFFFFBBFFBBFFBBFBBBBFFFFFFFFFFFFFFFFFBBBBFBBBFFBBFFBFFFFFFFFFFFFFFFFFBFBBFFBBBFBBBFBFFFFFFFFFFFFFFFFFBBFBBBBFBBFFBBBFFFFFFFFFFFFFFFFFBBBFBBFFBBBFBBBFFFFFFFFFFFFFFFFFBBFBBFBBBFBBFFBFFFFFFFFFFFFFFFF
1004
FB0BB00BB00BBBBBFFFFFFFFFFFFFFFFF099999999999990FFFFFFFFFFFFFFFFF0FFFFFFFFFFFF90FFFFFFFFFFFFFFFFF0FFFFFFFFFFFF90FFFFFFFFFFFFFFFFF0FFFFFFFFFFFF90FFFFFFFFFFFFFFFFF0FFFFFFFFFFFF90FFFFFFFFFFFFFFFFF000000000000000FFFFFFFF
  0
ENDTAB
  0
ENDSEC
  0
SECTION
  2
BLOCKS
  0
BLOCK
  5
3
100
AcDbEntity
  8
0
100
AcDbBlockBegin
  2
*MODEL_SPACE
 70
     0
 10
0.0
 20
0.0
 30
0.0
  3
*MODEL_SPACE
  1

  0
ENDBLK
  5
6
100
AcDbEntity
  8
0
100
AcDbBlockEnd
  0
BLOCK
  5
8
100
AcDbEntity
 67
     1
  8
0
100
AcDbBlockBegin
  2
*PAPER_SPACE
 70
     0
 10
0.0
 20
0.0
 30
0.0
  3
*PAPER_SPACE
  1

  0
ENDBLK
  5
9
100
AcDbEntity
 67
     1
  8
0
100
AcDbBlockEnd
  0
BLOCK
  5
B8
100
AcDbEntity
  8
0
100
AcDbBlockBegin
  2
*X0
 70
     1
 10
0.0
 20
0.0
 30
0.0
  3
*X0
  1

  0
LINE
  5
28
100
AcDbEntity
  8
0
 62
     0
100
AcDbLine
 10
-41.162495
 20
-22.642443
 30
0.0
 11
-42.483178
 21
-19.810231
 31
0.0
  0
LINE
  5
29
100
AcDbEntity
  8
0
 62
     0
100
AcDbLine
 10
-43.80386
 20
-16.978019
 30
0.0
 11
-45.0
 21
-14.412888
 31
0.0
  0
LINE
  5
2A
100
AcDbEntity
  8
0
 62
     0
100
AcDbLine
 10
-43.511204
 20
-25.0
 30
0.0
 11
-43.994707
 21
-23.963125
 31
0.0
  0
LINE
  5
2B
100
AcDbEntity
  8
0
 62
     0
100
AcDbLine
 10
-65.0
 20
21.082871
 30
0.0
 11
-65.12562
 21
21.352264
 31
0.0
  0
LINE
  5
2C
100
AcDbEntity
  8
0
 62
     0
100
AcDbLine
 10
-66.446302
 20
24.184476
 30
0.0
 11
-66.826587
 21
25.0
 31
0.0
  0
LINE
  5
2D
100
AcDbEntity
  8
0
 62
     0
100
AcDbLine
 10
-65.316468
 20
14.367159
 30
0.0
 11
-66.63715
 21
17.199371
 31
0.0
  0
LINE
  5
2E
100
AcDbEntity
  8
0
 62
     0
100
AcDbLine
 10
-67.957832
 20
20.031582
 30
0.0
 11
-69.278514
 21
22.863794
 31
0.0
  0
LINE
  5
2F
100
AcDbEntity
  8
0
 62
     0
100
AcDbLine
 10
-65.0
 20
6.294111
 30
0.0
 11
-65.507316
 21
7.382053
 31
0.0
  0
LINE
  5
30
100
AcDbEntity
  8
0
 62
     0
100
AcDbLine
 10
-66.827998
 20
10.214265
 30
0.0
 11
-68.14868
 21
13.046477
 31
0.0
  0
LINE
  5
31
100
AcDbEntity
  8
0
 62
     0
100
AcDbLine
 10
-69.469362
 20
15.878688
 30
0.0
 11
-70.790044
 21
18.7109
 31
0.0
  0
LINE
  5
32
100
AcDbEntity
  8
0
 62
     0
100
AcDbLine
 10
-72.110726
 20
21.543112
 30
0.0
 11
-73.431408
 21
24.375324
 31
0.0
  0
LINE
  5
33
100
AcDbEntity
  8
0
 62
     0
100
AcDbLine
 10
-65.698163
 20
0.396947
 30
0.0
 11
-67.018846
 21
3.229159
 31
0.0
  0
LINE
  5
34
100
AcDbEntity
  8
0
 62
     0
100
AcDbLine
 10
-68.339528
 20
6.061371
 30
0.0
 11
-69.66021
 21
8.893583
 31
0.0
  0
LINE
  5
35
100
AcDbEntity
  8
0
 62
     0
100
AcDbLine
 10
-70.980892
 20
11.725795
 30
0.0
 11
-72.301574
 21
14.558006
 31
0.0
  0
LINE
  5
36
100
AcDbEntity
  8
0
 62
     0
100
AcDbLine
 10
-73.622256
 20
17.390218
 30
0.0
 11
-74.942938
 21
20.22243
 31
0.0
  0
LINE
  5
37
100
AcDbEntity
  8
0
 62
     0
100
AcDbLine
 10
-76.26362
 20
23.054642
 30
0.0
 11
-77.170755
 21
25.0
 31
0.0
  0
LINE
  5
38
100
AcDbEntity
  8
0
 62
     0
100
AcDbLine
 10
-65.0
 20
-8.494649
 30
0.0
 11
-65.889011
 21
-6.588159
 31
0.0
  0
LINE
  5
39
100
AcDbEntity
  8
0
 62
     0
100
AcDbLine
 10
-67.209693
 20
-3.755947
 30
0.0
 11
-68.530375
 21
-0.923735
 31
0.0
  0
LINE
  5
3A
100
AcDbEntity
  8
0
 62
     0
100
AcDbLine
 10
-69.851057
 20
1.908477
 30
0.0
 11
-71.171739
 21
4.740689
 31
0.0
  0
LINE
  5
3B
100
AcDbEntity
  8
0
 62
     0
100
AcDbLine
 10
-72.492422
 20
7.572901
 30
0.0
 11
-73.813104
 21
10.405112
 31
0.0
  0
LINE
  5
3C
100
AcDbEntity
  8
0
 62
     0
100
AcDbLine
 10
-75.133786
 20
13.237324
 30
0.0
 11
-76.454468
 21
16.069536
 31
0.0
  0
LINE
  5
3D
100
AcDbEntity
  8
0
 62
     0
100
AcDbLine
 10
-77.77515
 20
18.901748
 30
0.0
 11
-79.095832
 21
21.73396
 31
0.0
  0
LINE
  5
3E
100
AcDbEntity
  8
0
 62
     0
100
AcDbLine
 10
-80.416514
 20
24.566172
 30
0.0
 11
-80.618811
 21
25.0
 31
0.0
  0
LINE
  5
3F
100
AcDbEntity
  8
0
 62
     0
100
AcDbLine
 10
-66.079859
 20
-13.573264
 30
0.0
 11
-67.400541
 21
-10.741052
 31
0.0
  0
LINE
  5
40
100
AcDbEntity
  8
0
 62
     0
100
AcDbLine
 10
-68.721223
 20
-7.908841
 30
0.0
 11
-70.041905
 21
-5.076629
 31
0.0
  0
LINE
  5
41
100
AcDbEntity
  8
0
 62
     0
100
AcDbLine
 10
-71.362587
 20
-2.244417
 30
0.0
 11
-72.683269
 21
0.587795
 31
0.0
  0
LINE
  5
42
100
AcDbEntity
  8
0
 62
     0
100
AcDbLine
 10
-74.003951
 20
3.420007
 30
0.0
 11
-75.324633
 21
6.252219
 31
0.0
  0
LINE
  5
43
100
AcDbEntity
  8
0
 62
     0
100
AcDbLine
 10
-76.645315
 20
9.08443
 30
0.0
 11
-77.965997
 21
11.916642
 31
0.0
  0
LINE
  5
44
100
AcDbEntity
  8
0
 62
     0
100
AcDbLine
 10
-79.28668
 20
14.748854
 30
0.0
 11
-80.607362
 21
17.581066
 31
0.0
  0
LINE
  5
45
100
AcDbEntity
  8
0
 62
     0
100
AcDbLine
 10
-81.928044
 20
20.413278
 30
0.0
 11
-83.248726
 21
23.24549
 31
0.0
  0
LINE
  5
46
100
AcDbEntity
  8
0
 62
     0
100
AcDbLine
 10
-65.0
 20
-23.283409
 30
0.0
 11
-66.270707
 21
-20.55837
 31
0.0
  0
LINE
  5
47
100
AcDbEntity
  8
0
 62
     0
100
AcDbLine
 10
-67.591389
 20
-17.726158
 30
0.0
 11
-68.912071
 21
-14.893946
 31
0.0
  0
LINE
  5
48
100
AcDbEntity
  8
0
 62
     0
100
AcDbLine
 10
-70.232753
 20
-12.061734
 30
0.0
 11
-71.553435
 21
-9.229523
 31
0.0
  0
LINE
  5
49
100
AcDbEntity
  8
0
 62
     0
100
AcDbLine
 10
-72.874117
 20
-6.397311
 30
0.0
 11
-74.194799
 21
-3.565099
 31
0.0
  0
LINE
  5
4A
100
AcDbEntity
  8
0
 62
     0
100
AcDbLine
 10
-75.515481
 20
-0.732887
 30
0.0
 11
-76.836163
 21
2.099325
 31
0.0
  0
LINE
  5
4B
100
AcDbEntity
  8
0
 62
     0
100
AcDbLine
 10
-78.156845
 20
4.931537
 30
0.0
 11
-79.477527
 21
7.763748
 31
0.0
  0
LINE
  5
4C
100
AcDbEntity
  8
0
 62
     0
100
AcDbLine
 10
-80.798209
 20
10.59596
 30
0.0
 11
-82.118891
 21
13.428172
 31
0.0
  0
LINE
  5
4D
100
AcDbEntity
  8
0
 62
     0
100
AcDbLine
 10
-83.439573
 20
16.260384
 30
0.0
 11
-84.760256
 21
19.092596
 31
0.0
  0
LINE
  5
4E
100
AcDbEntity
  8
0
 62
     0
100
AcDbLine
 10
-86.080938
 20
21.924808
 30
0.0
 11
-87.40162
 21
24.757019
 31
0.0
  0
LINE
  5
4F
100
AcDbEntity
  8
0
 62
     0
100
AcDbLine
 10
-67.647596
 20
-25.0
 30
0.0
 11
-67.782236
 21
-24.711264
 31
0.0
  0
LINE
  5
50
100
AcDbEntity
  8
0
 62
     0
100
AcDbLine
 10
-69.102918
 20
-21.879052
 30
0.0
 11
-70.4236
 21
-19.04684
 31
0.0
  0
LINE
  5
51
100
AcDbEntity
  8
0
 62
     0
100
AcDbLine
 10
-71.744283
 20
-16.214628
 30
0.0
 11
-73.064965
 21
-13.382417
 31
0.0
  0
LINE
  5
52
100
AcDbEntity
  8
0
 62
     0
100
AcDbLine
 10
-74.385647
 20
-10.550205
 30
0.0
 11
-75.706329
 21
-7.717993
 31
0.0
  0
LINE
  5
53
100
AcDbEntity
  8
0
 62
     0
100
AcDbLine
 10
-77.027011
 20
-4.885781
 30
0.0
 11
-78.347693
 21
-2.053569
 31
0.0
  0
LINE
  5
54
100
AcDbEntity
  8
0
 62
     0
100
AcDbLine
 10
-79.668375
 20
0.778643
 30
0.0
 11
-80.989057
 21
3.610854
 31
0.0
  0
LINE
  5
55
100
AcDbEntity
  8
0
 62
     0
100
AcDbLine
 10
-82.309739
 20
6.443066
 30
0.0
 11
-83.630421
 21
9.275278
 31
0.0
  0
LINE
  5
56
100
AcDbEntity
  8
0
 62
     0
100
AcDbLine
 10
-84.951103
 20
12.10749
 30
0.0
 11
-86.271785
 21
14.939702
 31
0.0
  0
LINE
  5
57
100
AcDbEntity
  8
0
 62
     0
100
AcDbLine
 10
-87.592467
 20
17.771914
 30
0.0
 11
-88.913149
 21
20.604125
 31
0.0
  0
LINE
  5
58
100
AcDbEntity
  8
0
 62
     0
100
AcDbLine
 10
-71.095652
 20
-25.0
 30
0.0
 11
-71.93513
 21
-23.199734
 31
0.0
  0
LINE
  5
59
100
AcDbEntity
  8
0
 62
     0
100
AcDbLine
 10
-73.255812
 20
-20.367522
 30
0.0
 11
-74.576494
 21
-17.53531
 31
0.0
  0
LINE
  5
5A
100
AcDbEntity
  8
0
 62
     0
100
AcDbLine
 10
-75.897176
 20
-14.703099
 30
0.0
 11
-77.217859
 21
-11.870887
 31
0.0
  0
LINE
  5
5B
100
AcDbEntity
  8
0
 62
     0
100
AcDbLine
 10
-78.538541
 20
-9.038675
 30
0.0
 11
-79.859223
 21
-6.206463
 31
0.0
  0
LINE
  5
5C
100
AcDbEntity
  8
0
 62
     0
100
AcDbLine
 10
-81.179905
 20
-3.374251
 30
0.0
 11
-82.500587
 21
-0.542039
 31
0.0
  0
LINE
  5
5D
100
AcDbEntity
  8
0
 62
     0
100
AcDbLine
 10
-83.821269
 20
2.290172
 30
0.0
 11
-85.141951
 21
5.122384
 31
0.0
  0
LINE
  5
5E
100
AcDbEntity
  8
0
 62
     0
100
AcDbLine
 10
-86.462633
 20
7.954596
 30
0.0
 11
-87.783315
 21
10.786808
 31
0.0
  0
LINE
  5
5F
100
AcDbEntity
  8
0
 62
     0
100
AcDbLine
 10
-89.103997
 20
13.61902
 30
0.0
 11
-90.0
 21
15.540504
 31
0.0
  0
LINE
  5
60
100
AcDbEntity
  8
0
 62
     0
100
AcDbLine
 10
-74.767342
 20
-24.520416
 30
0.0
 11
-76.088024
 21
-21.688204
 31
0.0
  0
LINE
  5
61
100
AcDbEntity
  8
0
 62
     0
100
AcDbLine
 10
-77.408706
 20
-18.855993
 30
0.0
 11
-78.729388
 21
-16.023781
 31
0.0
  0
LINE
  5
62
100
AcDbEntity
  8
0
 62
     0
100
AcDbLine
 10
-80.05007
 20
-13.191569
 30
0.0
 11
-81.370752
 21
-10.359357
 31
0.0
  0
LINE
  5
63
100
AcDbEntity
  8
0
 62
     0
100
AcDbLine
 10
-82.691434
 20
-7.527145
 30
0.0
 11
-84.012117
 21
-4.694933
 31
0.0
  0
LINE
  5
64
100
AcDbEntity
  8
0
 62
     0
100
AcDbLine
 10
-85.332799
 20
-1.862722
 30
0.0
 11
-86.653481
 21
0.96949
 31
0.0
  0
LINE
  5
65
100
AcDbEntity
  8
0
 62
     0
100
AcDbLine
 10
-87.974163
 20
3.801702
 30
0.0
 11
-89.294845
 21
6.633914
 31
0.0
  0
LINE
  5
66
100
AcDbEntity
  8
0
 62
     0
100
AcDbLine
 10
-78.920236
 20
-23.008886
 30
0.0
 11
-80.240918
 21
-20.176675
 31
0.0
  0
LINE
  5
67
100
AcDbEntity
  8
0
 62
     0
100
AcDbLine
 10
-81.5616
 20
-17.344463
 30
0.0
 11
-82.882282
 21
-14.512251
 31
0.0
  0
LINE
  5
68
100
AcDbEntity
  8
0
 62
     0
100
AcDbLine
 10
-84.202964
 20
-11.680039
 30
0.0
 11
-85.523646
 21
-8.847827
 31
0.0
  0
LINE
  5
69
100
AcDbEntity
  8
0
 62
     0
100
AcDbLine
 10
-86.844328
 20
-6.015615
 30
0.0
 11
-88.16501
 21
-3.183404
 31
0.0
  0
LINE
  5
6A
100
AcDbEntity
  8
0
 62
     0
100
AcDbLine
 10
-89.485693
 20
-0.351192
 30
0.0
 11
-90.0
 21
0.751744
 31
0.0
  0
LINE
  5
6B
100
AcDbEntity
  8
0
 62
     0
100
AcDbLine
 10
-81.43982
 20
-25.0
 30
0.0
 11
-81.752448
 21
-24.329568
 31
0.0
  0
LINE
  5
6C
100
AcDbEntity
  8
0
 62
     0
100
AcDbLine
 10
-83.07313
 20
-21.497357
 30
0.0
 11
-84.393812
 21
-18.665145
 31
0.0
  0
LINE
  5
6D
100
AcDbEntity
  8
0
 62
     0
100
AcDbLine
 10
-85.714494
 20
-15.832933
 30
0.0
 11
-87.035176
 21
-13.000721
 31
0.0
  0
LINE
  5
6E
100
AcDbEntity
  8
0
 62
     0
100
AcDbLine
 10
-88.355858
 20
-10.168509
 30
0.0
 11
-89.67654
 21
-7.336297
 31
0.0
  0
LINE
  5
6F
100
AcDbEntity
  8
0
 62
     0
100
AcDbLine
 10
-84.887876
 20
-25.0
 30
0.0
 11
-85.905342
 21
-22.818039
 31
0.0
  0
LINE
  5
70
100
AcDbEntity
  8
0
 62
     0
100
AcDbLine
 10
-87.226024
 20
-19.985827
 30
0.0
 11
-88.546706
 21
-17.153615
 31
0.0
  0
LINE
  5
71
100
AcDbEntity
  8
0
 62
     0
100
AcDbLine
 10
-89.867388
 20
-14.321403
 30
0.0
 11
-90.0
 21
-14.037016
 31
0.0
  0
LINE
  5
72
100
AcDbEntity
  8
0
 62
     0
100
AcDbLine
 10
-88.737554
 20
-24.138721
 30
0.0
 11
-90.0
 21
-21.431396
 31
0.0
  0
LINE
  5
73
100
AcDbEntity
  8
0
 62
     0
100
AcDbLine
 10
-37.009602
 20
-24.153973
 30
0.0
 11
-38.330284
 21
-21.321761
 31
0.0
  0
LINE
  5
74
100
AcDbEntity
  8
0
 62
     0
100
AcDbLine
 10
-39.650966
 20
-18.489549
 30
0.0
 11
-40.971648
 21
-15.657337
 31
0.0
  0
LINE
  5
75
100
AcDbEntity
  8
0
 62
     0
100
AcDbLine
 10
-42.29233
 20
-12.825125
 30
0.0
 11
-43.613012
 21
-9.992913
 31
0.0
  0
LINE
  5
76
100
AcDbEntity
  8
0
 62
     0
100
AcDbLine
 10
-44.933694
 20
-7.160702
 30
0.0
 11
-45.0
 21
-7.018508
 31
0.0
  0
LINE
  5
77
100
AcDbEntity
  8
0
 62
     0
100
AcDbLine
 10
-33.167037
 20
-25.0
 30
0.0
 11
-34.17739
 21
-22.833291
 31
0.0
  0
LINE
  5
78
100
AcDbEntity
  8
0
 62
     0
100
AcDbLine
 10
-35.498072
 20
-20.001079
 30
0.0
 11
-36.818754
 21
-17.168867
 31
0.0
  0
LINE
  5
79
100
AcDbEntity
  8
0
 62
     0
100
AcDbLine
 10
-38.139436
 20
-14.336655
 30
0.0
 11
-39.460118
 21
-11.504443
 31
0.0
  0
LINE
  5
7A
100
AcDbEntity
  8
0
 62
     0
100
AcDbLine
 10
-40.7808
 20
-8.672231
 30
0.0
 11
-42.101482
 21
-5.84002
 31
0.0
  0
LINE
  5
7B
100
AcDbEntity
  8
0
 62
     0
100
AcDbLine
 10
-43.422164
 20
-3.007808
 30
0.0
 11
-44.742846
 21
-0.175596
 31
0.0
  0
LINE
  5
7C
100
AcDbEntity
  8
0
 62
     0
100
AcDbLine
 10
-29.718981
 20
-25.0
 30
0.0
 11
-30.024496
 21
-24.34482
 31
0.0
  0
LINE
  5
7D
100
AcDbEntity
  8
0
 62
     0
100
AcDbLine
 10
-31.345178
 20
-21.512608
 30
0.0
 11
-32.66586
 21
-18.680397
 31
0.0
  0
LINE
  5
7E
100
AcDbEntity
  8
0
 62
     0
100
AcDbLine
 10
-33.986542
 20
-15.848185
 30
0.0
 11
-35.307224
 21
-13.015973
 31
0.0
  0
LINE
  5
7F
100
AcDbEntity
  8
0
 62
     0
100
AcDbLine
 10
-36.627906
 20
-10.183761
 30
0.0
 11
-37.948588
 21
-7.351549
 31
0.0
  0
LINE
  5
80
100
AcDbEntity
  8
0
 62
     0
100
AcDbLine
 10
-39.26927
 20
-4.519337
 30
0.0
 11
-40.589952
 21
-1.687126
 31
0.0
  0
LINE
  5
81
100
AcDbEntity
  8
0
 62
     0
100
AcDbLine
 10
-41.910634
 20
1.145086
 30
0.0
 11
-43.231316
 21
3.977298
 31
0.0
  0
LINE
  5
82
100
AcDbEntity
  8
0
 62
     0
100
AcDbLine
 10
-44.551999
 20
6.80951
 30
0.0
 11
-45.0
 21
7.770252
 31
0.0
  0
LINE
  5
83
100
AcDbEntity
  8
0
 62
     0
100
AcDbLine
 10
-27.192284
 20
-23.024138
 30
0.0
 11
-28.512966
 21
-20.191926
 31
0.0
  0
LINE
  5
84
100
AcDbEntity
  8
0
 62
     0
100
AcDbLine
 10
-29.833648
 20
-17.359715
 30
0.0
 11
-31.15433
 21
-14.527503
 31
0.0
  0
LINE
  5
85
100
AcDbEntity
  8
0
 62
     0
100
AcDbLine
 10
-32.475012
 20
-11.695291
 30
0.0
 11
-33.795694
 21
-8.863079
 31
0.0
  0
LINE
  5
86
100
AcDbEntity
  8
0
 62
     0
100
AcDbLine
 10
-35.116376
 20
-6.030867
 30
0.0
 11
-36.437058
 21
-3.198655
 31
0.0
  0
LINE
  5
87
100
AcDbEntity
  8
0
 62
     0
100
AcDbLine
 10
-37.757741
 20
-0.366444
 30
0.0
 11
-39.078423
 21
2.465768
 31
0.0
  0
LINE
  5
88
100
AcDbEntity
  8
0
 62
     0
100
AcDbLine
 10
-40.399105
 20
5.29798
 30
0.0
 11
-41.719787
 21
8.130192
 31
0.0
  0
LINE
  5
89
100
AcDbEntity
  8
0
 62
     0
100
AcDbLine
 10
-43.040469
 20
10.962404
 30
0.0
 11
-44.361151
 21
13.794616
 31
0.0
  0
LINE
  5
8A
100
AcDbEntity
  8
0
 62
     0
100
AcDbLine
 10
-23.03939
 20
-24.535668
 30
0.0
 11
-24.360072
 21
-21.703456
 31
0.0
  0
LINE
  5
8B
100
AcDbEntity
  8
0
 62
     0
100
AcDbLine
 10
-25.680754
 20
-18.871244
 30
0.0
 11
-27.001436
 21
-16.039033
 31
0.0
  0
LINE
  5
8C
100
AcDbEntity
  8
0
 62
     0
100
AcDbLine
 10
-28.322118
 20
-13.206821
 30
0.0
 11
-29.6428
 21
-10.374609
 31
0.0
  0
LINE
  5
8D
100
AcDbEntity
  8
0
 62
     0
100
AcDbLine
 10
-30.963482
 20
-7.542397
 30
0.0
 11
-32.284165
 21
-4.710185
 31
0.0
  0
LINE
  5
8E
100
AcDbEntity
  8
0
 62
     0
100
AcDbLine
 10
-33.604847
 20
-1.877973
 30
0.0
 11
-34.925529
 21
0.954238
 31
0.0
  0
LINE
  5
8F
100
AcDbEntity
  8
0
 62
     0
100
AcDbLine
 10
-36.246211
 20
3.78645
 30
0.0
 11
-37.566893
 21
6.618662
 31
0.0
  0
LINE
  5
90
100
AcDbEntity
  8
0
 62
     0
100
AcDbLine
 10
-38.887575
 20
9.450874
 30
0.0
 11
-40.208257
 21
12.283086
 31
0.0
  0
LINE
  5
91
100
AcDbEntity
  8
0
 62
     0
100
AcDbLine
 10
-41.528939
 20
15.115298
 30
0.0
 11
-42.849621
 21
17.947509
 31
0.0
  0
LINE
  5
92
100
AcDbEntity
  8
0
 62
     0
100
AcDbLine
 10
-44.170303
 20
20.779721
 30
0.0
 11
-45.0
 21
22.559012
 31
0.0
  0
LINE
  5
93
100
AcDbEntity
  8
0
 62
     0
100
AcDbLine
 10
-20.0
 20
-23.659281
 30
0.0
 11
-20.207178
 21
-23.214986
 31
0.0
  0
LINE
  5
94
100
AcDbEntity
  8
0
 62
     0
100
AcDbLine
 10
-21.52786
 20
-20.382774
 30
0.0
 11
-22.848542
 21
-17.550562
 31
0.0
  0
LINE
  5
95
100
AcDbEntity
  8
0
 62
     0
100
AcDbLine
 10
-24.169224
 20
-14.71835
 30
0.0
 11
-25.489907
 21
-11.886139
 31
0.0
  0
LINE
  5
96
100
AcDbEntity
  8
0
 62
     0
100
AcDbLine
 10
-26.810589
 20
-9.053927
 30
0.0
 11
-28.131271
 21
-6.221715
 31
0.0
  0
LINE
  5
97
100
AcDbEntity
  8
0
 62
     0
100
AcDbLine
 10
-29.451953
 20
-3.389503
 30
0.0
 11
-30.772635
 21
-0.557291
 31
0.0
  0
LINE
  5
98
100
AcDbEntity
  8
0
 62
     0
100
AcDbLine
 10
-32.093317
 20
2.274921
 30
0.0
 11
-33.413999
 21
5.107132
 31
0.0
  0
LINE
  5
99
100
AcDbEntity
  8
0
 62
     0
100
AcDbLine
 10
-34.734681
 20
7.939344
 30
0.0
 11
-36.055363
 21
10.771556
 31
0.0
  0
LINE
  5
9A
100
AcDbEntity
  8
0
 62
     0
100
AcDbLine
 10
-37.376045
 20
13.603768
 30
0.0
 11
-38.696727
 21
16.43598
 31
0.0
  0
LINE
  5
9B
100
AcDbEntity
  8
0
 62
     0
100
AcDbLine
 10
-40.017409
 20
19.268192
 30
0.0
 11
-41.338091
 21
22.100403
 31
0.0
  0
LINE
  5
9C
100
AcDbEntity
  8
0
 62
     0
100
AcDbLine
 10
-42.658773
 20
24.932615
 30
0.0
 11
-42.690195
 21
25.0
 31
0.0
  0
LINE
  5
9D
100
AcDbEntity
  8
0
 62
     0
100
AcDbLine
 10
-20.016331
 20
-16.22988
 30
0.0
 11
-21.337013
 21
-13.397668
 31
0.0
  0
LINE
  5
9E
100
AcDbEntity
  8
0
 62
     0
100
AcDbLine
 10
-22.657695
 20
-10.565457
 30
0.0
 11
-23.978377
 21
-7.733245
 31
0.0
  0
LINE
  5
9F
100
AcDbEntity
  8
0
 62
     0
100
AcDbLine
 10
-25.299059
 20
-4.901033
 30
0.0
 11
-26.619741
 21
-2.068821
 31
0.0
  0
LINE
  5
A0
100
AcDbEntity
  8
0
 62
     0
100
AcDbLine
 10
-27.940423
 20
0.763391
 30
0.0
 11
-29.261105
 21
3.595603
 31
0.0
  0
LINE
  5
A1
100
AcDbEntity
  8
0
 62
     0
100
AcDbLine
 10
-30.581787
 20
6.427814
 30
0.0
 11
-31.902469
 21
9.260026
 31
0.0
  0
LINE
  5
A2
100
AcDbEntity
  8
0
 62
     0
100
AcDbLine
 10
-33.223151
 20
12.092238
 30
0.0
 11
-34.543833
 21
14.92445
 31
0.0
  0
LINE
  5
A3
100
AcDbEntity
  8
0
 62
     0
100
AcDbLine
 10
-35.864515
 20
17.756662
 30
0.0
 11
-37.185197
 21
20.588874
 31
0.0
  0
LINE
  5
A4
100
AcDbEntity
  8
0
 62
     0
100
AcDbLine
 10
-38.505879
 20
23.421085
 30
0.0
 11
-39.242139
 21
25.0
 31
0.0
  0
LINE
  5
A5
100
AcDbEntity
  8
0
 62
     0
100
AcDbLine
 10
-21.146165
 20
-6.412563
 30
0.0
 11
-22.466847
 21
-3.580351
 31
0.0
  0
LINE
  5
A6
100
AcDbEntity
  8
0
 62
     0
100
AcDbLine
 10
-23.787529
 20
-0.748139
 30
0.0
 11
-25.108211
 21
2.084073
 31
0.0
  0
LINE
  5
A7
100
AcDbEntity
  8
0
 62
     0
100
AcDbLine
 10
-26.428893
 20
4.916285
 30
0.0
 11
-27.749575
 21
7.748497
 31
0.0
  0
LINE
  5
A8
100
AcDbEntity
  8
0
 62
     0
100
AcDbLine
 10
-29.070257
 20
10.580708
 30
0.0
 11
-30.390939
 21
13.41292
 31
0.0
  0
LINE
  5
A9
100
AcDbEntity
  8
0
 62
     0
100
AcDbLine
 10
-31.711621
 20
16.245132
 30
0.0
 11
-33.032304
 21
19.077344
 31
0.0
  0
LINE
  5
AA
100
AcDbEntity
  8
0
 62
     0
100
AcDbLine
 10
-34.352986
 20
21.909556
 30
0.0
 11
-35.673668
 21
24.741768
 31
0.0
  0
LINE
  5
AB
100
AcDbEntity
  8
0
 62
     0
100
AcDbLine
 10
-20.0
 20
-1.476141
 30
0.0
 11
-20.955317
 21
0.572543
 31
0.0
  0
LINE
  5
AC
100
AcDbEntity
  8
0
 62
     0
100
AcDbLine
 10
-22.275999
 20
3.404755
 30
0.0
 11
-23.596681
 21
6.236967
 31
0.0
  0
LINE
  5
AD
100
AcDbEntity
  8
0
 62
     0
100
AcDbLine
 10
-24.917363
 20
9.069179
 30
0.0
 11
-26.238045
 21
11.90139
 31
0.0
  0
LINE
  5
AE
100
AcDbEntity
  8
0
 62
     0
100
AcDbLine
 10
-27.558728
 20
14.733602
 30
0.0
 11
-28.87941
 21
17.565814
 31
0.0
  0
LINE
  5
AF
100
AcDbEntity
  8
0
 62
     0
100
AcDbLine
 10
-30.200092
 20
20.398026
 30
0.0
 11
-31.520774
 21
23.230238
 31
0.0
  0
LINE
  5
B0
100
AcDbEntity
  8
0
 62
     0
100
AcDbLine
 10
-20.76447
 20
7.557649
 30
0.0
 11
-22.085152
 21
10.389861
 31
0.0
  0
LINE
  5
B1
100
AcDbEntity
  8
0
 62
     0
100
AcDbLine
 10
-23.405834
 20
13.222073
 30
0.0
 11
-24.726516
 21
16.054284
 31
0.0
  0
LINE
  5
B2
100
AcDbEntity
  8
0
 62
     0
100
AcDbLine
 10
-26.047198
 20
18.886496
 30
0.0
 11
-27.36788
 21
21.718708
 31
0.0
  0
LINE
  5
B3
100
AcDbEntity
  8
0
 62
     0
100
AcDbLine
 10
-28.688562
 20
24.55092
 30
0.0
 11
-28.897971
 21
25.0
 31
0.0
  0
LINE
  5
B4
100
AcDbEntity
  8
0
 62
     0
100
AcDbLine
 10
-20.0
 20
13.312619
 30
0.0
 11
-20.573622
 21
14.542755
 31
0.0
  0
LINE
  5
B5
100
AcDbEntity
  8
0
 62
     0
100
AcDbLine
 10
-21.894304
 20
17.374966
 30
0.0
 11
-23.214986
 21
20.207178
 31
0.0
  0
LINE
  5
B6
100
AcDbEntity
  8
0
 62
     0
100
AcDbLine
 10
-24.535668
 20
23.03939
 30
0.0
 11
-25.449915
 21
25.0
 31
0.0
  0
LINE
  5
B7
100
AcDbEntity
  8
0
 62
     0
100
AcDbLine
 10
-20.382774
 20
21.52786
 30
0.0
 11
-21.703456
 21
24.360072
 31
0.0
  0
ENDBLK
  5
B9
100
AcDbEntity
  8
0
100
AcDbBlockEnd
  0
BLOCK
  5
C4
100
AcDbEntity
  8
0
100
AcDbBlockBegin
  2
SP711020
 70
     0
 10
0.0
 20
0.0
 30
0.0
  3
SP711020
  1

  0
LWPOLYLINE
  5
24
100
AcDbEntity
  8
GLAS_MED_FOGNING
100
AcDbPolyline
 90
        4
 70
     0
 43
0.0
 10
-20.0
 20
23.2
 10
-20.0
 20
25.0
 10
-45.0
 20
25.0
 10
-45.0
 20
23.2
  0
LWPOLYLINE
  5
25
100
AcDbEntity
  8
GLAS_MED_FOGNING
100
AcDbPolyline
 90
        4
 70
     0
 43
0.0
 10
-20.0
 20
-23.2
 10
-20.0
 20
-25.0
 10
-45.0
 20
-25.0
 10
-45.0
 20
-23.2
  0
INSERT
  5
26
100
AcDbEntity
  8
GLAS_MED_FOGNING
100
AcDbBlockReference
  2
*X0
 10
0.0
 20
0.0
 30
0.0
1001
ACAD
1000
HATCH
1002
{
1070
    16
1000
DASH
1040
25.0
1040
2.007129
1002
}
  0
LWPOLYLINE
  5
BA
100
AcDbEntity
  8
GLAS_MED_FOGNING
100
AcDbPolyline
 90
        4
 70
     0
 43
0.0
 10
-65.0
 20
-23.2
 10
-65.0
 20
-25.0
 10
-90.0
 20
-25.0
 10
-90.0
 20
-23.2
  0
LWPOLYLINE
  5
BB
100
AcDbEntity
  8
STALPROFIL
100
AcDbPolyline
 90
        8
 70
     1
 43
1.8
 10
-64.1
 20
23.2
 42
-0.414214
 10
-63.2
 20
24.1
 10
-46.8
 20
24.1
 42
-0.414214
 10
-45.9
 20
23.2
 10
-45.9
 20
-23.2
 42
-0.414214
 10
-46.8
 20
-24.1
 10
-63.2
 20
-24.1
 42
-0.414214
 10
-64.1
 20
-23.2
  0
LWPOLYLINE
  5
BD
100
AcDbEntity
  8
STALPROFIL
100
AcDbPolyline
 90
        8
 70
     1
 43
1.8
 10
-109.1
 20
23.2
 42
-0.414214
 10
-108.2
 20
24.1
 10
-91.8
 20
24.1
 42
-0.414214
 10
-90.9
 20
23.2
 10
-90.9
 20
-23.2
 42
-0.414214
 10
-91.8
 20
-24.1
 10
-108.2
 20
-24.1
 42
-0.414214
 10
-109.1
 20
-23.2
  0
LWPOLYLINE
  5
BE
100
AcDbEntity
  8
SPKONTUR
100
AcDbPolyline
 90
        8
 70
     1
 43
0.0
 10
-110.0
 20
23.2
 42
-0.414214
 10
-108.2
 20
25.0
 10
-91.8
 20
25.0
 42
-0.414214
 10
-90.0
 20
23.2
 10
-90.0
 20
-23.2
 42
-0.414214
 10
-91.8
 20
-25.0
 10
-108.2
 20
-25.0
 42
-0.414214
 10
-110.0
 20
-23.2
  0
LWPOLYLINE
  5
C0
100
AcDbEntity
  8
SPKONTUR
100
AcDbPolyline
 90
        8
 70
     1
 43
0.0
 10
-65.0
 20
23.2
 42
-0.414214
 10
-63.2
 20
25.0
 10
-46.8
 20
25.0
 42
-0.414214
 10
-45.0
 20
23.2
 10
-45.0
 20
-23.2
 42
-0.414214
 10
-46.8
 20
-25.0
 10
-63.2
 20
-25.0
 42
-0.414214
 10
-65.0
 20
-23.2
  0
LWPOLYLINE
  5
C1
100
AcDbEntity
  8
GLAS_MED_FOGNING
100
AcDbPolyline
 90
        4
 70
     0
 43
0.0
 10
-65.0
 20
23.2
 10
-65.0
 20
25.0
 10
-90.0
 20
25.0
 10
-90.0
 20
23.2
  0
LWPOLYLINE
  5
C2
100
AcDbEntity
  8
STALPROFIL
100
AcDbPolyline
 90
        8
 70
     1
 43
1.8
 10
-19.1
 20
23.2
 42
-0.414214
 10
-18.2
 20
24.1
 10
-1.8
 20
24.1
 42
-0.414214
 10
-0.9
 20
23.2
 10
-0.9
 20
-23.2
 42
-0.414214
 10
-1.8
 20
-24.1
 10
-18.2
 20
-24.1
 42
-0.414214
 10
-19.1
 20
-23.2
  0
LWPOLYLINE
  5
C3
100
AcDbEntity
  8
SPKONTUR
100
AcDbPolyline
 90
        8
 70
     1
 43
0.0
 10
-20.0
 20
23.2
 42
-0.414214
 10
-18.2
 20
25.0
 10
-1.8
 20
25.0
 42
-0.414214
 10
0.0
 20
23.2
 10
0.0
 20
-23.2
 42
-0.414214
 10
-1.8
 20
-25.0
 10
-18.2
 20
-25.0
 42
-0.414214
 10
-20.0
 20
-23.2
  0
ENDBLK
  5
C5
100
AcDbEntity
  8
0
100
AcDbBlockEnd
  0
BLOCK
  5
F5
100
AcDbEntity
  8
0
100
AcDbBlockBegin
  2
SP711022
 70
     0
 10
0.0
 20
0.0
 30
0.0
  3
SP711022
  1

  0
INSERT
  5
E8
100
AcDbEntity
  8
GLAS_MED_FOGNING
100
AcDbBlockReference
  2
*X0
 10
0.0
 20
-110.0
 30
0.0
 41
-1.0
 50
90.0
1001
ACAD
1000
HATCH
1002
{
1070
    16
1000
DASH
1040
25.0
1040
2.007129
1002
}
  0
LWPOLYLINE
  5
E9
100
AcDbEntity
  8
STALPROFIL
100
AcDbPolyline
 90
        8
 70
     1
 43
1.8
 10
-23.2
 20
-45.9
 42
0.414214
 10
-24.1
 20
-46.8
 10
-24.1
 20
-63.2
 42
0.414214
 10
-23.2
 20
-64.1
 10
23.2
 20
-64.1
 42
0.414214
 10
24.1
 20
-63.2
 10
24.1
 20
-46.8
 42
0.414214
 10
23.2
 20
-45.9
  0
LWPOLYLINE
  5
EA
100
AcDbEntity
  8
SPKONTUR
100
AcDbPolyline
 90
        8
 70
     1
 43
0.0
 10
-23.2
 20
-45.0
 42
0.414214
 10
-25.0
 20
-46.8
 10
-25.0
 20
-63.2
 42
0.414214
 10
-23.2
 20
-65.0
 10
23.2
 20
-65.0
 42
0.414214
 10
25.0
 20
-63.2
 10
25.0
 20
-46.8
 42
0.414214
 10
23.2
 20
-45.0
  0
LWPOLYLINE
  5
EB
100
AcDbEntity
  8
SPKONTUR
100
AcDbPolyline
 90
       11
 70
     1
 43
0.0
 10
-25.0
 20
-106.4
 10
-25.0
 20
-91.8
 42
-0.414214
 10
-23.2
 20
-90.0
 10
23.2
 20
-90.0
 42
-0.414214
 10
25.0
 20
-91.8
 10
25.0
 20
-108.2
 42
-0.414214
 10
23.2
 20
-110.0
 10
-43.2
 20
-110.0
 42
-0.414214
 10
-45.0
 20
-108.2
 10
-45.0
 20
-108.199
 42
-0.414214
 10
-43.201
 20
-106.4
  0
LWPOLYLINE
  5
EC
100
AcDbEntity
  8
STALPROFIL
100
AcDbPolyline
 90
       11
 70
     1
 43
1.8
 10
-24.1
 20
-106.4
 10
-24.1
 20
-91.8
 42
-0.414214
 10
-23.2
 20
-90.9
 10
23.2
 20
-90.9
 42
-0.414214
 10
24.1
 20
-91.8
 10
24.1
 20
-108.2
 42
-0.414214
 10
23.2
 20
-109.1
 10
-43.2
 20
-109.1
 42
-0.414214
 10
-44.1
 20
-108.199
 42
-0.414214
 10
-43.201
 20
-107.3
 10
-25.0
 20
-107.3
 42
0.414214
  0
LWPOLYLINE
  5
ED
100
AcDbEntity
  8
STALPROFIL
100
AcDbPolyline
 90
       11
 70
     1
 43
1.8
 10
24.1
 20
-106.4
 10
24.1
 20
-91.8
 42
0.414214
 10
23.2
 20
-90.9
 10
-23.2
 20
-90.9
 42
0.414214
 10
-24.1
 20
-91.8
 10
-24.1
 20
-108.2
 42
0.414214
 10
-23.2
 20
-109.1
 10
43.2
 20
-109.1
 42
0.414214
 10
44.1
 20
-108.199
 42
0.414214
 10
43.201
 20
-107.3
 10
25.0
 20
-107.3
 42
-0.414214
  0
LWPOLYLINE
  5
EE
100
AcDbEntity
  8
SPKONTUR
100
AcDbPolyline
 90
       11
 70
     1
 43
0.0
 10
25.0
 20
-106.4
 10
25.0
 20
-91.8
 42
0.414214
 10
23.2
 20
-90.0
 10
-23.2
 20
-90.0
 42
0.414214
 10
-25.0
 20
-91.8
 10
-25.0
 20
-108.2
 42
0.414214
 10
-23.2
 20
-110.0
 10
43.2
 20
-110.0
 42
0.414214
 10
45.0
 20
-108.2
 10
45.0
 20
-108.199
 42
0.414214
 10
43.201
 20
-106.4
  0
LWPOLYLINE
  5
EF
100
AcDbEntity
  8
GLAS_MED_FOGNING
100
AcDbPolyline
 90
        4
 70
     0
 43
0.0
 10
-23.2
 20
-90.0
 10
-25.0
 20
-90.0
 10
-25.0
 20
-65.0
 10
-23.2
 20
-65.0
  0
LWPOLYLINE
  5
F0
100
AcDbEntity
  8
GLAS_MED_FOGNING
100
AcDbPolyline
 90
        4
 70
     0
 43
0.0
 10
23.2
 20
-90.0
 10
25.0
 20
-90.0
 10
25.0
 20
-65.0
 10
23.2
 20
-65.0
  0
LWPOLYLINE
  5
F1
100
AcDbEntity
  8
STALPROFIL
100
AcDbPolyline
 90
        8
 70
     1
 43
1.8
 10
-23.2
 20
-0.9
 42
0.414214
 10
-24.1
 20
-1.8
 10
-24.1
 20
-18.2
 42
0.414214
 10
-23.2
 20
-19.1
 10
23.2
 20
-19.1
 42
0.414214
 10
24.1
 20
-18.2
 10
24.1
 20
-1.8
 42
0.414214
 10
23.2
 20
-0.9
  0
LWPOLYLINE
  5
F2
100
AcDbEntity
  8
SPKONTUR
100
AcDbPolyline
 90
        8
 70
     1
 43
0.0
 10
-23.2
 20
0.0
 42
0.414214
 10
-25.0
 20
-1.8
 10
-25.0
 20
-18.2
 42
0.414214
 10
-23.2
 20
-20.0
 10
23.2
 20
-20.0
 42
0.414214
 10
25.0
 20
-18.2
 10
25.0
 20
-1.8
 42
0.414214
 10
23.2
 20
0.0
  0
LWPOLYLINE
  5
F3
100
AcDbEntity
  8
GLAS_MED_FOGNING
100
AcDbPolyline
 90
        4
 70
     0
 43
0.0
 10
-23.2
 20
-45.0
 10
-25.0
 20
-45.0
 10
-25.0
 20
-20.0
 10
-23.2
 20
-20.0
  0
LWPOLYLINE
  5
F4
100
AcDbEntity
  8
GLAS_MED_FOGNING
100
AcDbPolyline
 90
        4
 70
     0
 43
0.0
 10
23.2
 20
-45.0
 10
25.0
 20
-45.0
 10
25.0
 20
-20.0
 10
23.2
 20
-20.0
  0
ENDBLK
  5
F6
100
AcDbEntity
  8
0
100
AcDbBlockEnd
  0
BLOCK
  5
C7
100
AcDbEntity
  8
0
100
AcDbBlockBegin
  2
110_SP711020
 70
     0
 10
0.0
 20
0.0
 30
0.0
  3
110_SP711020
  1

  0
INSERT
  5
22
100
AcDbEntity
  8
RAM
100
AcDbBlockReference
  2
SP711020
 10
0.0
 20
0.0
 30
0.0
 50
90.0
  0
ENDBLK
  5
C8
100
AcDbEntity
  8
0
100
AcDbBlockEnd
  0
BLOCK
  5
D6
100
AcDbEntity
  8
0
100
AcDbBlockBegin
  2
110_SP711021
 70
     0
 10
0.0
 20
0.0
 30
0.0
  3
110_SP711021
  1

  0
LWPOLYLINE
  5
CB
100
AcDbEntity
  8
GLAS_MED_FOGNING
100
AcDbPolyline
 90
        4
 70
     0
 43
0.0
 10
23.2
 20
-90.0
 10
25.0
 20
-90.0
 10
25.0
 20
-65.0
 10
23.2
 20
-65.0
  0
LWPOLYLINE
  5
CC
100
AcDbEntity
  8
GLAS_MED_FOGNING
100
AcDbPolyline
 90
        4
 70
     0
 43
0.0
 10
-23.2
 20
-90.0
 10
-25.0
 20
-90.0
 10
-25.0
 20
-65.0
 10
-23.2
 20
-65.0
  0
INSERT
  5
CD
100
AcDbEntity
  8
GLAS_MED_FOGNING
100
AcDbBlockReference
  2
*X0
 10
0.0
 20
-110.0
 30
0.0
 41
-1.0
 50
90.0
1001
ACAD
1000
HATCH
1002
{
1070
    16
1000
DASH
1040
25.0
1040
2.007129
1002
}
  0
LWPOLYLINE
  5
CE
100
AcDbEntity
  8
STALPROFIL
100
AcDbPolyline
 90
       11
 70
     1
 43
1.8
 10
24.1
 20
-106.4
 10
24.1
 20
-91.8
 42
0.414214
 10
23.2
 20
-90.9
 10
-23.2
 20
-90.9
 42
0.414214
 10
-24.1
 20
-91.8
 10
-24.1
 20
-108.2
 42
0.414214
 10
-23.2
 20
-109.1
 10
43.2
 20
-109.1
 42
0.414214
 10
44.1
 20
-108.199
 42
0.414214
 10
43.201
 20
-107.3
 10
25.0
 20
-107.3
 42
-0.414214
  0
LWPOLYLINE
  5
CF
100
AcDbEntity
  8
SPKONTUR
100
AcDbPolyline
 90
       11
 70
     1
 43
0.0
 10
25.0
 20
-106.4
 10
25.0
 20
-91.8
 42
0.414214
 10
23.2
 20
-90.0
 10
-23.2
 20
-90.0
 42
0.414214
 10
-25.0
 20
-91.8
 10
-25.0
 20
-108.2
 42
0.414214
 10
-23.2
 20
-110.0
 10
43.2
 20
-110.0
 42
0.414214
 10
45.0
 20
-108.2
 10
45.0
 20
-108.199
 42
0.414214
 10
43.201
 20
-106.4
  0
LWPOLYLINE
  5
D0
100
AcDbEntity
  8
GLAS_MED_FOGNING
100
AcDbPolyline
 90
        4
 70
     0
 43
0.0
 10
23.2
 20
-45.0
 10
25.0
 20
-45.0
 10
25.0
 20
-20.0
 10
23.2
 20
-20.0
  0
LWPOLYLINE
  5
D1
100
AcDbEntity
  8
GLAS_MED_FOGNING
100
AcDbPolyline
 90
        4
 70
     0
 43
0.0
 10
-23.2
 20
-45.0
 10
-25.0
 20
-45.0
 10
-25.0
 20
-20.0
 10
-23.2
 20
-20.0
  0
LWPOLYLINE
  5
D2
100
AcDbEntity
  8
SPKONTUR
100
AcDbPolyline
 90
        8
 70
     1
 43
0.0
 10
-23.2
 20
-45.0
 42
0.414214
 10
-25.0
 20
-46.8
 10
-25.0
 20
-63.2
 42
0.414214
 10
-23.2
 20
-65.0
 10
23.2
 20
-65.0
 42
0.414214
 10
25.0
 20
-63.2
 10
25.0
 20
-46.8
 42
0.414214
 10
23.2
 20
-45.0
  0
LWPOLYLINE
  5
D3
100
AcDbEntity
  8
STALPROFIL
100
AcDbPolyline
 90
        8
 70
     1
 43
1.8
 10
-23.2
 20
-45.9
 42
0.414214
 10
-24.1
 20
-46.8
 10
-24.1
 20
-63.2
 42
0.414214
 10
-23.2
 20
-64.1
 10
23.2
 20
-64.1
 42
0.414214
 10
24.1
 20
-63.2
 10
24.1
 20
-46.8
 42
0.414214
 10
23.2
 20
-45.9
  0
LWPOLYLINE
  5
D4
100
AcDbEntity
  8
SPKONTUR
100
AcDbPolyline
 90
        8
 70
     1
 43
0.0
 10
-23.2
 20
0.0
 42
0.414214
 10
-25.0
 20
-1.8
 10
-25.0
 20
-18.2
 42
0.414214
 10
-23.2
 20
-20.0
 10
23.2
 20
-20.0
 42
0.414214
 10
25.0
 20
-18.2
 10
25.0
 20
-1.8
 42
0.414214
 10
23.2
 20
0.0
  0
LWPOLYLINE
  5
D5
100
AcDbEntity
  8
STALPROFIL
100
AcDbPolyline
 90
        8
 70
     1
 43
1.8
 10
-23.2
 20
-0.9
 42
0.414214
 10
-24.1
 20
-1.8
 10
-24.1
 20
-18.2
 42
0.414214
 10
-23.2
 20
-19.1
 10
23.2
 20
-19.1
 42
0.414214
 10
24.1
 20
-18.2
 10
24.1
 20
-1.8
 42
0.414214
 10
23.2
 20
-0.9
  0
ENDBLK
  5
D7
100
AcDbEntity
  8
0
100
AcDbBlockEnd
  0
BLOCK
  5
FA
100
AcDbEntity
  8
0
100
AcDbBlockBegin
  2
110_SP711022
 70
     0
 10
0.0
 20
0.0
 30
0.0
  3
110_SP711022
  1

  0
LWPOLYLINE
  5
E0
100
AcDbEntity
  8
STALPROFIL
100
AcDbPolyline
 90
        8
 70
     1
 43
1.8
 10
-23.2
 20
-0.9
 42
0.414214
 10
-24.1
 20
-1.8
 10
-24.1
 20
-18.2
 42
0.414214
 10
-23.2
 20
-19.1
 10
23.2
 20
-19.1
 42
0.414214
 10
24.1
 20
-18.2
 10
24.1
 20
-1.8
 42
0.414214
 10
23.2
 20
-0.9
  0
LWPOLYLINE
  5
E1
100
AcDbEntity
  8
SPKONTUR
100
AcDbPolyline
 90
        8
 70
     1
 43
0.0
 10
-23.2
 20
0.0
 42
0.414214
 10
-25.0
 20
-1.8
 10
-25.0
 20
-18.2
 42
0.414214
 10
-23.2
 20
-20.0
 10
23.2
 20
-20.0
 42
0.414214
 10
25.0
 20
-18.2
 10
25.0
 20
-1.8
 42
0.414214
 10
23.2
 20
0.0
  0
LWPOLYLINE
  5
E2
100
AcDbEntity
  8
STALPROFIL
100
AcDbPolyline
 90
       11
 70
     1
 43
1.8
 10
24.1
 20
-106.4
 10
24.1
 20
-91.8
 42
0.414214
 10
23.2
 20
-90.9
 10
-23.2
 20
-90.9
 42
0.414214
 10
-24.1
 20
-91.8
 10
-24.1
 20
-108.2
 42
0.414214
 10
-23.2
 20
-109.1
 10
43.2
 20
-109.1
 42
0.414214
 10
44.1
 20
-108.199
 42
0.414214
 10
43.201
 20
-107.3
 10
25.0
 20
-107.3
 42
-0.414214
  0
LWPOLYLINE
  5
E3
100
AcDbEntity
  8
SPKONTUR
100
AcDbPolyline
 90
       11
 70
     1
 43
0.0
 10
25.0
 20
-106.4
 10
25.0
 20
-91.8
 42
0.414214
 10
23.2
 20
-90.0
 10
-23.2
 20
-90.0
 42
0.414214
 10
-25.0
 20
-91.8
 10
-25.0
 20
-108.2
 42
0.414214
 10
-23.2
 20
-110.0
 10
43.2
 20
-110.0
 42
0.414214
 10
45.0
 20
-108.2
 10
45.0
 20
-108.199
 42
0.414214
 10
43.201
 20
-106.4
  0
LWPOLYLINE
  5
E4
100
AcDbEntity
  8
SPKONTUR
100
AcDbPolyline
 90
       11
 70
     1
 43
0.0
 10
-25.0
 20
-106.4
 10
-25.0
 20
-91.8
 42
-0.414214
 10
-23.2
 20
-90.0
 10
23.2
 20
-90.0
 42
-0.414214
 10
25.0
 20
-91.8
 10
25.0
 20
-108.2
 42
-0.414214
 10
23.2
 20
-110.0
 10
-43.2
 20
-110.0
 42
-0.414214
 10
-45.0
 20
-108.2
 10
-45.0
 20
-108.199
 42
-0.414214
 10
-43.201
 20
-106.4
  0
LWPOLYLINE
  5
E5
100
AcDbEntity
  8
STALPROFIL
100
AcDbPolyline
 90
       11
 70
     1
 43
1.8
 10
-24.1
 20
-106.4
 10
-24.1
 20
-91.8
 42
-0.414214
 10
-23.2
 20
-90.9
 10
23.2
 20
-90.9
 42
-0.414214
 10
24.1
 20
-91.8
 10
24.1
 20
-108.2
 42
-0.414214
 10
23.2
 20
-109.1
 10
-43.2
 20
-109.1
 42
-0.414214
 10
-44.1
 20
-108.199
 42
-0.414214
 10
-43.201
 20
-107.3
 10
-25.0
 20
-107.3
 42
0.414214
  0
INSERT
  5
E6
100
AcDbEntity
  8
GLAS_MED_FOGNING
100
AcDbBlockReference
  2
SP711022
 10
0.0
 20
0.0
 30
0.0
  0
INSERT
  5
F7
100
AcDbEntity
  8
GLAS_MED_FOGNING
100
AcDbBlockReference
  2
*X0
 10
0.0
 20
-110.0
 30
0.0
 41
-1.0
 50
90.0
1001
ACAD
1000
HATCH
1002
{
1070
    16
1000
DASH
1040
25.0
1040
2.007129
1002
}
  0
LWPOLYLINE
  5
F8
100
AcDbEntity
  8
STALPROFIL
100
AcDbPolyline
 90
        8
 70
     1
 43
1.8
 10
-23.2
 20
-45.9
 42
0.414214
 10
-24.1
 20
-46.8
 10
-24.1
 20
-63.2
 42
0.414214
 10
-23.2
 20
-64.1
 10
23.2
 20
-64.1
 42
0.414214
 10
24.1
 20
-63.2
 10
24.1
 20
-46.8
 42
0.414214
 10
23.2
 20
-45.9
  0
LWPOLYLINE
  5
F9
100
AcDbEntity
  8
SPKONTUR
100
AcDbPolyline
 90
        8
 70
     1
 43
0.0
 10
-23.2
 20
-45.0
 42
0.414214
 10
-25.0
 20
-46.8
 10
-25.0
 20
-63.2
 42
0.414214
 10
-23.2
 20
-65.0
 10
23.2
 20
-65.0
 42
0.414214
 10
25.0
 20
-63.2
 10
25.0
 20
-46.8
 42
0.414214
 10
23.2
 20
-45.0
  0
ENDBLK
  5
FB
100
AcDbEntity
  8
0
100
AcDbBlockEnd
  0
ENDSEC
  0
SECTION
  2
ENTITIES
  0
LWPOLYLINE
  5
1E
100
AcDbEntity
  8
RAM
 62
     5
100
AcDbPolyline
 90
        4
 70
     1
 43
0.0
 10
-20.0
 20
35.0
 10
-20.0
 20
560.0
 10
-380.0
 20
560.0
 10
-380.0
 20
35.0
  0
INSERT
  5
20
100
AcDbEntity
  8
GLAS_MED_FOGNING
100
AcDbBlockReference
  2
110_SP711020
 10
-325.0
 20
235.0
 30
0.0
  0
INSERT
  5
C9
100
AcDbEntity
  8
GLAS_MED_FOGNING
100
AcDbBlockReference
  2
110_SP711021
 10
-215.0
 20
235.0
 30
0.0
  0
TEXT
  5
D8
100
AcDbEntity
  8
0
  6
BYBLOCK
 62
     6
100
AcDbText
 10
-339.251455
 20
132.52
 30
0.0
 40
4.2
  1
%%uSP 711020
 41
0.8
  7
ROMANS
 72
     4
 11
-325.183455
 21
134.2
 31
0.0
100
AcDbText
  0
TEXT
  5
DA
100
AcDbEntity
  8
0
  6
BYBLOCK
 62
     6
100
AcDbText
 10
-229.239455
 20
132.52
 30
0.0
 40
4.2
  1
%%uSP 711021
 41
0.8
  7
ROMANS
 72
     4
 11
-215.183455
 21
134.2
 31
0.0
100
AcDbText
  0
TEXT
  5
DB
100
AcDbEntity
  8
TEXT
100
AcDbText
 10
-85.92381
 20
40.0
 30
0.0
 40
5.0
  1
SP 79000  %%UPAGE29
 41
0.8
  7
ROMANS
 72
     2
 11
-25.0
 21
40.0
 31
0.0
100
AcDbText
  0
TEXT
  5
DD
100
AcDbEntity
  8
TEXT
100
AcDbText
 10
-92.780952
 20
25.0
 30
0.0
 40
5.0
  1
File name %%U790PAGE29
 41
0.8
  7
ROMANS
 72
     2
 11
-25.0
 21
25.0
 31
0.0
100
AcDbText
  0
INSERT
  5
DE
100
AcDbEntity
  8
GLAS_MED_FOGNING
100
AcDbBlockReference
  2
110_SP711022
 10
-80.0
 20
235.0
 30
0.0
  0
TEXT
  5
FC
100
AcDbEntity
  8
0
  6
BYBLOCK
 62
     6
100
AcDbText
 10
-94.251455
 20
132.52
 30
0.0
 40
4.2
  1
%%uSP 711022
 41
0.8
  7
ROMANS
 72
     4
 11
-80.183455
 21
134.2
 31
0.0
100
AcDbText
  0
ENDSEC
  0
SECTION
  2
OBJECTS
  0
DICTIONARY
  5
1A
100
AcDbDictionary
  3
ACAD_GROUP
350
18
  3
ACAD_LAYOUT
350
106
  3
ACAD_MLINESTYLE
350
19
  3
ACAD_PLOTSETTINGS
350
107
  3
ACAD_PLOTSTYLENAME
350
104
  3
ACDBHEADERROUNDTRIPXREC
350
110
  0
DICTIONARY
  5
10E
100
AcDbDictionary
280
     1
  3
ACAD_XREC_ROUNDTRIP
360
10F
  0
DICTIONARY
  5
130
100
AcDbDictionary
280
     1
  3
ACAD_LAYOUTSELFREF
360
131
  0
DICTIONARY
  5
132
100
AcDbDictionary
280
     1
  3
ACAD_LAYOUTSELFREF
360
133
  0
DICTIONARY
  5
18
102
{ACAD_REACTORS
330
1A
102
}
100
AcDbDictionary
  0
DICTIONARY
  5
106
102
{ACAD_XDICTIONARY
360
139
102
}
102
{ACAD_REACTORS
330
1A
102
}
100
AcDbDictionary
  3
LAYOUT1
350
109
  3
MODEL
350
108
  0
DICTIONARY
  5
19
102
{ACAD_REACTORS
330
1A
102
}
100
AcDbDictionary
  3
STANDARD
350
1C
  0
DICTIONARY
  5
107
102
{ACAD_REACTORS
330
1A
102
}
100
AcDbDictionary
  0
ACAD_PROXY_OBJECT
  5
104
102
{ACAD_REACTORS
330
1A
102
}
100
AcDbProxyObject
 90
      499
 91
      501
 93
       86
310
405010041939BDC9B585B1
350
105
340
105
 94
        0
  0
DICTIONARY
  5
110
102
{ACAD_REACTORS
330
1A
102
}
100
AcDbDictionary
  3
CEPSNTYPE
350
11A
  3
FINGERPRINTGUID
350
11B
  3
HYPERLINKBASE
350
113
  3
INSUNITS
350
119
  3
LAYOUTDICT
350
115
  3
LWETCUNION
350
118
  3
PLOTSETDICT
350
116
  3
PLOTSTYLNAMDICT
350
117
  3
PSVPSCALE
350
11D
  3
PUCSBASE
350
120
  3
PUCSORGBACK
350
126
  3
PUCSORGBOTTOM
350
122
  3
PUCSORGFRONT
350
125
  3
PUCSORGLEFT
350
123
  3
PUCSORGRIGHT
350
124
  3
PUCSORGTOP
350
121
  3
PUCSORTHOREF
350
11E
  3
PUCSORTHOVIEW
350
11F
  3
STYLESHEET
350
114
  3
TSTACKALIGN
350
111
  3
TSTACKSIZE
350
112
  3
UCSBASE
350
129
  3
UCSORGBACK
350
12F
  3
UCSORGBOTTOM
350
12B
  3
UCSORGFRONT
350
12E
  3
UCSORGLEFT
350
12C
  3
UCSORGRIGHT
350
12D
  3
UCSORGTOP
350
12A
  3
UCSORTHOREF
350
127
  3
UCSORTHOVIEW
350
128
  3
VERSIONGUID
350
11C
  0
XRECORD
  5
10F
102
{ACAD_REACTORS
330
10E
102
}
100
AcDbXrecord
102
EXTNAMES
  1
*ACTIVE
  2
*Active
102
UCS
 74
     0
 71
     1
 10
0.0
 20
0.0
 30
0.0
 10
1.0
 20
0.0
 30
0.0
 10
0.0
 20
1.0
 30
0.0
146
0.0
 79
     0
102
VIEW
281
     0
  0
XRECORD
  5
131
102
{ACAD_REACTORS
330
130
102
}
100
AcDbXrecord
340
2
  0
XRECORD
  5
133
102
{ACAD_REACTORS
330
132
102
}
100
AcDbXrecord
340
7
  0
DICTIONARY
  5
139
100
AcDbDictionary
280
     1
  3
ACAD_XREC_ROUNDTRIP
360
13A
  0
ACAD_PROXY_OBJECT
  5
109
102
{ACAD_REACTORS
330
106
102
}
100
AcDbProxyObject
 90
      499
 91
      503
 93
     1092
310
91D4850204C617365724A65742034562F344D5620506F73745363726970742C00AAAAAA416AA591069074C61796F75743140501A800000000000000000000000000000000000000000101E900000000000241C902A6A6A10232D5E076BC5510408CB5781DAF154410232D5E076BC5510408CB5781DAF15C410232D5E076BC5
310
710408CB5781DAF15C40
330
7
330
0
340
0
340
0
 94
        0
  0
ACAD_PROXY_OBJECT
  5
108
102
{ACAD_REACTORS
330
106
102
}
100
AcDbProxyObject
 90
      499
 91
      503
 93
      668
310
91D4850204C617365724A65742034562F344D5620506F73745363726970742C01AAAAAAAAA5A69054D6F64656C901A800000000000000000000000000000000000000000000A1000000000000008902A6A6AAAA9
330
2
330
0
340
0
340
0
 94
        0
  0
MLINESTYLE
  5
1C
102
{ACAD_REACTORS
330
19
102
}
100
AcDbMlineStyle
  2
STANDARD
 70
     0
  3

 62
     0
 51
90.0
 52
90.0
 71
     2
 49
0.5
 62
   256
  6
BYLAYER
 49
-0.5
 62
   256
  6
BYLAYER
  0
ACAD_PROXY_OBJECT
  5
105
102
{ACAD_REACTORS
330
104
102
}
100
AcDbProxyObject
 90
      499
 91
      502
 93
        0
 94
        0
  0
XRECORD
  5
11A
102
{ACAD_REACTORS
330
110
102
}
100
AcDbXrecord
 90
        0
  0
XRECORD
  5
11B
102
{ACAD_REACTORS
330
110
102
}
100
AcDbXrecord
  1
{DCFA09C5-0BE8-11D6-AA0B-00D0B7E2A69D}
  0
XRECORD
  5
113
102
{ACAD_REACTORS
330
110
102
}
100
AcDbXrecord
  1

  0
XRECORD
  5
119
102
{ACAD_REACTORS
330
110
102
}
100
AcDbXrecord
 90
        0
  0
XRECORD
  5
115
102
{ACAD_REACTORS
330
110
102
}
100
AcDbXrecord
340
106
  0
XRECORD
  5
118
102
{ACAD_REACTORS
330
110
102
}
100
AcDbXrecord
 90
    14877
  0
XRECORD
  5
116
102
{ACAD_REACTORS
330
110
102
}
100
AcDbXrecord
340
107
  0
XRECORD
  5
117
102
{ACAD_REACTORS
330
110
102
}
100
AcDbXrecord
340
104
  0
XRECORD
  5
11D
102
{ACAD_REACTORS
330
110
102
}
100
AcDbXrecord
 40
0.0
  0
XRECORD
  5
120
102
{ACAD_REACTORS
330
110
102
}
100
AcDbXrecord
340
0
  0
XRECORD
  5
126
102
{ACAD_REACTORS
330
110
102
}
100
AcDbXrecord
 10
0.0
 20
0.0
 30
0.0
  0
XRECORD
  5
122
102
{ACAD_REACTORS
330
110
102
}
100
AcDbXrecord
 10
0.0
 20
0.0
 30
0.0
  0
XRECORD
  5
125
102
{ACAD_REACTORS
330
110
102
}
100
AcDbXrecord
 10
0.0
 20
0.0
 30
0.0
  0
XRECORD
  5
123
102
{ACAD_REACTORS
330
110
102
}
100
AcDbXrecord
 10
0.0
 20
0.0
 30
0.0
  0
XRECORD
  5
124
102
{ACAD_REACTORS
330
110
102
}
100
AcDbXrecord
 10
0.0
 20
0.0
 30
0.0
  0
XRECORD
  5
121
102
{ACAD_REACTORS
330
110
102
}
100
AcDbXrecord
 10
0.0
 20
0.0
 30
0.0
  0
XRECORD
  5
11E
102
{ACAD_REACTORS
330
110
102
}
100
AcDbXrecord
340
0
  0
XRECORD
  5
11F
102
{ACAD_REACTORS
330
110
102
}
100
AcDbXrecord
 70
     0
  0
XRECORD
  5
114
102
{ACAD_REACTORS
330
110
102
}
100
AcDbXrecord
  1

  0
XRECORD
  5
111
102
{ACAD_REACTORS
330
110
102
}
100
AcDbXrecord
 90
        1
  0
XRECORD
  5
112
102
{ACAD_REACTORS
330
110
102
}
100
AcDbXrecord
 90
       70
  0
XRECORD
  5
129
102
{ACAD_REACTORS
330
110
102
}
100
AcDbXrecord
340
0
  0
XRECORD
  5
12F
102
{ACAD_REACTORS
330
110
102
}
100
AcDbXrecord
 10
0.0
 20
0.0
 30
0.0
  0
XRECORD
  5
12B
102
{ACAD_REACTORS
330
110
102
}
100
AcDbXrecord
 10
0.0
 20
0.0
 30
0.0
  0
XRECORD
  5
12E
102
{ACAD_REACTORS
330
110
102
}
100
AcDbXrecord
 10
0.0
 20
0.0
 30
0.0
  0
XRECORD
  5
12C
102
{ACAD_REACTORS
330
110
102
}
100
AcDbXrecord
 10
0.0
 20
0.0
 30
0.0
  0
XRECORD
  5
12D
102
{ACAD_REACTORS
330
110
102
}
100
AcDbXrecord
 10
0.0
 20
0.0
 30
0.0
  0
XRECORD
  5
12A
102
{ACAD_REACTORS
330
110
102
}
100
AcDbXrecord
 10
0.0
 20
0.0
 30
0.0
  0
XRECORD
  5
127
102
{ACAD_REACTORS
330
110
102
}
100
AcDbXrecord
340
0
  0
XRECORD
  5
128
102
{ACAD_REACTORS
330
110
102
}
100
AcDbXrecord
 70
     0
  0
XRECORD
  5
11C
102
{ACAD_REACTORS
330
110
102
}
100
AcDbXrecord
  1
{DCFA09C7-0BE8-11D6-AA0B-00D0B7E2A69D}
  0
XRECORD
  5
13A
102
{ACAD_REACTORS
330
139
102
}
100
AcDbXrecord
102
EXTNAMES
  1
LAYOUT1
  2
Layout1
  1
MODEL
  2
Model
  0
ENDSEC
  0
EOF
