  0
SECTION
  2
HEADER
  9
$ACADVER
  1
AC1014
  9
$ACADMAINTVER
 70
     0
  9
$DWGCODEPAGE
  3
ANSI_1252
  9
$INSBASE
 10
-5.0
 20
20.0
 30
0.0
  9
$EXTMIN
 10
-380.0
 20
24.0
 30
0.0
  9
$EXTMAX
 10
-20.0
 20
560.0
 30
0.0
  9
$LIMMIN
 10
0.0
 20
0.0
  9
$LIMMAX
 10
840.0
 20
600.0
  9
$ORTHOMODE
 70
     0
  9
$REGENMODE
 70
     1
  9
$FILLMODE
 70
     1
  9
$QTEXTMODE
 70
     0
  9
$MIRRTEXT
 70
     1
  9
$DRAGMODE
 70
     2
  9
$LTSCALE
 40
5.0
  9
$OSMODE
 70
   547
  9
$ATTMODE
 70
     1
  9
$TEXTSIZE
 40
3.15
  9
$TRACEWID
 40
0.05
  9
$TEXTSTYLE
  7
STANDARD
  9
$CLAYER
  8
GLAS_MED_FOGNING
  9
$CELTYPE
  6
BYLAYER
  9
$CECOLOR
 62
   256
  9
$CELTSCALE
 40
1.0
  9
$DELOBJ
 70
     1
  9
$DISPSILH
 70
     0
  9
$DIMSCALE
 40
1.0
  9
$DIMASZ
 40
0.0
  9
$DIMEXO
 40
1.0
  9
$DIMDLI
 40
10.0
  9
$DIMRND
 40
0.0
  9
$DIMDLE
 40
0.0
  9
$DIMEXE
 40
2.0
  9
$DIMTP
 40
0.0
  9
$DIMTM
 40
0.0
  9
$DIMTXT
 40
3.5
  9
$DIMCEN
 40
2.5
  9
$DIMTSZ
 40
1.0
  9
$DIMTOL
 70
     0
  9
$DIMLIM
 70
     0
  9
$DIMTIH
 70
     0
  9
$DIMTOH
 70
     0
  9
$DIMSE1
 70
     0
  9
$DIMSE2
 70
     0
  9
$DIMTAD
 70
     1
  9
$DIMZIN
 70
     8
  9
$DIMBLK
  1

  9
$DIMASO
 70
     1
  9
$DIMSHO
 70
     1
  9
$DIMPOST
  1

  9
$DIMAPOST
  1

  9
$DIMALT
 70
     0
  9
$DIMALTD
 70
     2
  9
$DIMALTF
 40
25.4
  9
$DIMLFAC
 40
1.0
  9
$DIMTOFL
 70
     1
  9
$DIMTVP
 40
0.0
  9
$DIMTIX
 70
     0
  9
$DIMSOXD
 70
     0
  9
$DIMSAH
 70
     0
  9
$DIMBLK1
  1

  9
$DIMBLK2
  1

  9
$DIMSTYLE
  2
STANDARD
  9
$DIMCLRD
 70
     0
  9
$DIMCLRE
 70
     0
  9
$DIMCLRT
 70
     6
  9
$DIMTFAC
 40
1.0
  9
$DIMGAP
 40
0.1
  9
$DIMJUST
 70
     0
  9
$DIMSD1
 70
     0
  9
$DIMSD2
 70
     0
  9
$DIMTOLJ
 70
     1
  9
$DIMTZIN
 70
     0
  9
$DIMALTZ
 70
     0
  9
$DIMALTTZ
 70
     0
  9
$DIMFIT
 70
     3
  9
$DIMUPT
 70
     0
  9
$DIMUNIT
 70
     2
  9
$DIMDEC
 70
     4
  9
$DIMTDEC
 70
     4
  9
$DIMALTU
 70
     2
  9
$DIMALTTD
 70
     2
  9
$DIMTXSTY
  7
STANDARD
  9
$DIMAUNIT
 70
     0
  9
$LUNITS
 70
     2
  9
$LUPREC
 70
     2
  9
$SKETCHINC
 40
0.1
  9
$FILLETRAD
 40
0.5
  9
$AUNITS
 70
     0
  9
$AUPREC
 70
     4
  9
$MENU
  1
acad
  9
$ELEVATION
 40
0.0
  9
$PELEVATION
 40
0.0
  9
$THICKNESS
 40
0.0
  9
$LIMCHECK
 70
     0
  9
$BLIPMODE
 70
     0
  9
$CHAMFERA
 40
10.0
  9
$CHAMFERB
 40
10.0
  9
$CHAMFERC
 40
0.0
  9
$CHAMFERD
 40
0.0
  9
$SKPOLY
 70
     0
  9
$TDCREATE
 40
2450609.895398032
  9
$TDUPDATE
 40
2452293.530630440
  9
$TDINDWG
 40
0.0034416667
  9
$TDUSRTIMER
 40
0.0034416667
  9
$USRTIMER
 70
     1
  9
$ANGBASE
 50
0.0
  9
$ANGDIR
 70
     0
  9
$PDMODE
 70
    35
  9
$PDSIZE
 40
0.0
  9
$PLINEWID
 40
0.0
  9
$COORDS
 70
     1
  9
$SPLFRAME
 70
     0
  9
$SPLINETYPE
 70
     6
  9
$SPLINESEGS
 70
     8
  9
$ATTDIA
 70
     0
  9
$ATTREQ
 70
     1
  9
$HANDLING
 70
     1
  9
$HANDSEED
  5
350
  9
$SURFTAB1
 70
     6
  9
$SURFTAB2
 70
     6
  9
$SURFTYPE
 70
     6
  9
$SURFU
 70
     6
  9
$SURFV
 70
     6
  9
$UCSNAME
  2

  9
$UCSORG
 10
0.0
 20
0.0
 30
0.0
  9
$UCSXDIR
 10
1.0
 20
0.0
 30
0.0
  9
$UCSYDIR
 10
0.0
 20
1.0
 30
0.0
  9
$PUCSNAME
  2

  9
$PUCSORG
 10
0.0
 20
0.0
 30
0.0
  9
$PUCSXDIR
 10
1.0
 20
0.0
 30
0.0
  9
$PUCSYDIR
 10
0.0
 20
1.0
 30
0.0
  9
$USERI1
 70
     0
  9
$USERI2
 70
     0
  9
$USERI3
 70
     0
  9
$USERI4
 70
     0
  9
$USERI5
 70
     0
  9
$USERR1
 40
0.0
  9
$USERR2
 40
0.0
  9
$USERR3
 40
0.0
  9
$USERR4
 40
0.0
  9
$USERR5
 40
0.0
  9
$WORLDVIEW
 70
     1
  9
$SHADEDGE
 70
     3
  9
$SHADEDIF
 70
    70
  9
$TILEMODE
 70
     1
  9
$MAXACTVP
 70
    16
  9
$PINSBASE
 10
0.0
 20
0.0
 30
0.0
  9
$PLIMCHECK
 70
     0
  9
$PEXTMIN
 10
1.000000E+20
 20
1.000000E+20
 30
1.000000E+20
  9
$PEXTMAX
 10
-1.000000E+20
 20
-1.000000E+20
 30
-1.000000E+20
  9
$PLIMMIN
 10
0.0
 20
0.0
  9
$PLIMMAX
 10
420.0
 20
297.0
  9
$UNITMODE
 70
     0
  9
$VISRETAIN
 70
     0
  9
$PLINEGEN
 70
     0
  9
$PSLTSCALE
 70
     1
  9
$TREEDEPTH
 70
  3020
  9
$PICKSTYLE
 70
     1
  9
$CMLSTYLE
  2
STANDARD
  9
$CMLJUST
 70
     0
  9
$CMLSCALE
 40
1.0
  9
$PROXYGRAPHICS
 70
     1
  9
$MEASUREMENT
 70
     0
  0
ENDSEC
  0
SECTION
  2
CLASSES
  0
CLASS
  1
LWPOLYLINE
  2
AcDbPolyline
  3
"AutoCAD"
 90
        0
280
     0
281
     1
  0
CLASS
  1
ACDBDICTIONARYWDFLT
  2
AcDbDictionaryWithDefault
  3
AutoCAD 2000
 90
        0
280
     0
281
     0
  0
CLASS
  1
ACDBPLACEHOLDER
  2
AcDbPlaceHolder
  3
AutoCAD 2000
 90
        0
280
     0
281
     0
  0
CLASS
  1
LAYOUT
  2
AcDbLayout
  3
AutoCAD 2000
 90
        0
280
     0
281
     0
  0
CLASS
  1
LONG_TRANSACTION
  2
AcDbLongTransaction
  3
AutoCAD 2000
 90
        0
280
     0
281
     0
  0
CLASS
  1
LWPOLYLINE
  2
AcDbPolyline
  3
"AutoCAD"
 90
        0
280
     0
281
     1
  0
CLASS
  1
HATCH
  2
AcDbHatch
  3
"ACAD_SEDONA"
 90
        0
280
     0
281
     1
  0
CLASS
  1
XRECORD
  2
AcDbXrecord
  3
"<Built In>"
 90
        0
280
     0
281
     0
  0
ENDSEC
  0
SECTION
  2
TABLES
  0
TABLE
  2
VPORT
  5
12
100
AcDbSymbolTable
 70
     1
  0
VPORT
  5
31F
102
{ACAD_XDICTIONARY
360
320
102
}
100
AcDbSymbolTableRecord
100
AcDbViewportTableRecord
  2
*ACTIVE
 70
     0
 10
0.0
 20
0.0
 11
1.0
 21
1.0
 12
-109.004815
 22
303.622017
 13
0.0
 23
0.0
 14
5.0
 24
5.0
 15
10.0
 25
10.0
 16
0.0
 26
0.0
 36
1.0
 17
0.0
 27
0.0
 37
0.0
 40
557.507177
 41
1.630435
 42
50.0
 43
0.0
 44
0.0
 50
0.0
 51
0.0
 71
     0
 72
   100
 73
     1
 74
     1
 75
     1
 76
     0
 77
     0
 78
     0
  0
ENDTAB
  0
TABLE
  2
LTYPE
  5
D
100
AcDbSymbolTable
 70
     2
  0
LTYPE
  5
E
100
AcDbSymbolTableRecord
100
AcDbLinetypeTableRecord
  2
BYBLOCK
 70
     0
  3

 72
    65
 73
     0
 40
0.0
  0
LTYPE
  5
F
100
AcDbSymbolTableRecord
100
AcDbLinetypeTableRecord
  2
BYLAYER
 70
     0
  3

 72
    65
 73
     0
 40
0.0
  0
LTYPE
  5
5
100
AcDbSymbolTableRecord
100
AcDbLinetypeTableRecord
  2
CONTINUOUS
 70
     0
  3
Solid line
 72
    65
 73
     0
 40
0.0
  0
LTYPE
  5
21
100
AcDbSymbolTableRecord
100
AcDbLinetypeTableRecord
  2
DASHDOT
 70
     0
  3
__ . __ . __ . __ . __ . __ . __ . __ . __ . __
 72
    65
 73
     4
 40
1.0
 49
0.5
 74
     0
 49
-0.25
 74
     0
 49
0.0
 74
     0
 49
-0.25
 74
     0
  0
ENDTAB
  0
TABLE
  2
LAYER
  5
A
100
AcDbSymbolTable
 70
     6
  0
LAYER
  5
4
100
AcDbSymbolTableRecord
100
AcDbLayerTableRecord
  2
0
 70
     0
 62
     7
  6
CONTINUOUS
  0
LAYER
  5
27
100
AcDbSymbolTableRecord
100
AcDbLayerTableRecord
  2
STALPROFIL
 70
     0
 62
     1
  6
CONTINUOUS
  0
LAYER
  5
25
100
AcDbSymbolTableRecord
100
AcDbLayerTableRecord
  2
SPKONTUR
 70
     0
 62
     7
  6
CONTINUOUS
  0
LAYER
  5
1B
100
AcDbSymbolTableRecord
100
AcDbLayerTableRecord
  2
GLAS_MED_FOGNING
 70
     0
 62
     2
  6
CONTINUOUS
  0
LAYER
  5
2C9
100
AcDbSymbolTableRecord
100
AcDbLayerTableRecord
  2
TEXT
 70
     0
 62
     6
  6
CONTINUOUS
  0
LAYER
  5
1F
100
AcDbSymbolTableRecord
100
AcDbLayerTableRecord
  2
RAM
 70
     0
 62
     5
  6
CONTINUOUS
  0
ENDTAB
  0
TABLE
  2
STYLE
  5
B
100
AcDbSymbolTable
 70
     2
  0
STYLE
  5
C
100
AcDbSymbolTableRecord
100
AcDbTextStyleTableRecord
  2
STANDARD
 70
     0
 40
0.0
 41
1.0
 50
0.0
 71
     0
 42
5.0
  3
txt
  4

  0
STYLE
  5
2C3
100
AcDbSymbolTableRecord
100
AcDbTextStyleTableRecord
  2
ROMANS
 70
     0
 40
0.0
 41
0.8
 50
0.0
 71
     0
 42
5.0
  3
romans
  4

  0
ENDTAB
  0
TABLE
  2
VIEW
  5
10
100
AcDbSymbolTable
 70
     0
  0
ENDTAB
  0
TABLE
  2
UCS
  5
11
100
AcDbSymbolTable
 70
     0
  0
ENDTAB
  0
TABLE
  2
APPID
  5
14
100
AcDbSymbolTable
 70
     2
  0
APPID
  5
15
100
AcDbSymbolTableRecord
100
AcDbRegAppTableRecord
  2
ACAD
 70
     0
  0
APPID
  5
173
100
AcDbSymbolTableRecord
100
AcDbRegAppTableRecord
  2
CONTENTBLOCKICON
 70
     0
  0
ENDTAB
  0
TABLE
  2
DIMSTYLE
  5
16
100
AcDbSymbolTable
 70
     1
  0
DIMSTYLE
105
1D
100
AcDbSymbolTableRecord
100
AcDbDimStyleTableRecord
  2
STANDARD
 70
     0
  3

  4

  5

  6

  7

 40
1.0
 41
0.18
 42
0.0625
 43
0.38
 44
0.18
 45
0.0
 46
0.0
 47
0.0
 48
0.0
140
0.18
141
0.09
142
0.0
143
25.4
144
1.0
145
0.0
146
1.0
147
0.09
 71
     0
 72
     0
 73
     1
 74
     1
 75
     0
 76
     0
 77
     0
 78
     0
170
     0
171
     2
172
     0
173
     0
174
     0
175
     0
176
     0
177
     0
178
     0
270
     2
271
     4
272
     4
273
     2
274
     2
340
C
275
     0
280
     0
281
     0
282
     0
283
     1
284
     0
285
     0
286
     0
287
     3
288
     0
  0
ENDTAB
  0
TABLE
  2
BLOCK_RECORD
  5
1
100
AcDbSymbolTable
 70
     7
  0
BLOCK_RECORD
  5
2
102
{ACAD_XDICTIONARY
360
342
102
}
100
AcDbSymbolTableRecord
100
AcDbBlockTableRecord
  2
*MODEL_SPACE
  0
BLOCK_RECORD
  5
7
102
{ACAD_XDICTIONARY
360
344
102
}
100
AcDbSymbolTableRecord
100
AcDbBlockTableRecord
  2
*PAPER_SPACE
  0
BLOCK_RECORD
  5
2D1
100
AcDbSymbolTableRecord
100
AcDbBlockTableRecord
  2
*X0
  0
BLOCK_RECORD
  5
2D
100
AcDbSymbolTableRecord
100
AcDbBlockTableRecord
  2
*X1
  0
BLOCK_RECORD
  5
179
100
AcDbSymbolTableRecord
100
AcDbBlockTableRecord
  2
*X2
  0
BLOCK_RECORD
  5
2CC
100
AcDbSymbolTableRecord
100
AcDbBlockTableRecord
  2
SP76521_720_32
1001
CONTENTBLOCKICON
1071
        0
1004
2800000020000000200000000100040000000000000200000000000000000000000000000000000000000000000080000080000000808000800000008000800080800000C0C0C000808080000000FF0000FF000000FFFF00FF000000FF00FF00FFFF0000FFFFFF00FFFFFF0000000000000000000FFFFFFFFFFFFF9BBBBBBB
1004
BBB99999999FFFFFFFFFFFFFBFFFFBFBFBBFFFFFFFFFFFFFFFFFFFFFBBFBFFFBFBBFFFFFFFFFFFFFFFFFFFFFBFFFFBFFBFBFFFFFFFFFFFFFFFFFFFFFBBFBFFBFFFBFFFFFFFFFFFFFFFFFFFFFBFFFFFFFBFBFFFFFFFFFFFFFFFFFFFFFBFBFBFBFFFBFFFFFFFFFFFFFFFFFFFFFBFFFFFFFBFBFFFFFFFFFFFFFFFFFFFFFBFBFBF
1004
BFFFBFFFFFFFFFFFFFFFFFFFFFBFFFBFBFBBBFFFFFFFFFFFFFFFFFFFFFBFBFFBFBFFBFFFFFFFFFFFFFFFFFFFFFBFFFFFFFFBBFFFFFFFFFFFFFFFFFFFFFBFFFFBFBFFBFFFFFFFFFFFFFFFFFFFFFBBFBFFFFFBBFFFFFFFFFFFFFFFFFFFFFBFFFFBFBFFBFFFFFFFFFFFFFFFFFFFFFBBFBFFFFFFBFFFFFFFFFFFFFFFFFFFFF0BBB
1004
BBBBBBBFFFFFFFFFFFFFFFFFFFFF0FFFFFFFF90FFFFFFFFFFFFFFFFFFFFF0FFFFFFFF90FFFFFFFFFFFFFFFFFFFFF0FFFFFFFF90FFFFFFFFFFFFFFFFFFFFF0FFFFFFFF90FFFFFFFFFFFFFFFFFFFFF0FFFFFFFF90FFFFFFFFFFFFFFFFFFFFF0FFFFFFFF90FFFFFFFFFFFFFFFFFFFFF0FFFFFFFF90FFFFFFFFFFFFFFFFFFFFF0F
1004
FFFFFFF90FFFFFFFFFFFFFFFFFFFFF0FFFFFFFF90FFFFFFFFFFFFFFFFFFFFF0FFFFFFFF90FFFFFFFFFFFFFFFFFFFFF0FFFFFFFF90FFFFFFFFFFFFFFFFFFFFF0FFFFFFFF90FFFFFFFFFFFFFFFFFFFFF9FFFFFFFF90FFFFFFFFFFFFFFFFFFFFF0000000000FFFFFFFFFFFFFFFF
  0
BLOCK_RECORD
  5
304
100
AcDbSymbolTableRecord
100
AcDbBlockTableRecord
  2
SP76522_720_32
1001
CONTENTBLOCKICON
1071
        0
1004
2800000020000000200000000100040000000000000200000000000000000000000000000000000000000000000080000080000000808000800000008000800080800000C0C0C000808080000000FF0000FF000000FFFF00FF000000FF00FF00FFFF0000FFFFFF00F0000000000000000000000000000FFFF9999999999BBB
1004
BBBBBBB99999999FFFFFFFFFFFFFBFFFFBFFBFBFFFFFFFFFFFFFFFFFFFFFBBFBFFFFFFBFFFFFFFFFFFFFFFFFFFFFBBFFFFFFBFBFFFFFFFFFFFFFFFFFFFFFBFBFBFBFFFBFFFFFFFFFFFFFFFFFFFFFBFFFFFFFBFBFFFFFFFFFFFFFFFFFFFFFBFBFBFBFBFBFFFFFFFFFFFFFFFFFFFFFBFFFFFBFFBBFFFFFFFFFFFFFFFFFFFFFBF
1004
BFBFFBFFBFFFFFFFFFFFFFFFFFFFFFBFFFFFFFFBBFFFFFFFFFFFFFFFFFFFFFBFFBFBFBFFBFFFFFFFFFFFFFFFFFFFFFBBFFFFFFFBBFFFFFFFFFFFFFFFFFFFFFBFFFFBFBFFBFFFFFFFFFFFFFFFFFFFFFBBFBFBFBFBBFFFFFFFFFFFFFFFFFFFFFBFFBFFBFBFBFFFFFFFFFFFFFFFFFFFFFBBFFBFFFFFBFFFFFFFFFFFFFFFFFFFFF
1004
00000000000FFFFFFFFFFFFFFFFFFFFF0FFFFFFFF90FFFFFFFFFFFFFFFFFFFFF0FFFFFFFF90FFFFFFFFFFFFFFFFFFFFF0FFFFFFFF90FFFFFFFFFFFFFFFFFFFFF0FFFFFFFF90FFFFFFFFFFFFFFFFFFFFF0FFFFFFFF90FFFFFFFFFFFFFFFFFFFFF0FFFFFFFF90FFFFFFFFFFFFFFFFFFFFF0FFFFFFFF90FFFFFFFFFFFFFFFFFFF
1004
FF0FFFFFFFF90FFFFFFFFFFFFFFFFFFFFF0FFFFFFFF90FFFFFFFFFFFFFFFFFFFFF0FFFFFFFF90FFFFFFFFFFFFFFFFFFFFF0FFFFFFFF90FFFFFFFFFFFFFFFFFFFFF0FFFFFFFF90FFFFFFFFFFFFFFFFFFFFF9FFFFFFFF90FFFFFFFFFFFFFFFFFFFFFF0000000090FFFFFFFFFFF
  0
BLOCK_RECORD
  5
23
100
AcDbSymbolTableRecord
100
AcDbBlockTableRecord
  2
SP76521_7180_32
1001
CONTENTBLOCKICON
1071
        0
1004
2800000020000000200000000100040000000000000200000000000000000000000000000000000000000000000080000080000000808000800000008000800080800000C0C0C000808080000000FF0000FF000000FFFF00FF000000FF00FF00FFFF0000FFFFFF00FFFFFFFFFFFFFFFFFFFFFFFFFFFFFFFFFFFFFFFFFFFFFF
1004
FFFFFFFFFFFFFFFFFFFFFFFFFFFFFFFFFFFFFFFFFFFFFFFFFFFFFFFFFFFFFFFFFFFFFFFFFFFFFFFFFFFFFFFFFFFFFFFFFFFFFFFFFFFFFFFFFFFFFFFFFFFFFFFFFFFFFFFFFFFFFFFFFFFFFFFFFFFFFFFFFFFFFFFFFFFFFFFFFFFFFFFFFFFFFFFFFFFFFFFFFFFFFFFFFFFFFFFFFFFFFFFFFFFFFFFFFFFFFFFFFFFFFFFFFFFFFF
1004
FFFFFFFFFFFFFFFFFFFFFFFFFFFFFFFFFFFFFFFFFFFFFFFFFFFFBBBBBBBBBBBBBBBBBBBBBBBBBBBBB00FBBBBBBBBBBBBBBBBBBBBBBBBBBBBBFFFBBBBBBBBBBBBBBBBBBBBBBBBBBBBBFFFBBBBBBBBBBBBBBBBBBBBBBBBBBBBBFFFBBBBBBBBBBBBBBBBBBBBBBBBBBBBBFFFB00BBBBBBBBBBBBBBBBBBBBBBBBBBFFF99FFFFFFFF
1004
FFFFFFFFFFFFFFFF990FFF0FFFFFFFFFFFFFFFFFFFFFFFFFFF0FFF0FFFFFFFFFFFFFFFFFFFFFFFFFFF0FFF0FFFFFFFFFFFFFFFFFFFFFFFFFFF0FFF00000000000000000000000000000FFFFFFFFFFFFFFFFFFFFFFFFFFFFFFFFFFFFFFFFFFFFFFFFFFFFFFFFFFFFFFFFFFFFFFFFFFFFFFFFFFFFFFFFFFFFFFFFFFFFFFFFFFF
1004
FFFFFFFFFFFFFFFFFFFFFFFFFFFFFFFFFFFFFFFFFFFFFFFFFFFFFFFFFFFFFFFFFFFFFFFFFFFFFFFFFFFFFFFFFFFFFFFFFFFFFFFFFFFFFFFFFFFFFFFFFFFFFFFFFFFFFFFFFFFFFFFFFFFFFFFFFFFFFFFFFFFFFFFFFFFFFFFFFFFFFFFFFFFFFFFFFFFFFFFFFFFFFFFFFFFFFFFF
  0
BLOCK_RECORD
  5
175
100
AcDbSymbolTableRecord
100
AcDbBlockTableRecord
  2
SP76522_7180_32
1001
CONTENTBLOCKICON
1071
        0
1004
2800000020000000200000000100040000000000000200000000000000000000000000000000000000000000000080000080000000808000800000008000800080800000C0C0C000808080000000FF0000FF000000FFFF00FF000000FF00FF00FFFF0000FFFFFF00FFFFFFFFFFFFFFFFFFFFFFFFFFFFFFFFFFFFFFFFFFFFFF
1004
FFFFFFFFFFFFFFFFFFFFFFFFFFFFFFFFFFFFFFFFFFFFFFFFFFFFFFFFFFFFFFFFFFFFFFFFFFFFFFFFFFFFFFFFFFFFFFFFFFFFFFFFFFFFFFFFFFFFFFFFFFFFFFFFFFFFFFFFFFFFFFFFFFFFFFFFFFFFFFFFFFFFFFFFFFFFFFFFFFFFFFFFFFFFFFFFFFFFFFFFFFFFFFFFFFFFFFFFFFFFFFFFFFFFFFFFFFFFFFFFFFFFFFFFFFFFFF
1004
FFFFFFFFFFFFFFFFFFFFFFFFFFFFFFFFFFFFFFFFFFFFFFFFFFFF0000000000000000000000000000000FFFFBBBBBBBBBBBBBBBBBBBBBBBBBBFFFFFFBBBBBBBBBBBBBBBBBBBBBBBBBBFFFFFFBBBBBBBBBBBBBBBBBBBBBBBBBBFFFFFFBBBBBBBBBBBBBBBBBBBBBBBBBBFFFFFFB00BBBBBBBBBBBBBBBBBBBBBB9FFFFFF0FFFFFF
1004
FFFFFFFFFFFFFFFFFF0FFFFFF0FFFFFFFFFFFFFFFFFFFFFFFF0FFFFFF0FFFFFFFFFFFFFFFFFFFFFFFF0FFFFFF90000000000000000000000009FFFFFFFFFFFFFFFFFFFFFFFFFFFFFFFFFFFFFFFFFFFFFFFFFFFFFFFFFFFFFFFFFFFFFFFFFFFFFFFFFFFFFFFFFFFFFFFFFFFFFFFFFFFFFFFFFFFFFFFFFFFFFFFFFFFFFFFFFFF
1004
FFFFFFFFFFFFFFFFFFFFFFFFFFFFFFFFFFFFFFFFFFFFFFFFFFFFFFFFFFFFFFFFFFFFFFFFFFFFFFFFFFFFFFFFFFFFFFFFFFFFFFFFFFFFFFFFFFFFFFFFFFFFFFFFFFFFFFFFFFFFFFFFFFFFFFFFFFFFFFFFFFFFFFFFFFFFFFFFFFFFFFFFFFFFFFFFFFFFFFFFFFFFFFFFFFFFFFFF
  0
ENDTAB
  0
ENDSEC
  0
SECTION
  2
BLOCKS
  0
BLOCK
  5
3
100
AcDbEntity
  8
0
100
AcDbBlockBegin
  2
*MODEL_SPACE
 70
     0
 10
0.0
 20
0.0
 30
0.0
  3
*MODEL_SPACE
  1

  0
ENDBLK
  5
6
100
AcDbEntity
  8
0
100
AcDbBlockEnd
  0
BLOCK
  5
8
100
AcDbEntity
 67
     1
  8
0
100
AcDbBlockBegin
  2
*PAPER_SPACE
 70
     0
 10
0.0
 20
0.0
 30
0.0
  3
*PAPER_SPACE
  1

  0
ENDBLK
  5
9
100
AcDbEntity
 67
     1
  8
0
100
AcDbBlockEnd
  0
BLOCK
  5
2F9
100
AcDbEntity
  8
0
100
AcDbBlockBegin
  2
*X0
 70
     1
 10
0.0
 20
0.0
 30
0.0
  3
*X0
  1
RITRAM
  0
LINE
  5
2D2
100
AcDbEntity
  8
0
 62
     0
100
AcDbLine
 10
283.676022
 20
-121.821241
 30
0.0
 11
281.116172
 21
-123.613667
 31
0.0
  0
LINE
  5
2D3
100
AcDbEntity
  8
0
 62
     0
100
AcDbLine
 10
278.556321
 20
-125.406093
 30
0.0
 11
275.996471
 21
-127.19852
 31
0.0
  0
LINE
  5
2D4
100
AcDbEntity
  8
0
 62
     0
100
AcDbLine
 10
273.436621
 20
-128.990946
 30
0.0
 11
270.876771
 21
-130.783373
 31
0.0
  0
LINE
  5
2D5
100
AcDbEntity
  8
0
 62
     0
100
AcDbLine
 10
268.316921
 20
-132.575799
 30
0.0
 11
265.757071
 21
-134.368225
 31
0.0
  0
LINE
  5
2D6
100
AcDbEntity
  8
0
 62
     0
100
AcDbLine
 10
282.908598
 20
-126.173517
 30
0.0
 11
280.348748
 21
-127.965944
 31
0.0
  0
LINE
  5
2D7
100
AcDbEntity
  8
0
 62
     0
100
AcDbLine
 10
277.788898
 20
-129.75837
 30
0.0
 11
275.229048
 21
-131.550796
 31
0.0
  0
LINE
  5
2D8
100
AcDbEntity
  8
0
 62
     0
100
AcDbLine
 10
272.669197
 20
-133.343223
 30
0.0
 11
270.109347
 21
-135.135649
 31
0.0
  0
LINE
  5
2D9
100
AcDbEntity
  8
0
 62
     0
100
AcDbLine
 10
267.549497
 20
-136.928075
 30
0.0
 11
265.0
 21
-138.713253
 31
0.0
  0
LINE
  5
2DA
100
AcDbEntity
  8
0
 62
     0
100
AcDbLine
 10
285.0
 20
-128.524022
 30
0.0
 11
284.701024
 21
-128.733367
 31
0.0
  0
LINE
  5
2DB
100
AcDbEntity
  8
0
 62
     0
100
AcDbLine
 10
282.141174
 20
-130.525794
 30
0.0
 11
279.581324
 21
-132.31822
 31
0.0
  0
LINE
  5
2DC
100
AcDbEntity
  8
0
 62
     0
100
AcDbLine
 10
277.021474
 20
-134.110646
 30
0.0
 11
274.461624
 21
-135.903073
 31
0.0
  0
LINE
  5
2DD
100
AcDbEntity
  8
0
 62
     0
100
AcDbLine
 10
271.901774
 20
-137.695499
 30
0.0
 11
269.341923
 21
-139.487926
 31
0.0
  0
LINE
  5
2DE
100
AcDbEntity
  8
0
 62
     0
100
AcDbLine
 10
266.782073
 20
-141.280352
 30
0.0
 11
265.0
 21
-142.528173
 31
0.0
  0
LINE
  5
2DF
100
AcDbEntity
  8
0
 62
     0
100
AcDbLine
 10
285.0
 20
-132.338943
 30
0.0
 11
283.933601
 21
-133.085644
 31
0.0
  0
LINE
  5
2E0
100
AcDbEntity
  8
0
 62
     0
100
AcDbLine
 10
281.37375
 20
-134.87807
 30
0.0
 11
278.8139
 21
-136.670497
 31
0.0
  0
LINE
  5
2E1
100
AcDbEntity
  8
0
 62
     0
100
AcDbLine
 10
276.25405
 20
-138.462923
 30
0.0
 11
273.6942
 21
-140.255349
 31
0.0
  0
LINE
  5
2E2
100
AcDbEntity
  8
0
 62
     0
100
AcDbLine
 10
271.13435
 20
-142.047776
 30
0.0
 11
268.5745
 21
-143.840202
 31
0.0
  0
LINE
  5
2E3
100
AcDbEntity
  8
0
 62
     0
100
AcDbLine
 10
285.0
 20
-136.153864
 30
0.0
 11
283.166177
 21
-137.43792
 31
0.0
  0
LINE
  5
2E4
100
AcDbEntity
  8
0
 62
     0
100
AcDbLine
 10
280.606327
 20
-139.230347
 30
0.0
 11
278.046477
 21
-141.022773
 31
0.0
  0
LINE
  5
2E5
100
AcDbEntity
  8
0
 62
     0
100
AcDbLine
 10
275.486626
 20
-142.815199
 30
0.0
 11
272.926776
 21
-144.607626
 31
0.0
  0
LINE
  5
2E6
100
AcDbEntity
  8
0
 62
     0
100
AcDbLine
 10
284.958603
 20
-139.997771
 30
0.0
 11
282.398753
 21
-141.790197
 31
0.0
  0
LINE
  5
2E7
100
AcDbEntity
  8
0
 62
     0
100
AcDbLine
 10
279.838903
 20
-143.582623
 30
0.0
 11
277.814679
 21
-145.0
 31
0.0
  0
LINE
  5
2E8
100
AcDbEntity
  8
0
 62
     0
100
AcDbLine
 10
284.191179
 20
-144.350047
 30
0.0
 11
283.26295
 21
-145.0
 31
0.0
  0
LINE
  5
2E9
100
AcDbEntity
  8
0
 62
     0
100
AcDbLine
 10
284.443446
 20
-117.468964
 30
0.0
 11
281.883595
 21
-119.261391
 31
0.0
  0
LINE
  5
2EA
100
AcDbEntity
  8
0
 62
     0
100
AcDbLine
 10
279.323745
 20
-121.053817
 30
0.0
 11
276.763895
 21
-122.846243
 31
0.0
  0
LINE
  5
2EB
100
AcDbEntity
  8
0
 62
     0
100
AcDbLine
 10
274.204045
 20
-124.63867
 30
0.0
 11
271.644195
 21
-126.431096
 31
0.0
  0
LINE
  5
2EC
100
AcDbEntity
  8
0
 62
     0
100
AcDbLine
 10
269.084345
 20
-128.223522
 30
0.0
 11
266.524495
 21
-130.015949
 31
0.0
  0
LINE
  5
2ED
100
AcDbEntity
  8
0
 62
     0
100
AcDbLine
 10
285.0
 20
-113.26434
 30
0.0
 11
282.651019
 21
-114.909114
 31
0.0
  0
LINE
  5
2EE
100
AcDbEntity
  8
0
 62
     0
100
AcDbLine
 10
280.091169
 20
-116.70154
 30
0.0
 11
277.531319
 21
-118.493967
 31
0.0
  0
LINE
  5
2EF
100
AcDbEntity
  8
0
 62
     0
100
AcDbLine
 10
274.971469
 20
-120.286393
 30
0.0
 11
272.411619
 21
-122.07882
 31
0.0
  0
LINE
  5
2F0
100
AcDbEntity
  8
0
 62
     0
100
AcDbLine
 10
269.851768
 20
-123.871246
 30
0.0
 11
267.291918
 21
-125.663672
 31
0.0
  0
LINE
  5
2F1
100
AcDbEntity
  8
0
 62
     0
100
AcDbLine
 10
279.929245
 20
-113.0
 30
0.0
 11
278.298743
 21
-114.14169
 31
0.0
  0
LINE
  5
2F2
100
AcDbEntity
  8
0
 62
     0
100
AcDbLine
 10
275.738893
 20
-115.934117
 30
0.0
 11
273.179042
 21
-117.726543
 31
0.0
  0
LINE
  5
2F3
100
AcDbEntity
  8
0
 62
     0
100
AcDbLine
 10
270.619192
 20
-119.518969
 30
0.0
 11
268.059342
 21
-121.311396
 31
0.0
  0
LINE
  5
2F4
100
AcDbEntity
  8
0
 62
     0
100
AcDbLine
 10
265.499492
 20
-123.103822
 30
0.0
 11
265.0
 21
-123.45357
 31
0.0
  0
LINE
  5
2F5
100
AcDbEntity
  8
0
 62
     0
100
AcDbLine
 10
274.480974
 20
-113.0
 30
0.0
 11
273.946466
 21
-113.374267
 31
0.0
  0
LINE
  5
2F6
100
AcDbEntity
  8
0
 62
     0
100
AcDbLine
 10
271.386616
 20
-115.166693
 30
0.0
 11
268.826766
 21
-116.959119
 31
0.0
  0
LINE
  5
2F7
100
AcDbEntity
  8
0
 62
     0
100
AcDbLine
 10
266.266916
 20
-118.751546
 30
0.0
 11
265.0
 21
-119.63865
 31
0.0
  0
LINE
  5
2F8
100
AcDbEntity
  8
0
 62
     0
100
AcDbLine
 10
267.03434
 20
-114.399269
 30
0.0
 11
265.0
 21
-115.823729
 31
0.0
  0
ENDBLK
  5
2FA
100
AcDbEntity
  8
0
100
AcDbBlockEnd
  0
BLOCK
  5
16A
100
AcDbEntity
  8
0
100
AcDbBlockBegin
  2
*X1
 70
     1
 10
0.0
 20
0.0
 30
0.0
  3
*X1
  1

  0
LINE
  5
2E
100
AcDbEntity
  8
0
 62
     0
100
AcDbLine
 10
-223.446668
 20
370.0
 30
0.0
 11
-224.316187
 21
369.391156
 31
0.0
  0
LINE
  5
2F
100
AcDbEntity
  8
0
 62
     0
100
AcDbLine
 10
-226.876037
 20
367.59873
 30
0.0
 11
-229.435887
 21
365.806304
 31
0.0
  0
LINE
  5
30
100
AcDbEntity
  8
0
 62
     0
100
AcDbLine
 10
-231.995737
 20
364.013877
 30
0.0
 11
-234.555587
 21
362.221451
 31
0.0
  0
LINE
  5
31
100
AcDbEntity
  8
0
 62
     0
100
AcDbLine
 10
-237.115438
 20
360.429025
 30
0.0
 11
-239.675288
 21
358.636598
 31
0.0
  0
LINE
  5
32
100
AcDbEntity
  8
0
 62
     0
100
AcDbLine
 10
-242.235138
 20
356.844172
 30
0.0
 11
-244.794988
 21
355.051745
 31
0.0
  0
LINE
  5
33
100
AcDbEntity
  8
0
 62
     0
100
AcDbLine
 10
-247.354838
 20
353.259319
 30
0.0
 11
-249.914688
 21
351.466893
 31
0.0
  0
LINE
  5
34
100
AcDbEntity
  8
0
 62
     0
100
AcDbLine
 10
-252.474538
 20
349.674466
 30
0.0
 11
-255.034389
 21
347.88204
 31
0.0
  0
LINE
  5
35
100
AcDbEntity
  8
0
 62
     0
100
AcDbLine
 10
-257.594239
 20
346.089614
 30
0.0
 11
-260.154089
 21
344.297187
 31
0.0
  0
LINE
  5
36
100
AcDbEntity
  8
0
 62
     0
100
AcDbLine
 10
-262.713939
 20
342.504761
 30
0.0
 11
-265.273789
 21
340.712335
 31
0.0
  0
LINE
  5
37
100
AcDbEntity
  8
0
 62
     0
100
AcDbLine
 10
-267.833639
 20
338.919908
 30
0.0
 11
-269.147404
 21
338.0
 31
0.0
  0
LINE
  5
38
100
AcDbEntity
  8
0
 62
     0
100
AcDbLine
 10
-217.998397
 20
370.0
 30
0.0
 11
-219.96391
 21
368.623733
 31
0.0
  0
LINE
  5
39
100
AcDbEntity
  8
0
 62
     0
100
AcDbLine
 10
-222.523761
 20
366.831306
 30
0.0
 11
-225.083611
 21
365.03888
 31
0.0
  0
LINE
  5
3A
100
AcDbEntity
  8
0
 62
     0
100
AcDbLine
 10
-227.643461
 20
363.246454
 30
0.0
 11
-230.203311
 21
361.454027
 31
0.0
  0
LINE
  5
3B
100
AcDbEntity
  8
0
 62
     0
100
AcDbLine
 10
-232.763161
 20
359.661601
 30
0.0
 11
-235.323011
 21
357.869174
 31
0.0
  0
LINE
  5
3C
100
AcDbEntity
  8
0
 62
     0
100
AcDbLine
 10
-237.882861
 20
356.076748
 30
0.0
 11
-240.442712
 21
354.284322
 31
0.0
  0
LINE
  5
3D
100
AcDbEntity
  8
0
 62
     0
100
AcDbLine
 10
-243.002562
 20
352.491895
 30
0.0
 11
-245.562412
 21
350.699469
 31
0.0
  0
LINE
  5
3E
100
AcDbEntity
  8
0
 62
     0
100
AcDbLine
 10
-248.122262
 20
348.907043
 30
0.0
 11
-250.682112
 21
347.114616
 31
0.0
  0
LINE
  5
3F
100
AcDbEntity
  8
0
 62
     0
100
AcDbLine
 10
-253.241962
 20
345.32219
 30
0.0
 11
-255.801812
 21
343.529764
 31
0.0
  0
LINE
  5
40
100
AcDbEntity
  8
0
 62
     0
100
AcDbLine
 10
-258.361663
 20
341.737337
 30
0.0
 11
-260.921513
 21
339.944911
 31
0.0
  0
LINE
  5
41
100
AcDbEntity
  8
0
 62
     0
100
AcDbLine
 10
-263.481363
 20
338.152484
 30
0.0
 11
-263.699133
 21
338.0
 31
0.0
  0
LINE
  5
42
100
AcDbEntity
  8
0
 62
     0
100
AcDbLine
 10
-213.051784
 20
369.648735
 30
0.0
 11
-215.611634
 21
367.856309
 31
0.0
  0
LINE
  5
43
100
AcDbEntity
  8
0
 62
     0
100
AcDbLine
 10
-218.171484
 20
366.063882
 30
0.0
 11
-220.731334
 21
364.271456
 31
0.0
  0
LINE
  5
44
100
AcDbEntity
  8
0
 62
     0
100
AcDbLine
 10
-223.291184
 20
362.47903
 30
0.0
 11
-225.851034
 21
360.686603
 31
0.0
  0
LINE
  5
45
100
AcDbEntity
  8
0
 62
     0
100
AcDbLine
 10
-228.410885
 20
358.894177
 30
0.0
 11
-230.970735
 21
357.101751
 31
0.0
  0
LINE
  5
46
100
AcDbEntity
  8
0
 62
     0
100
AcDbLine
 10
-233.530585
 20
355.309324
 30
0.0
 11
-236.090435
 21
353.516898
 31
0.0
  0
LINE
  5
47
100
AcDbEntity
  8
0
 62
     0
100
AcDbLine
 10
-238.650285
 20
351.724472
 30
0.0
 11
-241.210135
 21
349.932045
 31
0.0
  0
LINE
  5
48
100
AcDbEntity
  8
0
 62
     0
100
AcDbLine
 10
-243.769985
 20
348.139619
 30
0.0
 11
-246.329836
 21
346.347192
 31
0.0
  0
LINE
  5
49
100
AcDbEntity
  8
0
 62
     0
100
AcDbLine
 10
-248.889686
 20
344.554766
 30
0.0
 11
-251.449536
 21
342.76234
 31
0.0
  0
LINE
  5
4A
100
AcDbEntity
  8
0
 62
     0
100
AcDbLine
 10
-254.009386
 20
340.969913
 30
0.0
 11
-256.569236
 21
339.177487
 31
0.0
  0
LINE
  5
4B
100
AcDbEntity
  8
0
 62
     0
100
AcDbLine
 10
-208.699507
 20
368.881311
 30
0.0
 11
-211.259357
 21
367.088885
 31
0.0
  0
LINE
  5
4C
100
AcDbEntity
  8
0
 62
     0
100
AcDbLine
 10
-213.819208
 20
365.296459
 30
0.0
 11
-216.379058
 21
363.504032
 31
0.0
  0
LINE
  5
4D
100
AcDbEntity
  8
0
 62
     0
100
AcDbLine
 10
-218.938908
 20
361.711606
 30
0.0
 11
-221.498758
 21
359.91918
 31
0.0
  0
LINE
  5
4E
100
AcDbEntity
  8
0
 62
     0
100
AcDbLine
 10
-224.058608
 20
358.126753
 30
0.0
 11
-226.618458
 21
356.334327
 31
0.0
  0
LINE
  5
4F
100
AcDbEntity
  8
0
 62
     0
100
AcDbLine
 10
-229.178308
 20
354.541901
 30
0.0
 11
-231.738159
 21
352.749474
 31
0.0
  0
LINE
  5
50
100
AcDbEntity
  8
0
 62
     0
100
AcDbLine
 10
-234.298009
 20
350.957048
 30
0.0
 11
-236.857859
 21
349.164621
 31
0.0
  0
LINE
  5
51
100
AcDbEntity
  8
0
 62
     0
100
AcDbLine
 10
-239.417709
 20
347.372195
 30
0.0
 11
-241.977559
 21
345.579769
 31
0.0
  0
LINE
  5
52
100
AcDbEntity
  8
0
 62
     0
100
AcDbLine
 10
-244.537409
 20
343.787342
 30
0.0
 11
-247.097259
 21
341.994916
 31
0.0
  0
LINE
  5
53
100
AcDbEntity
  8
0
 62
     0
100
AcDbLine
 10
-249.65711
 20
340.20249
 30
0.0
 11
-252.21696
 21
338.410063
 31
0.0
  0
LINE
  5
54
100
AcDbEntity
  8
0
 62
     0
100
AcDbLine
 10
-201.653583
 20
370.0
 30
0.0
 11
-201.787381
 21
369.906314
 31
0.0
  0
LINE
  5
55
100
AcDbEntity
  8
0
 62
     0
100
AcDbLine
 10
-204.347231
 20
368.113888
 30
0.0
 11
-206.907081
 21
366.321461
 31
0.0
  0
LINE
  5
56
100
AcDbEntity
  8
0
 62
     0
100
AcDbLine
 10
-209.466931
 20
364.529035
 30
0.0
 11
-212.026781
 21
362.736609
 31
0.0
  0
LINE
  5
57
100
AcDbEntity
  8
0
 62
     0
100
AcDbLine
 10
-214.586631
 20
360.944182
 30
0.0
 11
-217.146481
 21
359.151756
 31
0.0
  0
LINE
  5
58
100
AcDbEntity
  8
0
 62
     0
100
AcDbLine
 10
-219.706332
 20
357.359329
 30
0.0
 11
-222.266182
 21
355.566903
 31
0.0
  0
LINE
  5
59
100
AcDbEntity
  8
0
 62
     0
100
AcDbLine
 10
-224.826032
 20
353.774477
 30
0.0
 11
-227.385882
 21
351.98205
 31
0.0
  0
LINE
  5
5A
100
AcDbEntity
  8
0
 62
     0
100
AcDbLine
 10
-229.945732
 20
350.189624
 30
0.0
 11
-232.505582
 21
348.397198
 31
0.0
  0
LINE
  5
5B
100
AcDbEntity
  8
0
 62
     0
100
AcDbLine
 10
-235.065432
 20
346.604771
 30
0.0
 11
-237.625283
 21
344.812345
 31
0.0
  0
LINE
  5
5C
100
AcDbEntity
  8
0
 62
     0
100
AcDbLine
 10
-240.185133
 20
343.019919
 30
0.0
 11
-242.744983
 21
341.227492
 31
0.0
  0
LINE
  5
5D
100
AcDbEntity
  8
0
 62
     0
100
AcDbLine
 10
-245.304833
 20
339.435066
 30
0.0
 11
-247.354319
 21
338.0
 31
0.0
  0
LINE
  5
5E
100
AcDbEntity
  8
0
 62
     0
100
AcDbLine
 10
-196.205312
 20
370.0
 30
0.0
 11
-197.435104
 21
369.13889
 31
0.0
  0
LINE
  5
5F
100
AcDbEntity
  8
0
 62
     0
100
AcDbLine
 10
-199.994954
 20
367.346464
 30
0.0
 11
-202.554804
 21
365.554037
 31
0.0
  0
LINE
  5
60
100
AcDbEntity
  8
0
 62
     0
100
AcDbLine
 10
-205.114655
 20
363.761611
 30
0.0
 11
-207.674505
 21
361.969185
 31
0.0
  0
LINE
  5
61
100
AcDbEntity
  8
0
 62
     0
100
AcDbLine
 10
-210.234355
 20
360.176758
 30
0.0
 11
-212.794205
 21
358.384332
 31
0.0
  0
LINE
  5
62
100
AcDbEntity
  8
0
 62
     0
100
AcDbLine
 10
-215.354055
 20
356.591906
 30
0.0
 11
-217.913905
 21
354.799479
 31
0.0
  0
LINE
  5
63
100
AcDbEntity
  8
0
 62
     0
100
AcDbLine
 10
-220.473755
 20
353.007053
 30
0.0
 11
-223.033606
 21
351.214627
 31
0.0
  0
LINE
  5
64
100
AcDbEntity
  8
0
 62
     0
100
AcDbLine
 10
-225.593456
 20
349.4222
 30
0.0
 11
-228.153306
 21
347.629774
 31
0.0
  0
LINE
  5
65
100
AcDbEntity
  8
0
 62
     0
100
AcDbLine
 10
-230.713156
 20
345.837347
 30
0.0
 11
-233.273006
 21
344.044921
 31
0.0
  0
LINE
  5
66
100
AcDbEntity
  8
0
 62
     0
100
AcDbLine
 10
-235.832856
 20
342.252495
 30
0.0
 11
-238.392706
 21
340.460068
 31
0.0
  0
LINE
  5
67
100
AcDbEntity
  8
0
 62
     0
100
AcDbLine
 10
-240.952556
 20
338.667642
 30
0.0
 11
-241.906048
 21
338.0
 31
0.0
  0
LINE
  5
68
100
AcDbEntity
  8
0
 62
     0
100
AcDbLine
 10
-190.757041
 20
370.0
 30
0.0
 11
-193.082828
 21
368.371466
 31
0.0
  0
LINE
  5
69
100
AcDbEntity
  8
0
 62
     0
100
AcDbLine
 10
-195.642678
 20
366.57904
 30
0.0
 11
-198.202528
 21
364.786614
 31
0.0
  0
LINE
  5
6A
100
AcDbEntity
  8
0
 62
     0
100
AcDbLine
 10
-200.762378
 20
362.994187
 30
0.0
 11
-203.322228
 21
361.201761
 31
0.0
  0
LINE
  5
6B
100
AcDbEntity
  8
0
 62
     0
100
AcDbLine
 10
-205.882078
 20
359.409335
 30
0.0
 11
-208.441928
 21
357.616908
 31
0.0
  0
LINE
  5
6C
100
AcDbEntity
  8
0
 62
     0
100
AcDbLine
 10
-211.001779
 20
355.824482
 30
0.0
 11
-213.561629
 21
354.032056
 31
0.0
  0
LINE
  5
6D
100
AcDbEntity
  8
0
 62
     0
100
AcDbLine
 10
-216.121479
 20
352.239629
 30
0.0
 11
-218.681329
 21
350.447203
 31
0.0
  0
LINE
  5
6E
100
AcDbEntity
  8
0
 62
     0
100
AcDbLine
 10
-221.241179
 20
348.654776
 30
0.0
 11
-223.801029
 21
346.86235
 31
0.0
  0
LINE
  5
6F
100
AcDbEntity
  8
0
 62
     0
100
AcDbLine
 10
-226.360879
 20
345.069924
 30
0.0
 11
-228.92073
 21
343.277497
 31
0.0
  0
LINE
  5
70
100
AcDbEntity
  8
0
 62
     0
100
AcDbLine
 10
-231.48058
 20
341.485071
 30
0.0
 11
-234.04043
 21
339.692645
 31
0.0
  0
LINE
  5
71
100
AcDbEntity
  8
0
 62
     0
100
AcDbLine
 10
-186.170701
 20
369.396469
 30
0.0
 11
-188.730551
 21
367.604043
 31
0.0
  0
LINE
  5
72
100
AcDbEntity
  8
0
 62
     0
100
AcDbLine
 10
-191.290401
 20
365.811616
 30
0.0
 11
-193.850251
 21
364.01919
 31
0.0
  0
LINE
  5
73
100
AcDbEntity
  8
0
 62
     0
100
AcDbLine
 10
-196.410102
 20
362.226764
 30
0.0
 11
-198.969952
 21
360.434337
 31
0.0
  0
LINE
  5
74
100
AcDbEntity
  8
0
 62
     0
100
AcDbLine
 10
-201.529802
 20
358.641911
 30
0.0
 11
-204.089652
 21
356.849484
 31
0.0
  0
LINE
  5
75
100
AcDbEntity
  8
0
 62
     0
100
AcDbLine
 10
-206.649502
 20
355.057058
 30
0.0
 11
-209.209352
 21
353.264632
 31
0.0
  0
LINE
  5
76
100
AcDbEntity
  8
0
 62
     0
100
AcDbLine
 10
-211.769202
 20
351.472205
 30
0.0
 11
-214.329053
 21
349.679779
 31
0.0
  0
LINE
  5
77
100
AcDbEntity
  8
0
 62
     0
100
AcDbLine
 10
-216.888903
 20
347.887353
 30
0.0
 11
-219.448753
 21
346.094926
 31
0.0
  0
LINE
  5
78
100
AcDbEntity
  8
0
 62
     0
100
AcDbLine
 10
-222.008603
 20
344.3025
 30
0.0
 11
-224.568453
 21
342.510074
 31
0.0
  0
LINE
  5
79
100
AcDbEntity
  8
0
 62
     0
100
AcDbLine
 10
-227.128303
 20
340.717647
 30
0.0
 11
-229.688153
 21
338.925221
 31
0.0
  0
LINE
  5
7A
100
AcDbEntity
  8
0
 62
     0
100
AcDbLine
 10
-181.818424
 20
368.629045
 30
0.0
 11
-184.378275
 21
366.836619
 31
0.0
  0
LINE
  5
7B
100
AcDbEntity
  8
0
 62
     0
100
AcDbLine
 10
-186.938125
 20
365.044193
 30
0.0
 11
-189.497975
 21
363.251766
 31
0.0
  0
LINE
  5
7C
100
AcDbEntity
  8
0
 62
     0
100
AcDbLine
 10
-192.057825
 20
361.45934
 30
0.0
 11
-194.617675
 21
359.666913
 31
0.0
  0
LINE
  5
7D
100
AcDbEntity
  8
0
 62
     0
100
AcDbLine
 10
-197.177525
 20
357.874487
 30
0.0
 11
-199.737375
 21
356.082061
 31
0.0
  0
LINE
  5
7E
100
AcDbEntity
  8
0
 62
     0
100
AcDbLine
 10
-202.297226
 20
354.289634
 30
0.0
 11
-204.857076
 21
352.497208
 31
0.0
  0
LINE
  5
7F
100
AcDbEntity
  8
0
 62
     0
100
AcDbLine
 10
-207.416926
 20
350.704782
 30
0.0
 11
-209.976776
 21
348.912355
 31
0.0
  0
LINE
  5
80
100
AcDbEntity
  8
0
 62
     0
100
AcDbLine
 10
-212.536626
 20
347.119929
 30
0.0
 11
-215.096476
 21
345.327503
 31
0.0
  0
LINE
  5
81
100
AcDbEntity
  8
0
 62
     0
100
AcDbLine
 10
-217.656326
 20
343.535076
 30
0.0
 11
-220.216177
 21
341.74265
 31
0.0
  0
LINE
  5
82
100
AcDbEntity
  8
0
 62
     0
100
AcDbLine
 10
-222.776027
 20
339.950223
 30
0.0
 11
-225.335877
 21
338.157797
 31
0.0
  0
LINE
  5
83
100
AcDbEntity
  8
0
 62
     0
100
AcDbLine
 10
-174.412227
 20
370.0
 30
0.0
 11
-174.906298
 21
369.654048
 31
0.0
  0
LINE
  5
84
100
AcDbEntity
  8
0
 62
     0
100
AcDbLine
 10
-177.466148
 20
367.861621
 30
0.0
 11
-180.025998
 21
366.069195
 31
0.0
  0
LINE
  5
85
100
AcDbEntity
  8
0
 62
     0
100
AcDbLine
 10
-182.585848
 20
364.276769
 30
0.0
 11
-185.145698
 21
362.484342
 31
0.0
  0
LINE
  5
86
100
AcDbEntity
  8
0
 62
     0
100
AcDbLine
 10
-187.705549
 20
360.691916
 30
0.0
 11
-190.265399
 21
358.89949
 31
0.0
  0
LINE
  5
87
100
AcDbEntity
  8
0
 62
     0
100
AcDbLine
 10
-192.825249
 20
357.107063
 30
0.0
 11
-195.385099
 21
355.314637
 31
0.0
  0
LINE
  5
88
100
AcDbEntity
  8
0
 62
     0
100
AcDbLine
 10
-197.944949
 20
353.522211
 30
0.0
 11
-200.504799
 21
351.729784
 31
0.0
  0
LINE
  5
89
100
AcDbEntity
  8
0
 62
     0
100
AcDbLine
 10
-203.064649
 20
349.937358
 30
0.0
 11
-205.6245
 21
348.144931
 31
0.0
  0
LINE
  5
8A
100
AcDbEntity
  8
0
 62
     0
100
AcDbLine
 10
-208.18435
 20
346.352505
 30
0.0
 11
-210.7442
 21
344.560079
 31
0.0
  0
LINE
  5
8B
100
AcDbEntity
  8
0
 62
     0
100
AcDbLine
 10
-213.30405
 20
342.767652
 30
0.0
 11
-215.8639
 21
340.975226
 31
0.0
  0
LINE
  5
8C
100
AcDbEntity
  8
0
 62
     0
100
AcDbLine
 10
-218.42375
 20
339.1828
 30
0.0
 11
-220.112963
 21
338.0
 31
0.0
  0
LINE
  5
8D
100
AcDbEntity
  8
0
 62
     0
100
AcDbLine
 10
-168.963956
 20
370.0
 30
0.0
 11
-170.554021
 21
368.886624
 31
0.0
  0
LINE
  5
8E
100
AcDbEntity
  8
0
 62
     0
100
AcDbLine
 10
-173.113871
 20
367.094198
 30
0.0
 11
-175.673722
 21
365.301771
 31
0.0
  0
LINE
  5
8F
100
AcDbEntity
  8
0
 62
     0
100
AcDbLine
 10
-178.233572
 20
363.509345
 30
0.0
 11
-180.793422
 21
361.716919
 31
0.0
  0
LINE
  5
90
100
AcDbEntity
  8
0
 62
     0
100
AcDbLine
 10
-183.353272
 20
359.924492
 30
0.0
 11
-185.913122
 21
358.132066
 31
0.0
  0
LINE
  5
91
100
AcDbEntity
  8
0
 62
     0
100
AcDbLine
 10
-188.472972
 20
356.33964
 30
0.0
 11
-191.032822
 21
354.547213
 31
0.0
  0
LINE
  5
92
100
AcDbEntity
  8
0
 62
     0
100
AcDbLine
 10
-193.592673
 20
352.754787
 30
0.0
 11
-196.152523
 21
350.96236
 31
0.0
  0
LINE
  5
93
100
AcDbEntity
  8
0
 62
     0
100
AcDbLine
 10
-198.712373
 20
349.169934
 30
0.0
 11
-201.272223
 21
347.377508
 31
0.0
  0
LINE
  5
94
100
AcDbEntity
  8
0
 62
     0
100
AcDbLine
 10
-203.832073
 20
345.585081
 30
0.0
 11
-206.391923
 21
343.792655
 31
0.0
  0
LINE
  5
95
100
AcDbEntity
  8
0
 62
     0
100
AcDbLine
 10
-208.951773
 20
342.000229
 30
0.0
 11
-211.511624
 21
340.207802
 31
0.0
  0
LINE
  5
96
100
AcDbEntity
  8
0
 62
     0
100
AcDbLine
 10
-214.071474
 20
338.415376
 30
0.0
 11
-214.664692
 21
338.0
 31
0.0
  0
LINE
  5
97
100
AcDbEntity
  8
0
 62
     0
100
AcDbLine
 10
-163.641895
 20
369.911627
 30
0.0
 11
-166.201745
 21
368.1192
 31
0.0
  0
LINE
  5
98
100
AcDbEntity
  8
0
 62
     0
100
AcDbLine
 10
-168.761595
 20
366.326774
 30
0.0
 11
-171.321445
 21
364.534348
 31
0.0
  0
LINE
  5
99
100
AcDbEntity
  8
0
 62
     0
100
AcDbLine
 10
-173.881295
 20
362.741921
 30
0.0
 11
-176.441145
 21
360.949495
 31
0.0
  0
LINE
  5
9A
100
AcDbEntity
  8
0
 62
     0
100
AcDbLine
 10
-179.000996
 20
359.157068
 30
0.0
 11
-181.560846
 21
357.364642
 31
0.0
  0
LINE
  5
9B
100
AcDbEntity
  8
0
 62
     0
100
AcDbLine
 10
-184.120696
 20
355.572216
 30
0.0
 11
-186.680546
 21
353.779789
 31
0.0
  0
LINE
  5
9C
100
AcDbEntity
  8
0
 62
     0
100
AcDbLine
 10
-189.240396
 20
351.987363
 30
0.0
 11
-191.800246
 21
350.194937
 31
0.0
  0
LINE
  5
9D
100
AcDbEntity
  8
0
 62
     0
100
AcDbLine
 10
-194.360096
 20
348.40251
 30
0.0
 11
-196.919947
 21
346.610084
 31
0.0
  0
LINE
  5
9E
100
AcDbEntity
  8
0
 62
     0
100
AcDbLine
 10
-199.479797
 20
344.817658
 30
0.0
 11
-202.039647
 21
343.025231
 31
0.0
  0
LINE
  5
9F
100
AcDbEntity
  8
0
 62
     0
100
AcDbLine
 10
-204.599497
 20
341.232805
 30
0.0
 11
-207.159347
 21
339.440378
 31
0.0
  0
LINE
  5
A0
100
AcDbEntity
  8
0
 62
     0
100
AcDbLine
 10
-160.0
 20
368.646788
 30
0.0
 11
-161.849468
 21
367.351777
 31
0.0
  0
LINE
  5
A1
100
AcDbEntity
  8
0
 62
     0
100
AcDbLine
 10
-164.409318
 20
365.55935
 30
0.0
 11
-166.969169
 21
363.766924
 31
0.0
  0
LINE
  5
A2
100
AcDbEntity
  8
0
 62
     0
100
AcDbLine
 10
-169.529019
 20
361.974497
 30
0.0
 11
-172.088869
 21
360.182071
 31
0.0
  0
LINE
  5
A3
100
AcDbEntity
  8
0
 62
     0
100
AcDbLine
 10
-174.648719
 20
358.389645
 30
0.0
 11
-177.208569
 21
356.597218
 31
0.0
  0
LINE
  5
A4
100
AcDbEntity
  8
0
 62
     0
100
AcDbLine
 10
-179.768419
 20
354.804792
 30
0.0
 11
-182.328269
 21
353.012366
 31
0.0
  0
LINE
  5
A5
100
AcDbEntity
  8
0
 62
     0
100
AcDbLine
 10
-184.88812
 20
351.219939
 30
0.0
 11
-187.44797
 21
349.427513
 31
0.0
  0
LINE
  5
A6
100
AcDbEntity
  8
0
 62
     0
100
AcDbLine
 10
-190.00782
 20
347.635087
 30
0.0
 11
-192.56767
 21
345.84266
 31
0.0
  0
LINE
  5
A7
100
AcDbEntity
  8
0
 62
     0
100
AcDbLine
 10
-195.12752
 20
344.050234
 30
0.0
 11
-197.68737
 21
342.257807
 31
0.0
  0
LINE
  5
A8
100
AcDbEntity
  8
0
 62
     0
100
AcDbLine
 10
-200.24722
 20
340.465381
 30
0.0
 11
-202.807071
 21
338.672955
 31
0.0
  0
LINE
  5
A9
100
AcDbEntity
  8
0
 62
     0
100
AcDbLine
 10
-160.057042
 20
364.791926
 30
0.0
 11
-162.616892
 21
362.9995
 31
0.0
  0
LINE
  5
AA
100
AcDbEntity
  8
0
 62
     0
100
AcDbLine
 10
-165.176742
 20
361.207074
 30
0.0
 11
-167.736592
 21
359.414647
 31
0.0
  0
LINE
  5
AB
100
AcDbEntity
  8
0
 62
     0
100
AcDbLine
 10
-170.296443
 20
357.622221
 30
0.0
 11
-172.856293
 21
355.829795
 31
0.0
  0
LINE
  5
AC
100
AcDbEntity
  8
0
 62
     0
100
AcDbLine
 10
-175.416143
 20
354.037368
 30
0.0
 11
-177.975993
 21
352.244942
 31
0.0
  0
LINE
  5
AD
100
AcDbEntity
  8
0
 62
     0
100
AcDbLine
 10
-180.535843
 20
350.452515
 30
0.0
 11
-183.095693
 21
348.660089
 31
0.0
  0
LINE
  5
AE
100
AcDbEntity
  8
0
 62
     0
100
AcDbLine
 10
-185.655543
 20
346.867663
 30
0.0
 11
-188.215394
 21
345.075236
 31
0.0
  0
LINE
  5
AF
100
AcDbEntity
  8
0
 62
     0
100
AcDbLine
 10
-190.775244
 20
343.28281
 30
0.0
 11
-193.335094
 21
341.490384
 31
0.0
  0
LINE
  5
B0
100
AcDbEntity
  8
0
 62
     0
100
AcDbLine
 10
-195.894944
 20
339.697957
 30
0.0
 11
-198.319878
 21
338.0
 31
0.0
  0
LINE
  5
B1
100
AcDbEntity
  8
0
 62
     0
100
AcDbLine
 10
-160.824466
 20
360.43965
 30
0.0
 11
-163.384316
 21
358.647224
 31
0.0
  0
LINE
  5
B2
100
AcDbEntity
  8
0
 62
     0
100
AcDbLine
 10
-165.944166
 20
356.854797
 30
0.0
 11
-168.504016
 21
355.062371
 31
0.0
  0
LINE
  5
B3
100
AcDbEntity
  8
0
 62
     0
100
AcDbLine
 10
-171.063866
 20
353.269944
 30
0.0
 11
-173.623716
 21
351.477518
 31
0.0
  0
LINE
  5
B4
100
AcDbEntity
  8
0
 62
     0
100
AcDbLine
 10
-176.183567
 20
349.685092
 30
0.0
 11
-178.743417
 21
347.892665
 31
0.0
  0
LINE
  5
B5
100
AcDbEntity
  8
0
 62
     0
100
AcDbLine
 10
-181.303267
 20
346.100239
 30
0.0
 11
-183.863117
 21
344.307813
 31
0.0
  0
LINE
  5
B6
100
AcDbEntity
  8
0
 62
     0
100
AcDbLine
 10
-186.422967
 20
342.515386
 30
0.0
 11
-188.982817
 21
340.72296
 31
0.0
  0
LINE
  5
B7
100
AcDbEntity
  8
0
 62
     0
100
AcDbLine
 10
-191.542667
 20
338.930534
 30
0.0
 11
-192.871607
 21
338.0
 31
0.0
  0
LINE
  5
B8
100
AcDbEntity
  8
0
 62
     0
100
AcDbLine
 10
-161.59189
 20
356.087373
 30
0.0
 11
-164.15174
 21
354.294947
 31
0.0
  0
LINE
  5
B9
100
AcDbEntity
  8
0
 62
     0
100
AcDbLine
 10
-166.71159
 20
352.502521
 30
0.0
 11
-169.27144
 21
350.710094
 31
0.0
  0
LINE
  5
BA
100
AcDbEntity
  8
0
 62
     0
100
AcDbLine
 10
-171.83129
 20
348.917668
 30
0.0
 11
-174.39114
 21
347.125242
 31
0.0
  0
LINE
  5
BB
100
AcDbEntity
  8
0
 62
     0
100
AcDbLine
 10
-176.95099
 20
345.332815
 30
0.0
 11
-179.510841
 21
343.540389
 31
0.0
  0
LINE
  5
BC
100
AcDbEntity
  8
0
 62
     0
100
AcDbLine
 10
-182.070691
 20
341.747962
 30
0.0
 11
-184.630541
 21
339.955536
 31
0.0
  0
LINE
  5
BD
100
AcDbEntity
  8
0
 62
     0
100
AcDbLine
 10
-187.190391
 20
338.16311
 30
0.0
 11
-187.423336
 21
338.0
 31
0.0
  0
LINE
  5
BE
100
AcDbEntity
  8
0
 62
     0
100
AcDbLine
 10
-162.359313
 20
351.735097
 30
0.0
 11
-164.919163
 21
349.942671
 31
0.0
  0
LINE
  5
BF
100
AcDbEntity
  8
0
 62
     0
100
AcDbLine
 10
-167.479014
 20
348.150244
 30
0.0
 11
-170.038864
 21
346.357818
 31
0.0
  0
LINE
  5
C0
100
AcDbEntity
  8
0
 62
     0
100
AcDbLine
 10
-172.598714
 20
344.565391
 30
0.0
 11
-175.158564
 21
342.772965
 31
0.0
  0
LINE
  5
C1
100
AcDbEntity
  8
0
 62
     0
100
AcDbLine
 10
-177.718414
 20
340.980539
 30
0.0
 11
-180.278264
 21
339.188112
 31
0.0
  0
LINE
  5
C2
100
AcDbEntity
  8
0
 62
     0
100
AcDbLine
 10
-160.0
 20
349.572185
 30
0.0
 11
-160.566887
 21
349.175247
 31
0.0
  0
LINE
  5
C3
100
AcDbEntity
  8
0
 62
     0
100
AcDbLine
 10
-163.126737
 20
347.38282
 30
0.0
 11
-165.686587
 21
345.590394
 31
0.0
  0
LINE
  5
C4
100
AcDbEntity
  8
0
 62
     0
100
AcDbLine
 10
-168.246437
 20
343.797968
 30
0.0
 11
-170.806288
 21
342.005541
 31
0.0
  0
LINE
  5
C5
100
AcDbEntity
  8
0
 62
     0
100
AcDbLine
 10
-173.366138
 20
340.213115
 30
0.0
 11
-175.925988
 21
338.420689
 31
0.0
  0
LINE
  5
C6
100
AcDbEntity
  8
0
 62
     0
100
AcDbLine
 10
-160.0
 20
345.757265
 30
0.0
 11
-161.334311
 21
344.82297
 31
0.0
  0
LINE
  5
C7
100
AcDbEntity
  8
0
 62
     0
100
AcDbLine
 10
-163.894161
 20
343.030544
 30
0.0
 11
-166.454011
 21
341.238118
 31
0.0
  0
LINE
  5
C8
100
AcDbEntity
  8
0
 62
     0
100
AcDbLine
 10
-169.013861
 20
339.445691
 30
0.0
 11
-171.078522
 21
338.0
 31
0.0
  0
LINE
  5
C9
100
AcDbEntity
  8
0
 62
     0
100
AcDbLine
 10
-160.0
 20
341.942344
 30
0.0
 11
-162.101734
 21
340.470694
 31
0.0
  0
LINE
  5
CA
100
AcDbEntity
  8
0
 62
     0
100
AcDbLine
 10
-164.661585
 20
338.678267
 30
0.0
 11
-165.630251
 21
338.0
 31
0.0
  0
LINE
  5
CB
100
AcDbEntity
  8
0
 62
     0
100
AcDbLine
 10
-231.228314
 20
368.366154
 30
0.0
 11
-233.788164
 21
366.573727
 31
0.0
  0
LINE
  5
CC
100
AcDbEntity
  8
0
 62
     0
100
AcDbLine
 10
-236.348014
 20
364.781301
 30
0.0
 11
-238.907864
 21
362.988875
 31
0.0
  0
LINE
  5
CD
100
AcDbEntity
  8
0
 62
     0
100
AcDbLine
 10
-241.467714
 20
361.196448
 30
0.0
 11
-244.027564
 21
359.404022
 31
0.0
  0
LINE
  5
CE
100
AcDbEntity
  8
0
 62
     0
100
AcDbLine
 10
-246.587414
 20
357.611596
 30
0.0
 11
-249.147265
 21
355.819169
 31
0.0
  0
LINE
  5
CF
100
AcDbEntity
  8
0
 62
     0
100
AcDbLine
 10
-251.707115
 20
354.026743
 30
0.0
 11
-254.266965
 21
352.234317
 31
0.0
  0
LINE
  5
D0
100
AcDbEntity
  8
0
 62
     0
100
AcDbLine
 10
-256.826815
 20
350.44189
 30
0.0
 11
-259.386665
 21
348.649464
 31
0.0
  0
LINE
  5
D1
100
AcDbEntity
  8
0
 62
     0
100
AcDbLine
 10
-261.946515
 20
346.857037
 30
0.0
 11
-264.506365
 21
345.064611
 31
0.0
  0
LINE
  5
D2
100
AcDbEntity
  8
0
 62
     0
100
AcDbLine
 10
-267.066216
 20
343.272185
 30
0.0
 11
-269.626066
 21
341.479758
 31
0.0
  0
LINE
  5
D3
100
AcDbEntity
  8
0
 62
     0
100
AcDbLine
 10
-272.185916
 20
339.687332
 30
0.0
 11
-274.595676
 21
338.0
 31
0.0
  0
LINE
  5
D4
100
AcDbEntity
  8
0
 62
     0
100
AcDbLine
 10
-235.58059
 20
369.133578
 30
0.0
 11
-238.14044
 21
367.341151
 31
0.0
  0
LINE
  5
D5
100
AcDbEntity
  8
0
 62
     0
100
AcDbLine
 10
-240.70029
 20
365.548725
 30
0.0
 11
-243.26014
 21
363.756298
 31
0.0
  0
LINE
  5
D6
100
AcDbEntity
  8
0
 62
     0
100
AcDbLine
 10
-245.819991
 20
361.963872
 30
0.0
 11
-248.379841
 21
360.171446
 31
0.0
  0
LINE
  5
D7
100
AcDbEntity
  8
0
 62
     0
100
AcDbLine
 10
-250.939691
 20
358.379019
 30
0.0
 11
-253.499541
 21
356.586593
 31
0.0
  0
LINE
  5
D8
100
AcDbEntity
  8
0
 62
     0
100
AcDbLine
 10
-256.059391
 20
354.794167
 30
0.0
 11
-258.619241
 21
353.00174
 31
0.0
  0
LINE
  5
D9
100
AcDbEntity
  8
0
 62
     0
100
AcDbLine
 10
-261.179091
 20
351.209314
 30
0.0
 11
-263.738942
 21
349.416888
 31
0.0
  0
LINE
  5
DA
100
AcDbEntity
  8
0
 62
     0
100
AcDbLine
 10
-266.298792
 20
347.624461
 30
0.0
 11
-268.858642
 21
345.832035
 31
0.0
  0
LINE
  5
DB
100
AcDbEntity
  8
0
 62
     0
100
AcDbLine
 10
-271.418492
 20
344.039608
 30
0.0
 11
-273.978342
 21
342.247182
 31
0.0
  0
LINE
  5
DC
100
AcDbEntity
  8
0
 62
     0
100
AcDbLine
 10
-276.538192
 20
340.454756
 30
0.0
 11
-279.098042
 21
338.662329
 31
0.0
  0
LINE
  5
DD
100
AcDbEntity
  8
0
 62
     0
100
AcDbLine
 10
-239.932867
 20
369.901001
 30
0.0
 11
-242.492717
 21
368.108575
 31
0.0
  0
LINE
  5
DE
100
AcDbEntity
  8
0
 62
     0
100
AcDbLine
 10
-245.052567
 20
366.316149
 30
0.0
 11
-247.612417
 21
364.523722
 31
0.0
  0
LINE
  5
DF
100
AcDbEntity
  8
0
 62
     0
100
AcDbLine
 10
-250.172267
 20
362.731296
 30
0.0
 11
-252.732117
 21
360.93887
 31
0.0
  0
LINE
  5
E0
100
AcDbEntity
  8
0
 62
     0
100
AcDbLine
 10
-255.291967
 20
359.146443
 30
0.0
 11
-257.851818
 21
357.354017
 31
0.0
  0
LINE
  5
E1
100
AcDbEntity
  8
0
 62
     0
100
AcDbLine
 10
-260.411668
 20
355.56159
 30
0.0
 11
-262.971518
 21
353.769164
 31
0.0
  0
LINE
  5
E2
100
AcDbEntity
  8
0
 62
     0
100
AcDbLine
 10
-265.531368
 20
351.976738
 30
0.0
 11
-268.091218
 21
350.184311
 31
0.0
  0
LINE
  5
E3
100
AcDbEntity
  8
0
 62
     0
100
AcDbLine
 10
-270.651068
 20
348.391885
 30
0.0
 11
-273.210918
 21
346.599459
 31
0.0
  0
LINE
  5
E4
100
AcDbEntity
  8
0
 62
     0
100
AcDbLine
 10
-275.770769
 20
344.807032
 30
0.0
 11
-278.330619
 21
343.014606
 31
0.0
  0
LINE
  5
E5
100
AcDbEntity
  8
0
 62
     0
100
AcDbLine
 10
-280.890469
 20
341.22218
 30
0.0
 11
-283.450319
 21
339.429753
 31
0.0
  0
LINE
  5
E6
100
AcDbEntity
  8
0
 62
     0
100
AcDbLine
 10
-245.239753
 20
370.0
 30
0.0
 11
-246.844993
 21
368.875999
 31
0.0
  0
LINE
  5
E7
100
AcDbEntity
  8
0
 62
     0
100
AcDbLine
 10
-249.404843
 20
367.083572
 30
0.0
 11
-251.964693
 21
365.291146
 31
0.0
  0
LINE
  5
E8
100
AcDbEntity
  8
0
 62
     0
100
AcDbLine
 10
-254.524544
 20
363.49872
 30
0.0
 11
-257.084394
 21
361.706293
 31
0.0
  0
LINE
  5
E9
100
AcDbEntity
  8
0
 62
     0
100
AcDbLine
 10
-259.644244
 20
359.913867
 30
0.0
 11
-262.204094
 21
358.121441
 31
0.0
  0
LINE
  5
EA
100
AcDbEntity
  8
0
 62
     0
100
AcDbLine
 10
-264.763944
 20
356.329014
 30
0.0
 11
-267.323794
 21
354.536588
 31
0.0
  0
LINE
  5
EB
100
AcDbEntity
  8
0
 62
     0
100
AcDbLine
 10
-269.883644
 20
352.744161
 30
0.0
 11
-272.443495
 21
350.951735
 31
0.0
  0
LINE
  5
EC
100
AcDbEntity
  8
0
 62
     0
100
AcDbLine
 10
-275.003345
 20
349.159309
 30
0.0
 11
-277.563195
 21
347.366882
 31
0.0
  0
LINE
  5
ED
100
AcDbEntity
  8
0
 62
     0
100
AcDbLine
 10
-280.123045
 20
345.574456
 30
0.0
 11
-282.682895
 21
343.78203
 31
0.0
  0
LINE
  5
EE
100
AcDbEntity
  8
0
 62
     0
100
AcDbLine
 10
-285.242745
 20
341.989603
 30
0.0
 11
-287.802595
 21
340.197177
 31
0.0
  0
LINE
  5
EF
100
AcDbEntity
  8
0
 62
     0
100
AcDbLine
 10
-290.362446
 20
338.404751
 30
0.0
 11
-290.940489
 21
338.0
 31
0.0
  0
LINE
  5
F0
100
AcDbEntity
  8
0
 62
     0
100
AcDbLine
 10
-250.688024
 20
370.0
 30
0.0
 11
-251.19727
 21
369.643423
 31
0.0
  0
LINE
  5
F1
100
AcDbEntity
  8
0
 62
     0
100
AcDbLine
 10
-253.75712
 20
367.850996
 30
0.0
 11
-256.31697
 21
366.05857
 31
0.0
  0
LINE
  5
F2
100
AcDbEntity
  8
0
 62
     0
100
AcDbLine
 10
-258.87682
 20
364.266143
 30
0.0
 11
-261.43667
 21
362.473717
 31
0.0
  0
LINE
  5
F3
100
AcDbEntity
  8
0
 62
     0
100
AcDbLine
 10
-263.99652
 20
360.681291
 30
0.0
 11
-266.556371
 21
358.888864
 31
0.0
  0
LINE
  5
F4
100
AcDbEntity
  8
0
 62
     0
100
AcDbLine
 10
-269.116221
 20
357.096438
 30
0.0
 11
-271.676071
 21
355.304012
 31
0.0
  0
LINE
  5
F5
100
AcDbEntity
  8
0
 62
     0
100
AcDbLine
 10
-274.235921
 20
353.511585
 30
0.0
 11
-276.795771
 21
351.719159
 31
0.0
  0
LINE
  5
F6
100
AcDbEntity
  8
0
 62
     0
100
AcDbLine
 10
-279.355621
 20
349.926733
 30
0.0
 11
-281.915471
 21
348.134306
 31
0.0
  0
LINE
  5
F7
100
AcDbEntity
  8
0
 62
     0
100
AcDbLine
 10
-284.475322
 20
346.34188
 30
0.0
 11
-287.035172
 21
344.549453
 31
0.0
  0
LINE
  5
F8
100
AcDbEntity
  8
0
 62
     0
100
AcDbLine
 10
-289.595022
 20
342.757027
 30
0.0
 11
-292.154872
 21
340.964601
 31
0.0
  0
LINE
  5
F9
100
AcDbEntity
  8
0
 62
     0
100
AcDbLine
 10
-294.714722
 20
339.172174
 30
0.0
 11
-296.388761
 21
338.0
 31
0.0
  0
LINE
  5
FA
100
AcDbEntity
  8
0
 62
     0
100
AcDbLine
 10
-258.109396
 20
368.61842
 30
0.0
 11
-260.669246
 21
366.825994
 31
0.0
  0
LINE
  5
FB
100
AcDbEntity
  8
0
 62
     0
100
AcDbLine
 10
-263.229097
 20
365.033567
 30
0.0
 11
-265.788947
 21
363.241141
 31
0.0
  0
LINE
  5
FC
100
AcDbEntity
  8
0
 62
     0
100
AcDbLine
 10
-268.348797
 20
361.448714
 30
0.0
 11
-270.908647
 21
359.656288
 31
0.0
  0
LINE
  5
FD
100
AcDbEntity
  8
0
 62
     0
100
AcDbLine
 10
-273.468497
 20
357.863862
 30
0.0
 11
-276.028347
 21
356.071435
 31
0.0
  0
LINE
  5
FE
100
AcDbEntity
  8
0
 62
     0
100
AcDbLine
 10
-278.588197
 20
354.279009
 30
0.0
 11
-281.148048
 21
352.486583
 31
0.0
  0
LINE
  5
FF
100
AcDbEntity
  8
0
 62
     0
100
AcDbLine
 10
-283.707898
 20
350.694156
 30
0.0
 11
-286.267748
 21
348.90173
 31
0.0
  0
LINE
  5
100
100
AcDbEntity
  8
0
 62
     0
100
AcDbLine
 10
-288.827598
 20
347.109304
 30
0.0
 11
-291.387448
 21
345.316877
 31
0.0
  0
LINE
  5
101
100
AcDbEntity
  8
0
 62
     0
100
AcDbLine
 10
-293.947298
 20
343.524451
 30
0.0
 11
-296.507148
 21
341.732024
 31
0.0
  0
LINE
  5
102
100
AcDbEntity
  8
0
 62
     0
100
AcDbLine
 10
-299.066999
 20
339.939598
 30
0.0
 11
-301.626849
 21
338.147172
 31
0.0
  0
LINE
  5
103
100
AcDbEntity
  8
0
 62
     0
100
AcDbLine
 10
-262.461673
 20
369.385844
 30
0.0
 11
-265.021523
 21
367.593417
 31
0.0
  0
LINE
  5
104
100
AcDbEntity
  8
0
 62
     0
100
AcDbLine
 10
-267.581373
 20
365.800991
 30
0.0
 11
-270.141223
 21
364.008565
 31
0.0
  0
LINE
  5
105
100
AcDbEntity
  8
0
 62
     0
100
AcDbLine
 10
-272.701073
 20
362.216138
 30
0.0
 11
-275.260924
 21
360.423712
 31
0.0
  0
LINE
  5
106
100
AcDbEntity
  8
0
 62
     0
100
AcDbLine
 10
-277.820774
 20
358.631286
 30
0.0
 11
-280.380624
 21
356.838859
 31
0.0
  0
LINE
  5
107
100
AcDbEntity
  8
0
 62
     0
100
AcDbLine
 10
-282.940474
 20
355.046433
 30
0.0
 11
-285.500324
 21
353.254006
 31
0.0
  0
LINE
  5
108
100
AcDbEntity
  8
0
 62
     0
100
AcDbLine
 10
-288.060174
 20
351.46158
 30
0.0
 11
-290.620024
 21
349.669154
 31
0.0
  0
LINE
  5
109
100
AcDbEntity
  8
0
 62
     0
100
AcDbLine
 10
-293.179875
 20
347.876727
 30
0.0
 11
-295.739725
 21
346.084301
 31
0.0
  0
LINE
  5
10A
100
AcDbEntity
  8
0
 62
     0
100
AcDbLine
 10
-298.299575
 20
344.291875
 30
0.0
 11
-300.859425
 21
342.499448
 31
0.0
  0
LINE
  5
10B
100
AcDbEntity
  8
0
 62
     0
100
AcDbLine
 10
-303.419275
 20
340.707022
 30
0.0
 11
-305.979125
 21
338.914596
 31
0.0
  0
LINE
  5
10C
100
AcDbEntity
  8
0
 62
     0
100
AcDbLine
 10
-267.032838
 20
370.0
 30
0.0
 11
-269.3738
 21
368.360841
 31
0.0
  0
LINE
  5
10D
100
AcDbEntity
  8
0
 62
     0
100
AcDbLine
 10
-271.93365
 20
366.568415
 30
0.0
 11
-274.4935
 21
364.775988
 31
0.0
  0
LINE
  5
10E
100
AcDbEntity
  8
0
 62
     0
100
AcDbLine
 10
-277.05335
 20
362.983562
 30
0.0
 11
-279.6132
 21
361.191136
 31
0.0
  0
LINE
  5
10F
100
AcDbEntity
  8
0
 62
     0
100
AcDbLine
 10
-282.17305
 20
359.398709
 30
0.0
 11
-284.7329
 21
357.606283
 31
0.0
  0
LINE
  5
110
100
AcDbEntity
  8
0
 62
     0
100
AcDbLine
 10
-287.29275
 20
355.813857
 30
0.0
 11
-289.852601
 21
354.02143
 31
0.0
  0
LINE
  5
111
100
AcDbEntity
  8
0
 62
     0
100
AcDbLine
 10
-292.412451
 20
352.229004
 30
0.0
 11
-294.972301
 21
350.436577
 31
0.0
  0
LINE
  5
112
100
AcDbEntity
  8
0
 62
     0
100
AcDbLine
 10
-297.532151
 20
348.644151
 30
0.0
 11
-300.092001
 21
346.851725
 31
0.0
  0
LINE
  5
113
100
AcDbEntity
  8
0
 62
     0
100
AcDbLine
 10
-302.651851
 20
345.059298
 30
0.0
 11
-305.211701
 21
343.266872
 31
0.0
  0
LINE
  5
114
100
AcDbEntity
  8
0
 62
     0
100
AcDbLine
 10
-307.771552
 20
341.474446
 30
0.0
 11
-310.331402
 21
339.682019
 31
0.0
  0
LINE
  5
115
100
AcDbEntity
  8
0
 62
     0
100
AcDbLine
 10
-272.481109
 20
370.0
 30
0.0
 11
-273.726076
 21
369.128265
 31
0.0
  0
LINE
  5
116
100
AcDbEntity
  8
0
 62
     0
100
AcDbLine
 10
-276.285926
 20
367.335839
 30
0.0
 11
-278.845776
 21
365.543412
 31
0.0
  0
LINE
  5
117
100
AcDbEntity
  8
0
 62
     0
100
AcDbLine
 10
-281.405626
 20
363.750986
 30
0.0
 11
-283.965477
 21
361.958559
 31
0.0
  0
LINE
  5
118
100
AcDbEntity
  8
0
 62
     0
100
AcDbLine
 10
-286.525327
 20
360.166133
 30
0.0
 11
-289.085177
 21
358.373707
 31
0.0
  0
LINE
  5
119
100
AcDbEntity
  8
0
 62
     0
100
AcDbLine
 10
-291.645027
 20
356.58128
 30
0.0
 11
-294.204877
 21
354.788854
 31
0.0
  0
LINE
  5
11A
100
AcDbEntity
  8
0
 62
     0
100
AcDbLine
 10
-296.764727
 20
352.996428
 30
0.0
 11
-299.324577
 21
351.204001
 31
0.0
  0
LINE
  5
11B
100
AcDbEntity
  8
0
 62
     0
100
AcDbLine
 10
-301.884428
 20
349.411575
 30
0.0
 11
-304.444278
 21
347.619149
 31
0.0
  0
LINE
  5
11C
100
AcDbEntity
  8
0
 62
     0
100
AcDbLine
 10
-307.004128
 20
345.826722
 30
0.0
 11
-309.563978
 21
344.034296
 31
0.0
  0
LINE
  5
11D
100
AcDbEntity
  8
0
 62
     0
100
AcDbLine
 10
-312.123828
 20
342.241869
 30
0.0
 11
-314.683678
 21
340.449443
 31
0.0
  0
LINE
  5
11E
100
AcDbEntity
  8
0
 62
     0
100
AcDbLine
 10
-317.243528
 20
338.657017
 30
0.0
 11
-318.181845
 21
338.0
 31
0.0
  0
LINE
  5
11F
100
AcDbEntity
  8
0
 62
     0
100
AcDbLine
 10
-277.92938
 20
370.0
 30
0.0
 11
-278.078353
 21
369.895689
 31
0.0
  0
LINE
  5
120
100
AcDbEntity
  8
0
 62
     0
100
AcDbLine
 10
-280.638203
 20
368.103262
 30
0.0
 11
-283.198053
 21
366.310836
 31
0.0
  0
LINE
  5
121
100
AcDbEntity
  8
0
 62
     0
100
AcDbLine
 10
-285.757903
 20
364.51841
 30
0.0
 11
-288.317753
 21
362.725983
 31
0.0
  0
LINE
  5
122
100
AcDbEntity
  8
0
 62
     0
100
AcDbLine
 10
-290.877603
 20
360.933557
 30
0.0
 11
-293.437453
 21
359.14113
 31
0.0
  0
LINE
  5
123
100
AcDbEntity
  8
0
 62
     0
100
AcDbLine
 10
-295.997303
 20
357.348704
 30
0.0
 11
-298.557154
 21
355.556278
 31
0.0
  0
LINE
  5
124
100
AcDbEntity
  8
0
 62
     0
100
AcDbLine
 10
-301.117004
 20
353.763851
 30
0.0
 11
-303.676854
 21
351.971425
 31
0.0
  0
LINE
  5
125
100
AcDbEntity
  8
0
 62
     0
100
AcDbLine
 10
-306.236704
 20
350.178999
 30
0.0
 11
-308.796554
 21
348.386572
 31
0.0
  0
LINE
  5
126
100
AcDbEntity
  8
0
 62
     0
100
AcDbLine
 10
-311.356404
 20
346.594146
 30
0.0
 11
-313.916254
 21
344.80172
 31
0.0
  0
LINE
  5
127
100
AcDbEntity
  8
0
 62
     0
100
AcDbLine
 10
-316.476105
 20
343.009293
 30
0.0
 11
-319.035955
 21
341.216867
 31
0.0
  0
LINE
  5
128
100
AcDbEntity
  8
0
 62
     0
100
AcDbLine
 10
-321.595805
 20
339.42444
 30
0.0
 11
-323.630117
 21
338.0
 31
0.0
  0
LINE
  5
129
100
AcDbEntity
  8
0
 62
     0
100
AcDbLine
 10
-284.990479
 20
368.870686
 30
0.0
 11
-287.550329
 21
367.07826
 31
0.0
  0
LINE
  5
12A
100
AcDbEntity
  8
0
 62
     0
100
AcDbLine
 10
-290.110179
 20
365.285833
 30
0.0
 11
-292.67003
 21
363.493407
 31
0.0
  0
LINE
  5
12B
100
AcDbEntity
  8
0
 62
     0
100
AcDbLine
 10
-295.22988
 20
361.700981
 30
0.0
 11
-297.78973
 21
359.908554
 31
0.0
  0
LINE
  5
12C
100
AcDbEntity
  8
0
 62
     0
100
AcDbLine
 10
-300.34958
 20
358.116128
 30
0.0
 11
-302.90943
 21
356.323702
 31
0.0
  0
LINE
  5
12D
100
AcDbEntity
  8
0
 62
     0
100
AcDbLine
 10
-305.46928
 20
354.531275
 30
0.0
 11
-308.02913
 21
352.738849
 31
0.0
  0
LINE
  5
12E
100
AcDbEntity
  8
0
 62
     0
100
AcDbLine
 10
-310.588981
 20
350.946422
 30
0.0
 11
-313.148831
 21
349.153996
 31
0.0
  0
LINE
  5
12F
100
AcDbEntity
  8
0
 62
     0
100
AcDbLine
 10
-315.708681
 20
347.36157
 30
0.0
 11
-318.268531
 21
345.569143
 31
0.0
  0
LINE
  5
130
100
AcDbEntity
  8
0
 62
     0
100
AcDbLine
 10
-320.828381
 20
343.776717
 30
0.0
 11
-323.388231
 21
341.984291
 31
0.0
  0
LINE
  5
131
100
AcDbEntity
  8
0
 62
     0
100
AcDbLine
 10
-325.948081
 20
340.191864
 30
0.0
 11
-328.507931
 21
338.399438
 31
0.0
  0
LINE
  5
132
100
AcDbEntity
  8
0
 62
     0
100
AcDbLine
 10
-289.342756
 20
369.63811
 30
0.0
 11
-291.902606
 21
367.845683
 31
0.0
  0
LINE
  5
133
100
AcDbEntity
  8
0
 62
     0
100
AcDbLine
 10
-294.462456
 20
366.053257
 30
0.0
 11
-297.022306
 21
364.260831
 31
0.0
  0
LINE
  5
134
100
AcDbEntity
  8
0
 62
     0
100
AcDbLine
 10
-299.582156
 20
362.468404
 30
0.0
 11
-302.142006
 21
360.675978
 31
0.0
  0
LINE
  5
135
100
AcDbEntity
  8
0
 62
     0
100
AcDbLine
 10
-304.701856
 20
358.883552
 30
0.0
 11
-307.261707
 21
357.091125
 31
0.0
  0
LINE
  5
136
100
AcDbEntity
  8
0
 62
     0
100
AcDbLine
 10
-309.821557
 20
355.298699
 30
0.0
 11
-312.381407
 21
353.506273
 31
0.0
  0
LINE
  5
137
100
AcDbEntity
  8
0
 62
     0
100
AcDbLine
 10
-314.941257
 20
351.713846
 30
0.0
 11
-317.501107
 21
349.92142
 31
0.0
  0
LINE
  5
138
100
AcDbEntity
  8
0
 62
     0
100
AcDbLine
 10
-320.060957
 20
348.128993
 30
0.0
 11
-322.620807
 21
346.336567
 31
0.0
  0
LINE
  5
139
100
AcDbEntity
  8
0
 62
     0
100
AcDbLine
 10
-325.180658
 20
344.544141
 30
0.0
 11
-327.740508
 21
342.751714
 31
0.0
  0
LINE
  5
13A
100
AcDbEntity
  8
0
 62
     0
100
AcDbLine
 10
-330.300358
 20
340.959288
 30
0.0
 11
-332.860208
 21
339.166862
 31
0.0
  0
LINE
  5
13B
100
AcDbEntity
  8
0
 62
     0
100
AcDbLine
 10
-294.274194
 20
370.0
 30
0.0
 11
-296.254882
 21
368.613107
 31
0.0
  0
LINE
  5
13C
100
AcDbEntity
  8
0
 62
     0
100
AcDbLine
 10
-298.814732
 20
366.820681
 30
0.0
 11
-301.374583
 21
365.028255
 31
0.0
  0
LINE
  5
13D
100
AcDbEntity
  8
0
 62
     0
100
AcDbLine
 10
-303.934433
 20
363.235828
 30
0.0
 11
-306.494283
 21
361.443402
 31
0.0
  0
LINE
  5
13E
100
AcDbEntity
  8
0
 62
     0
100
AcDbLine
 10
-309.054133
 20
359.650975
 30
0.0
 11
-311.613983
 21
357.858549
 31
0.0
  0
LINE
  5
13F
100
AcDbEntity
  8
0
 62
     0
100
AcDbLine
 10
-314.173833
 20
356.066123
 30
0.0
 11
-316.733683
 21
354.273696
 31
0.0
  0
LINE
  5
140
100
AcDbEntity
  8
0
 62
     0
100
AcDbLine
 10
-319.293534
 20
352.48127
 30
0.0
 11
-321.853384
 21
350.688844
 31
0.0
  0
LINE
  5
141
100
AcDbEntity
  8
0
 62
     0
100
AcDbLine
 10
-324.413234
 20
348.896417
 30
0.0
 11
-326.973084
 21
347.103991
 31
0.0
  0
LINE
  5
142
100
AcDbEntity
  8
0
 62
     0
100
AcDbLine
 10
-329.532934
 20
345.311565
 30
0.0
 11
-332.092784
 21
343.519138
 31
0.0
  0
LINE
  5
143
100
AcDbEntity
  8
0
 62
     0
100
AcDbLine
 10
-334.652634
 20
341.726712
 30
0.0
 11
-337.212485
 21
339.934285
 31
0.0
  0
LINE
  5
144
100
AcDbEntity
  8
0
 62
     0
100
AcDbLine
 10
-339.772335
 20
338.141859
 30
0.0
 11
-339.97493
 21
338.0
 31
0.0
  0
LINE
  5
145
100
AcDbEntity
  8
0
 62
     0
100
AcDbLine
 10
-299.722465
 20
370.0
 30
0.0
 11
-300.607159
 21
369.380531
 31
0.0
  0
LINE
  5
146
100
AcDbEntity
  8
0
 62
     0
100
AcDbLine
 10
-303.167009
 20
367.588105
 30
0.0
 11
-305.726859
 21
365.795678
 31
0.0
  0
LINE
  5
147
100
AcDbEntity
  8
0
 62
     0
100
AcDbLine
 10
-308.286709
 20
364.003252
 30
0.0
 11
-310.846559
 21
362.210826
 31
0.0
  0
LINE
  5
148
100
AcDbEntity
  8
0
 62
     0
100
AcDbLine
 10
-313.406409
 20
360.418399
 30
0.0
 11
-315.96626
 21
358.625973
 31
0.0
  0
LINE
  5
149
100
AcDbEntity
  8
0
 62
     0
100
AcDbLine
 10
-318.52611
 20
356.833546
 30
0.0
 11
-321.08596
 21
355.04112
 31
0.0
  0
LINE
  5
14A
100
AcDbEntity
  8
0
 62
     0
100
AcDbLine
 10
-323.64581
 20
353.248694
 30
0.0
 11
-326.20566
 21
351.456267
 31
0.0
  0
LINE
  5
14B
100
AcDbEntity
  8
0
 62
     0
100
AcDbLine
 10
-328.76551
 20
349.663841
 30
0.0
 11
-331.32536
 21
347.871415
 31
0.0
  0
LINE
  5
14C
100
AcDbEntity
  8
0
 62
     0
100
AcDbLine
 10
-333.885211
 20
346.078988
 30
0.0
 11
-336.445061
 21
344.286562
 31
0.0
  0
LINE
  5
14D
100
AcDbEntity
  8
0
 62
     0
100
AcDbLine
 10
-339.004911
 20
342.494136
 30
0.0
 11
-340.0
 21
341.797367
 31
0.0
  0
LINE
  5
14E
100
AcDbEntity
  8
0
 62
     0
100
AcDbLine
 10
-307.519285
 20
368.355528
 30
0.0
 11
-310.079136
 21
366.563102
 31
0.0
  0
LINE
  5
14F
100
AcDbEntity
  8
0
 62
     0
100
AcDbLine
 10
-312.638986
 20
364.770676
 30
0.0
 11
-315.198836
 21
362.978249
 31
0.0
  0
LINE
  5
150
100
AcDbEntity
  8
0
 62
     0
100
AcDbLine
 10
-317.758686
 20
361.185823
 30
0.0
 11
-320.318536
 21
359.393397
 31
0.0
  0
LINE
  5
151
100
AcDbEntity
  8
0
 62
     0
100
AcDbLine
 10
-322.878386
 20
357.60097
 30
0.0
 11
-325.438236
 21
355.808544
 31
0.0
  0
LINE
  5
152
100
AcDbEntity
  8
0
 62
     0
100
AcDbLine
 10
-327.998087
 20
354.016118
 30
0.0
 11
-330.557937
 21
352.223691
 31
0.0
  0
LINE
  5
153
100
AcDbEntity
  8
0
 62
     0
100
AcDbLine
 10
-333.117787
 20
350.431265
 30
0.0
 11
-335.677637
 21
348.638838
 31
0.0
  0
LINE
  5
154
100
AcDbEntity
  8
0
 62
     0
100
AcDbLine
 10
-338.237487
 20
346.846412
 30
0.0
 11
-340.0
 21
345.612287
 31
0.0
  0
LINE
  5
155
100
AcDbEntity
  8
0
 62
     0
100
AcDbLine
 10
-311.871562
 20
369.122952
 30
0.0
 11
-314.431412
 21
367.330526
 31
0.0
  0
LINE
  5
156
100
AcDbEntity
  8
0
 62
     0
100
AcDbLine
 10
-316.991262
 20
365.538099
 30
0.0
 11
-319.551112
 21
363.745673
 31
0.0
  0
LINE
  5
157
100
AcDbEntity
  8
0
 62
     0
100
AcDbLine
 10
-322.110962
 20
361.953247
 30
0.0
 11
-324.670813
 21
360.16082
 31
0.0
  0
LINE
  5
158
100
AcDbEntity
  8
0
 62
     0
100
AcDbLine
 10
-327.230663
 20
358.368394
 30
0.0
 11
-329.790513
 21
356.575968
 31
0.0
  0
LINE
  5
159
100
AcDbEntity
  8
0
 62
     0
100
AcDbLine
 10
-332.350363
 20
354.783541
 30
0.0
 11
-334.910213
 21
352.991115
 31
0.0
  0
LINE
  5
15A
100
AcDbEntity
  8
0
 62
     0
100
AcDbLine
 10
-337.470063
 20
351.198689
 30
0.0
 11
-340.0
 21
349.427208
 31
0.0
  0
LINE
  5
15B
100
AcDbEntity
  8
0
 62
     0
100
AcDbLine
 10
-316.223838
 20
369.890376
 30
0.0
 11
-318.783689
 21
368.09795
 31
0.0
  0
LINE
  5
15C
100
AcDbEntity
  8
0
 62
     0
100
AcDbLine
 10
-321.343539
 20
366.305523
 30
0.0
 11
-323.903389
 21
364.513097
 31
0.0
  0
LINE
  5
15D
100
AcDbEntity
  8
0
 62
     0
100
AcDbLine
 10
-326.463239
 20
362.720671
 30
0.0
 11
-329.023089
 21
360.928244
 31
0.0
  0
LINE
  5
15E
100
AcDbEntity
  8
0
 62
     0
100
AcDbLine
 10
-331.582939
 20
359.135818
 30
0.0
 11
-334.142789
 21
357.343391
 31
0.0
  0
LINE
  5
15F
100
AcDbEntity
  8
0
 62
     0
100
AcDbLine
 10
-336.70264
 20
355.550965
 30
0.0
 11
-339.26249
 21
353.758539
 31
0.0
  0
LINE
  5
160
100
AcDbEntity
  8
0
 62
     0
100
AcDbLine
 10
-321.51555
 20
370.0
 30
0.0
 11
-323.135965
 21
368.865373
 31
0.0
  0
LINE
  5
161
100
AcDbEntity
  8
0
 62
     0
100
AcDbLine
 10
-325.695815
 20
367.072947
 30
0.0
 11
-328.255665
 21
365.280521
 31
0.0
  0
LINE
  5
162
100
AcDbEntity
  8
0
 62
     0
100
AcDbLine
 10
-330.815515
 20
363.488094
 30
0.0
 11
-333.375366
 21
361.695668
 31
0.0
  0
LINE
  5
163
100
AcDbEntity
  8
0
 62
     0
100
AcDbLine
 10
-335.935216
 20
359.903242
 30
0.0
 11
-338.495066
 21
358.110815
 31
0.0
  0
LINE
  5
164
100
AcDbEntity
  8
0
 62
     0
100
AcDbLine
 10
-326.963822
 20
370.0
 30
0.0
 11
-327.488242
 21
369.632797
 31
0.0
  0
LINE
  5
165
100
AcDbEntity
  8
0
 62
     0
100
AcDbLine
 10
-330.048092
 20
367.840371
 30
0.0
 11
-332.607942
 21
366.047944
 31
0.0
  0
LINE
  5
166
100
AcDbEntity
  8
0
 62
     0
100
AcDbLine
 10
-335.167792
 20
364.255518
 30
0.0
 11
-337.727642
 21
362.463092
 31
0.0
  0
LINE
  5
167
100
AcDbEntity
  8
0
 62
     0
100
AcDbLine
 10
-334.400368
 20
368.607795
 30
0.0
 11
-336.960218
 21
366.815368
 31
0.0
  0
LINE
  5
168
100
AcDbEntity
  8
0
 62
     0
100
AcDbLine
 10
-339.520068
 20
365.022942
 30
0.0
 11
-340.0
 21
364.68689
 31
0.0
  0
LINE
  5
169
100
AcDbEntity
  8
0
 62
     0
100
AcDbLine
 10
-338.752645
 20
369.375218
 30
0.0
 11
-340.0
 21
368.501811
 31
0.0
  0
ENDBLK
  5
16B
100
AcDbEntity
  8
0
100
AcDbBlockEnd
  0
BLOCK
  5
2B5
100
AcDbEntity
  8
0
100
AcDbBlockBegin
  2
*X2
 70
     1
 10
0.0
 20
0.0
 30
0.0
  3
*X2
  1

  0
LINE
  5
17A
100
AcDbEntity
  8
0
 62
     0
100
AcDbLine
 10
-215.402343
 20
265.0
 30
0.0
 11
-215.853275
 21
264.684254
 31
0.0
  0
LINE
  5
17B
100
AcDbEntity
  8
0
 62
     0
100
AcDbLine
 10
-218.413125
 20
262.891828
 30
0.0
 11
-220.972975
 21
261.099401
 31
0.0
  0
LINE
  5
17C
100
AcDbEntity
  8
0
 62
     0
100
AcDbLine
 10
-223.532825
 20
259.306975
 30
0.0
 11
-226.092675
 21
257.514549
 31
0.0
  0
LINE
  5
17D
100
AcDbEntity
  8
0
 62
     0
100
AcDbLine
 10
-228.652525
 20
255.722122
 30
0.0
 11
-231.212376
 21
253.929696
 31
0.0
  0
LINE
  5
17E
100
AcDbEntity
  8
0
 62
     0
100
AcDbLine
 10
-233.772226
 20
252.13727
 30
0.0
 11
-236.332076
 21
250.344843
 31
0.0
  0
LINE
  5
17F
100
AcDbEntity
  8
0
 62
     0
100
AcDbLine
 10
-238.891926
 20
248.552417
 30
0.0
 11
-241.451776
 21
246.759991
 31
0.0
  0
LINE
  5
180
100
AcDbEntity
  8
0
 62
     0
100
AcDbLine
 10
-244.011626
 20
244.967564
 30
0.0
 11
-246.571476
 21
243.175138
 31
0.0
  0
LINE
  5
181
100
AcDbEntity
  8
0
 62
     0
100
AcDbLine
 10
-249.131327
 20
241.382711
 30
0.0
 11
-251.691177
 21
239.590285
 31
0.0
  0
LINE
  5
182
100
AcDbEntity
  8
0
 62
     0
100
AcDbLine
 10
-254.251027
 20
237.797859
 30
0.0
 11
-256.810877
 21
236.005432
 31
0.0
  0
LINE
  5
183
100
AcDbEntity
  8
0
 62
     0
100
AcDbLine
 10
-259.370727
 20
234.213006
 30
0.0
 11
-261.103079
 21
233.0
 31
0.0
  0
LINE
  5
184
100
AcDbEntity
  8
0
 62
     0
100
AcDbLine
 10
-209.954072
 20
265.0
 30
0.0
 11
-211.500998
 21
263.91683
 31
0.0
  0
LINE
  5
185
100
AcDbEntity
  8
0
 62
     0
100
AcDbLine
 10
-214.060848
 20
262.124404
 30
0.0
 11
-216.620699
 21
260.331978
 31
0.0
  0
LINE
  5
186
100
AcDbEntity
  8
0
 62
     0
100
AcDbLine
 10
-219.180549
 20
258.539551
 30
0.0
 11
-221.740399
 21
256.747125
 31
0.0
  0
LINE
  5
187
100
AcDbEntity
  8
0
 62
     0
100
AcDbLine
 10
-224.300249
 20
254.954699
 30
0.0
 11
-226.860099
 21
253.162272
 31
0.0
  0
LINE
  5
188
100
AcDbEntity
  8
0
 62
     0
100
AcDbLine
 10
-229.419949
 20
251.369846
 30
0.0
 11
-231.979799
 21
249.577419
 31
0.0
  0
LINE
  5
189
100
AcDbEntity
  8
0
 62
     0
100
AcDbLine
 10
-234.539649
 20
247.784993
 30
0.0
 11
-237.0995
 21
245.992567
 31
0.0
  0
LINE
  5
18A
100
AcDbEntity
  8
0
 62
     0
100
AcDbLine
 10
-239.65935
 20
244.20014
 30
0.0
 11
-242.2192
 21
242.407714
 31
0.0
  0
LINE
  5
18B
100
AcDbEntity
  8
0
 62
     0
100
AcDbLine
 10
-244.77905
 20
240.615288
 30
0.0
 11
-247.3389
 21
238.822861
 31
0.0
  0
LINE
  5
18C
100
AcDbEntity
  8
0
 62
     0
100
AcDbLine
 10
-249.89875
 20
237.030435
 30
0.0
 11
-252.4586
 21
235.238009
 31
0.0
  0
LINE
  5
18D
100
AcDbEntity
  8
0
 62
     0
100
AcDbLine
 10
-255.018451
 20
233.445582
 30
0.0
 11
-255.654808
 21
233.0
 31
0.0
  0
LINE
  5
18E
100
AcDbEntity
  8
0
 62
     0
100
AcDbLine
 10
-204.588872
 20
264.941833
 30
0.0
 11
-207.148722
 21
263.149407
 31
0.0
  0
LINE
  5
18F
100
AcDbEntity
  8
0
 62
     0
100
AcDbLine
 10
-209.708572
 20
261.35698
 30
0.0
 11
-212.268422
 21
259.564554
 31
0.0
  0
LINE
  5
190
100
AcDbEntity
  8
0
 62
     0
100
AcDbLine
 10
-214.828272
 20
257.772128
 30
0.0
 11
-217.388122
 21
255.979701
 31
0.0
  0
LINE
  5
191
100
AcDbEntity
  8
0
 62
     0
100
AcDbLine
 10
-219.947972
 20
254.187275
 30
0.0
 11
-222.507823
 21
252.394848
 31
0.0
  0
LINE
  5
192
100
AcDbEntity
  8
0
 62
     0
100
AcDbLine
 10
-225.067673
 20
250.602422
 30
0.0
 11
-227.627523
 21
248.809996
 31
0.0
  0
LINE
  5
193
100
AcDbEntity
  8
0
 62
     0
100
AcDbLine
 10
-230.187373
 20
247.017569
 30
0.0
 11
-232.747223
 21
245.225143
 31
0.0
  0
LINE
  5
194
100
AcDbEntity
  8
0
 62
     0
100
AcDbLine
 10
-235.307073
 20
243.432717
 30
0.0
 11
-237.866923
 21
241.64029
 31
0.0
  0
LINE
  5
195
100
AcDbEntity
  8
0
 62
     0
100
AcDbLine
 10
-240.426774
 20
239.847864
 30
0.0
 11
-242.986624
 21
238.055438
 31
0.0
  0
LINE
  5
196
100
AcDbEntity
  8
0
 62
     0
100
AcDbLine
 10
-245.546474
 20
236.263011
 30
0.0
 11
-248.106324
 21
234.470585
 31
0.0
  0
LINE
  5
197
100
AcDbEntity
  8
0
 62
     0
100
AcDbLine
 10
-200.236595
 20
264.174409
 30
0.0
 11
-202.796445
 21
262.381983
 31
0.0
  0
LINE
  5
198
100
AcDbEntity
  8
0
 62
     0
100
AcDbLine
 10
-205.356295
 20
260.589556
 30
0.0
 11
-207.916146
 21
258.79713
 31
0.0
  0
LINE
  5
199
100
AcDbEntity
  8
0
 62
     0
100
AcDbLine
 10
-210.475996
 20
257.004704
 30
0.0
 11
-213.035846
 21
255.212277
 31
0.0
  0
LINE
  5
19A
100
AcDbEntity
  8
0
 62
     0
100
AcDbLine
 10
-215.595696
 20
253.419851
 30
0.0
 11
-218.155546
 21
251.627425
 31
0.0
  0
LINE
  5
19B
100
AcDbEntity
  8
0
 62
     0
100
AcDbLine
 10
-220.715396
 20
249.834998
 30
0.0
 11
-223.275246
 21
248.042572
 31
0.0
  0
LINE
  5
19C
100
AcDbEntity
  8
0
 62
     0
100
AcDbLine
 10
-225.835096
 20
246.250146
 30
0.0
 11
-228.394947
 21
244.457719
 31
0.0
  0
LINE
  5
19D
100
AcDbEntity
  8
0
 62
     0
100
AcDbLine
 10
-230.954797
 20
242.665293
 30
0.0
 11
-233.514647
 21
240.872866
 31
0.0
  0
LINE
  5
19E
100
AcDbEntity
  8
0
 62
     0
100
AcDbLine
 10
-236.074497
 20
239.08044
 30
0.0
 11
-238.634347
 21
237.288014
 31
0.0
  0
LINE
  5
19F
100
AcDbEntity
  8
0
 62
     0
100
AcDbLine
 10
-241.194197
 20
235.495587
 30
0.0
 11
-243.754047
 21
233.703161
 31
0.0
  0
LINE
  5
1A0
100
AcDbEntity
  8
0
 62
     0
100
AcDbLine
 10
-195.884319
 20
263.406985
 30
0.0
 11
-198.444169
 21
261.614559
 31
0.0
  0
LINE
  5
1A1
100
AcDbEntity
  8
0
 62
     0
100
AcDbLine
 10
-201.004019
 20
259.822133
 30
0.0
 11
-203.563869
 21
258.029706
 31
0.0
  0
LINE
  5
1A2
100
AcDbEntity
  8
0
 62
     0
100
AcDbLine
 10
-206.123719
 20
256.23728
 30
0.0
 11
-208.683569
 21
254.444854
 31
0.0
  0
LINE
  5
1A3
100
AcDbEntity
  8
0
 62
     0
100
AcDbLine
 10
-211.243419
 20
252.652427
 30
0.0
 11
-213.80327
 21
250.860001
 31
0.0
  0
LINE
  5
1A4
100
AcDbEntity
  8
0
 62
     0
100
AcDbLine
 10
-216.36312
 20
249.067575
 30
0.0
 11
-218.92297
 21
247.275148
 31
0.0
  0
LINE
  5
1A5
100
AcDbEntity
  8
0
 62
     0
100
AcDbLine
 10
-221.48282
 20
245.482722
 30
0.0
 11
-224.04267
 21
243.690295
 31
0.0
  0
LINE
  5
1A6
100
AcDbEntity
  8
0
 62
     0
100
AcDbLine
 10
-226.60252
 20
241.897869
 30
0.0
 11
-229.16237
 21
240.105443
 31
0.0
  0
LINE
  5
1A7
100
AcDbEntity
  8
0
 62
     0
100
AcDbLine
 10
-231.722221
 20
238.313016
 30
0.0
 11
-234.282071
 21
236.52059
 31
0.0
  0
LINE
  5
1A8
100
AcDbEntity
  8
0
 62
     0
100
AcDbLine
 10
-236.841921
 20
234.728164
 30
0.0
 11
-239.309994
 21
233.0
 31
0.0
  0
LINE
  5
1A9
100
AcDbEntity
  8
0
 62
     0
100
AcDbLine
 10
-188.160987
 20
265.0
 30
0.0
 11
-188.972192
 21
264.431988
 31
0.0
  0
LINE
  5
1AA
100
AcDbEntity
  8
0
 62
     0
100
AcDbLine
 10
-191.532042
 20
262.639562
 30
0.0
 11
-194.091892
 21
260.847135
 31
0.0
  0
LINE
  5
1AB
100
AcDbEntity
  8
0
 62
     0
100
AcDbLine
 10
-196.651742
 20
259.054709
 30
0.0
 11
-199.211593
 21
257.262283
 31
0.0
  0
LINE
  5
1AC
100
AcDbEntity
  8
0
 62
     0
100
AcDbLine
 10
-201.771443
 20
255.469856
 30
0.0
 11
-204.331293
 21
253.67743
 31
0.0
  0
LINE
  5
1AD
100
AcDbEntity
  8
0
 62
     0
100
AcDbLine
 10
-206.891143
 20
251.885003
 30
0.0
 11
-209.450993
 21
250.092577
 31
0.0
  0
LINE
  5
1AE
100
AcDbEntity
  8
0
 62
     0
100
AcDbLine
 10
-212.010843
 20
248.300151
 30
0.0
 11
-214.570693
 21
246.507724
 31
0.0
  0
LINE
  5
1AF
100
AcDbEntity
  8
0
 62
     0
100
AcDbLine
 10
-217.130543
 20
244.715298
 30
0.0
 11
-219.690394
 21
242.922872
 31
0.0
  0
LINE
  5
1B0
100
AcDbEntity
  8
0
 62
     0
100
AcDbLine
 10
-222.250244
 20
241.130445
 30
0.0
 11
-224.810094
 21
239.338019
 31
0.0
  0
LINE
  5
1B1
100
AcDbEntity
  8
0
 62
     0
100
AcDbLine
 10
-227.369944
 20
237.545593
 30
0.0
 11
-229.929794
 21
235.753166
 31
0.0
  0
LINE
  5
1B2
100
AcDbEntity
  8
0
 62
     0
100
AcDbLine
 10
-232.489644
 20
233.96074
 30
0.0
 11
-233.861723
 21
233.0
 31
0.0
  0
LINE
  5
1B3
100
AcDbEntity
  8
0
 62
     0
100
AcDbLine
 10
-182.712716
 20
265.0
 30
0.0
 11
-184.619915
 21
263.664564
 31
0.0
  0
LINE
  5
1B4
100
AcDbEntity
  8
0
 62
     0
100
AcDbLine
 10
-187.179766
 20
261.872138
 30
0.0
 11
-189.739616
 21
260.079712
 31
0.0
  0
LINE
  5
1B5
100
AcDbEntity
  8
0
 62
     0
100
AcDbLine
 10
-192.299466
 20
258.287285
 30
0.0
 11
-194.859316
 21
256.494859
 31
0.0
  0
LINE
  5
1B6
100
AcDbEntity
  8
0
 62
     0
100
AcDbLine
 10
-197.419166
 20
254.702432
 30
0.0
 11
-199.979016
 21
252.910006
 31
0.0
  0
LINE
  5
1B7
100
AcDbEntity
  8
0
 62
     0
100
AcDbLine
 10
-202.538866
 20
251.11758
 30
0.0
 11
-205.098717
 21
249.325153
 31
0.0
  0
LINE
  5
1B8
100
AcDbEntity
  8
0
 62
     0
100
AcDbLine
 10
-207.658567
 20
247.532727
 30
0.0
 11
-210.218417
 21
245.740301
 31
0.0
  0
LINE
  5
1B9
100
AcDbEntity
  8
0
 62
     0
100
AcDbLine
 10
-212.778267
 20
243.947874
 30
0.0
 11
-215.338117
 21
242.155448
 31
0.0
  0
LINE
  5
1BA
100
AcDbEntity
  8
0
 62
     0
100
AcDbLine
 10
-217.897967
 20
240.363022
 30
0.0
 11
-220.457817
 21
238.570595
 31
0.0
  0
LINE
  5
1BB
100
AcDbEntity
  8
0
 62
     0
100
AcDbLine
 10
-223.017668
 20
236.778169
 30
0.0
 11
-225.577518
 21
234.985742
 31
0.0
  0
LINE
  5
1BC
100
AcDbEntity
  8
0
 62
     0
100
AcDbLine
 10
-228.137368
 20
233.193316
 30
0.0
 11
-228.413452
 21
233.0
 31
0.0
  0
LINE
  5
1BD
100
AcDbEntity
  8
0
 62
     0
100
AcDbLine
 10
-177.707789
 20
264.689567
 30
0.0
 11
-180.267639
 21
262.89714
 31
0.0
  0
LINE
  5
1BE
100
AcDbEntity
  8
0
 62
     0
100
AcDbLine
 10
-182.827489
 20
261.104714
 30
0.0
 11
-185.387339
 21
259.312288
 31
0.0
  0
LINE
  5
1BF
100
AcDbEntity
  8
0
 62
     0
100
AcDbLine
 10
-187.947189
 20
257.519861
 30
0.0
 11
-190.50704
 21
255.727435
 31
0.0
  0
LINE
  5
1C0
100
AcDbEntity
  8
0
 62
     0
100
AcDbLine
 10
-193.06689
 20
253.935009
 30
0.0
 11
-195.62674
 21
252.142582
 31
0.0
  0
LINE
  5
1C1
100
AcDbEntity
  8
0
 62
     0
100
AcDbLine
 10
-198.18659
 20
250.350156
 30
0.0
 11
-200.74644
 21
248.55773
 31
0.0
  0
LINE
  5
1C2
100
AcDbEntity
  8
0
 62
     0
100
AcDbLine
 10
-203.30629
 20
246.765303
 30
0.0
 11
-205.86614
 21
244.972877
 31
0.0
  0
LINE
  5
1C3
100
AcDbEntity
  8
0
 62
     0
100
AcDbLine
 10
-208.42599
 20
243.18045
 30
0.0
 11
-210.985841
 21
241.388024
 31
0.0
  0
LINE
  5
1C4
100
AcDbEntity
  8
0
 62
     0
100
AcDbLine
 10
-213.545691
 20
239.595598
 30
0.0
 11
-216.105541
 21
237.803171
 31
0.0
  0
LINE
  5
1C5
100
AcDbEntity
  8
0
 62
     0
100
AcDbLine
 10
-218.665391
 20
236.010745
 30
0.0
 11
-221.225241
 21
234.218319
 31
0.0
  0
LINE
  5
1C6
100
AcDbEntity
  8
0
 62
     0
100
AcDbLine
 10
-173.355512
 20
263.922143
 30
0.0
 11
-175.915362
 21
262.129717
 31
0.0
  0
LINE
  5
1C7
100
AcDbEntity
  8
0
 62
     0
100
AcDbLine
 10
-178.475213
 20
260.33729
 30
0.0
 11
-181.035063
 21
258.544864
 31
0.0
  0
LINE
  5
1C8
100
AcDbEntity
  8
0
 62
     0
100
AcDbLine
 10
-183.594913
 20
256.752438
 30
0.0
 11
-186.154763
 21
254.960011
 31
0.0
  0
LINE
  5
1C9
100
AcDbEntity
  8
0
 62
     0
100
AcDbLine
 10
-188.714613
 20
253.167585
 30
0.0
 11
-191.274463
 21
251.375159
 31
0.0
  0
LINE
  5
1CA
100
AcDbEntity
  8
0
 62
     0
100
AcDbLine
 10
-193.834313
 20
249.582732
 30
0.0
 11
-196.394164
 21
247.790306
 31
0.0
  0
LINE
  5
1CB
100
AcDbEntity
  8
0
 62
     0
100
AcDbLine
 10
-198.954014
 20
245.997879
 30
0.0
 11
-201.513864
 21
244.205453
 31
0.0
  0
LINE
  5
1CC
100
AcDbEntity
  8
0
 62
     0
100
AcDbLine
 10
-204.073714
 20
242.413027
 30
0.0
 11
-206.633564
 21
240.6206
 31
0.0
  0
LINE
  5
1CD
100
AcDbEntity
  8
0
 62
     0
100
AcDbLine
 10
-209.193414
 20
238.828174
 30
0.0
 11
-211.753264
 21
237.035748
 31
0.0
  0
LINE
  5
1CE
100
AcDbEntity
  8
0
 62
     0
100
AcDbLine
 10
-214.313115
 20
235.243321
 30
0.0
 11
-216.872965
 21
233.450895
 31
0.0
  0
LINE
  5
1CF
100
AcDbEntity
  8
0
 62
     0
100
AcDbLine
 10
-166.367902
 20
265.0
 30
0.0
 11
-166.443386
 21
264.947146
 31
0.0
  0
LINE
  5
1D0
100
AcDbEntity
  8
0
 62
     0
100
AcDbLine
 10
-169.003236
 20
263.154719
 30
0.0
 11
-171.563086
 21
261.362293
 31
0.0
  0
LINE
  5
1D1
100
AcDbEntity
  8
0
 62
     0
100
AcDbLine
 10
-174.122936
 20
259.569867
 30
0.0
 11
-176.682786
 21
257.77744
 31
0.0
  0
LINE
  5
1D2
100
AcDbEntity
  8
0
 62
     0
100
AcDbLine
 10
-179.242636
 20
255.985014
 30
0.0
 11
-181.802486
 21
254.192587
 31
0.0
  0
LINE
  5
1D3
100
AcDbEntity
  8
0
 62
     0
100
AcDbLine
 10
-184.362337
 20
252.400161
 30
0.0
 11
-186.922187
 21
250.607735
 31
0.0
  0
LINE
  5
1D4
100
AcDbEntity
  8
0
 62
     0
100
AcDbLine
 10
-189.482037
 20
248.815308
 30
0.0
 11
-192.041887
 21
247.022882
 31
0.0
  0
LINE
  5
1D5
100
AcDbEntity
  8
0
 62
     0
100
AcDbLine
 10
-194.601737
 20
245.230456
 30
0.0
 11
-197.161587
 21
243.438029
 31
0.0
  0
LINE
  5
1D6
100
AcDbEntity
  8
0
 62
     0
100
AcDbLine
 10
-199.721437
 20
241.645603
 30
0.0
 11
-202.281288
 21
239.853177
 31
0.0
  0
LINE
  5
1D7
100
AcDbEntity
  8
0
 62
     0
100
AcDbLine
 10
-204.841138
 20
238.06075
 30
0.0
 11
-207.400988
 21
236.268324
 31
0.0
  0
LINE
  5
1D8
100
AcDbEntity
  8
0
 62
     0
100
AcDbLine
 10
-209.960838
 20
234.475897
 30
0.0
 11
-212.068638
 21
233.0
 31
0.0
  0
LINE
  5
1D9
100
AcDbEntity
  8
0
 62
     0
100
AcDbLine
 10
-160.919631
 20
265.0
 30
0.0
 11
-162.091109
 21
264.179722
 31
0.0
  0
LINE
  5
1DA
100
AcDbEntity
  8
0
 62
     0
100
AcDbLine
 10
-164.650959
 20
262.387296
 30
0.0
 11
-167.210809
 21
260.594869
 31
0.0
  0
LINE
  5
1DB
100
AcDbEntity
  8
0
 62
     0
100
AcDbLine
 10
-169.77066
 20
258.802443
 30
0.0
 11
-172.33051
 21
257.010016
 31
0.0
  0
LINE
  5
1DC
100
AcDbEntity
  8
0
 62
     0
100
AcDbLine
 10
-174.89036
 20
255.21759
 30
0.0
 11
-177.45021
 21
253.425164
 31
0.0
  0
LINE
  5
1DD
100
AcDbEntity
  8
0
 62
     0
100
AcDbLine
 10
-180.01006
 20
251.632737
 30
0.0
 11
-182.56991
 21
249.840311
 31
0.0
  0
LINE
  5
1DE
100
AcDbEntity
  8
0
 62
     0
100
AcDbLine
 10
-185.12976
 20
248.047885
 30
0.0
 11
-187.689611
 21
246.255458
 31
0.0
  0
LINE
  5
1DF
100
AcDbEntity
  8
0
 62
     0
100
AcDbLine
 10
-190.249461
 20
244.463032
 30
0.0
 11
-192.809311
 21
242.670606
 31
0.0
  0
LINE
  5
1E0
100
AcDbEntity
  8
0
 62
     0
100
AcDbLine
 10
-195.369161
 20
240.878179
 30
0.0
 11
-197.929011
 21
239.085753
 31
0.0
  0
LINE
  5
1E1
100
AcDbEntity
  8
0
 62
     0
100
AcDbLine
 10
-200.488861
 20
237.293326
 30
0.0
 11
-203.048711
 21
235.5009
 31
0.0
  0
LINE
  5
1E2
100
AcDbEntity
  8
0
 62
     0
100
AcDbLine
 10
-205.608562
 20
233.708474
 30
0.0
 11
-206.620367
 21
233.0
 31
0.0
  0
LINE
  5
1E3
100
AcDbEntity
  8
0
 62
     0
100
AcDbLine
 10
-155.471359
 20
265.0
 30
0.0
 11
-157.738833
 21
263.412298
 31
0.0
  0
LINE
  5
1E4
100
AcDbEntity
  8
0
 62
     0
100
AcDbLine
 10
-160.298683
 20
261.619872
 30
0.0
 11
-162.858533
 21
259.827445
 31
0.0
  0
LINE
  5
1E5
100
AcDbEntity
  8
0
 62
     0
100
AcDbLine
 10
-165.418383
 20
258.035019
 30
0.0
 11
-167.978233
 21
256.242593
 31
0.0
  0
LINE
  5
1E6
100
AcDbEntity
  8
0
 62
     0
100
AcDbLine
 10
-170.538083
 20
254.450166
 30
0.0
 11
-173.097933
 21
252.65774
 31
0.0
  0
LINE
  5
1E7
100
AcDbEntity
  8
0
 62
     0
100
AcDbLine
 10
-175.657784
 20
250.865314
 30
0.0
 11
-178.217634
 21
249.072887
 31
0.0
  0
LINE
  5
1E8
100
AcDbEntity
  8
0
 62
     0
100
AcDbLine
 10
-180.777484
 20
247.280461
 30
0.0
 11
-183.337334
 21
245.488034
 31
0.0
  0
LINE
  5
1E9
100
AcDbEntity
  8
0
 62
     0
100
AcDbLine
 10
-185.897184
 20
243.695608
 30
0.0
 11
-188.457034
 21
241.903182
 31
0.0
  0
LINE
  5
1EA
100
AcDbEntity
  8
0
 62
     0
100
AcDbLine
 10
-191.016884
 20
240.110755
 30
0.0
 11
-193.576735
 21
238.318329
 31
0.0
  0
LINE
  5
1EB
100
AcDbEntity
  8
0
 62
     0
100
AcDbLine
 10
-196.136585
 20
236.525903
 30
0.0
 11
-198.696435
 21
234.733476
 31
0.0
  0
LINE
  5
1EC
100
AcDbEntity
  8
0
 62
     0
100
AcDbLine
 10
-150.826706
 20
264.437301
 30
0.0
 11
-153.386556
 21
262.644874
 31
0.0
  0
LINE
  5
1ED
100
AcDbEntity
  8
0
 62
     0
100
AcDbLine
 10
-155.946406
 20
260.852448
 30
0.0
 11
-158.506256
 21
259.060022
 31
0.0
  0
LINE
  5
1EE
100
AcDbEntity
  8
0
 62
     0
100
AcDbLine
 10
-161.066107
 20
257.267595
 30
0.0
 11
-163.625957
 21
255.475169
 31
0.0
  0
LINE
  5
1EF
100
AcDbEntity
  8
0
 62
     0
100
AcDbLine
 10
-166.185807
 20
253.682743
 30
0.0
 11
-168.745657
 21
251.890316
 31
0.0
  0
LINE
  5
1F0
100
AcDbEntity
  8
0
 62
     0
100
AcDbLine
 10
-171.305507
 20
250.09789
 30
0.0
 11
-173.865357
 21
248.305463
 31
0.0
  0
LINE
  5
1F1
100
AcDbEntity
  8
0
 62
     0
100
AcDbLine
 10
-176.425207
 20
246.513037
 30
0.0
 11
-178.985058
 21
244.720611
 31
0.0
  0
LINE
  5
1F2
100
AcDbEntity
  8
0
 62
     0
100
AcDbLine
 10
-181.544908
 20
242.928184
 30
0.0
 11
-184.104758
 21
241.135758
 31
0.0
  0
LINE
  5
1F3
100
AcDbEntity
  8
0
 62
     0
100
AcDbLine
 10
-186.664608
 20
239.343332
 30
0.0
 11
-189.224458
 21
237.550905
 31
0.0
  0
LINE
  5
1F4
100
AcDbEntity
  8
0
 62
     0
100
AcDbLine
 10
-191.784308
 20
235.758479
 30
0.0
 11
-194.344158
 21
233.966053
 31
0.0
  0
LINE
  5
1F5
100
AcDbEntity
  8
0
 62
     0
100
AcDbLine
 10
-151.59413
 20
260.085024
 30
0.0
 11
-154.15398
 21
258.292598
 31
0.0
  0
LINE
  5
1F6
100
AcDbEntity
  8
0
 62
     0
100
AcDbLine
 10
-156.71383
 20
256.500171
 30
0.0
 11
-159.27368
 21
254.707745
 31
0.0
  0
LINE
  5
1F7
100
AcDbEntity
  8
0
 62
     0
100
AcDbLine
 10
-161.83353
 20
252.915319
 30
0.0
 11
-164.39338
 21
251.122892
 31
0.0
  0
LINE
  5
1F8
100
AcDbEntity
  8
0
 62
     0
100
AcDbLine
 10
-166.953231
 20
249.330466
 30
0.0
 11
-169.513081
 21
247.53804
 31
0.0
  0
LINE
  5
1F9
100
AcDbEntity
  8
0
 62
     0
100
AcDbLine
 10
-172.072931
 20
245.745613
 30
0.0
 11
-174.632781
 21
243.953187
 31
0.0
  0
LINE
  5
1FA
100
AcDbEntity
  8
0
 62
     0
100
AcDbLine
 10
-177.192631
 20
242.160761
 30
0.0
 11
-179.752481
 21
240.368334
 31
0.0
  0
LINE
  5
1FB
100
AcDbEntity
  8
0
 62
     0
100
AcDbLine
 10
-182.312331
 20
238.575908
 30
0.0
 11
-184.872182
 21
236.783481
 31
0.0
  0
LINE
  5
1FC
100
AcDbEntity
  8
0
 62
     0
100
AcDbLine
 10
-187.432032
 20
234.991055
 30
0.0
 11
-189.991882
 21
233.198629
 31
0.0
  0
LINE
  5
1FD
100
AcDbEntity
  8
0
 62
     0
100
AcDbLine
 10
-152.361554
 20
255.732748
 30
0.0
 11
-154.921404
 21
253.940321
 31
0.0
  0
LINE
  5
1FE
100
AcDbEntity
  8
0
 62
     0
100
AcDbLine
 10
-157.481254
 20
252.147895
 30
0.0
 11
-160.041104
 21
250.355469
 31
0.0
  0
LINE
  5
1FF
100
AcDbEntity
  8
0
 62
     0
100
AcDbLine
 10
-162.600954
 20
248.563042
 30
0.0
 11
-165.160804
 21
246.770616
 31
0.0
  0
LINE
  5
200
100
AcDbEntity
  8
0
 62
     0
100
AcDbLine
 10
-167.720654
 20
244.97819
 30
0.0
 11
-170.280505
 21
243.185763
 31
0.0
  0
LINE
  5
201
100
AcDbEntity
  8
0
 62
     0
100
AcDbLine
 10
-172.840355
 20
241.393337
 30
0.0
 11
-175.400205
 21
239.60091
 31
0.0
  0
LINE
  5
202
100
AcDbEntity
  8
0
 62
     0
100
AcDbLine
 10
-177.960055
 20
237.808484
 30
0.0
 11
-180.519905
 21
236.016058
 31
0.0
  0
LINE
  5
203
100
AcDbEntity
  8
0
 62
     0
100
AcDbLine
 10
-183.079755
 20
234.223631
 30
0.0
 11
-184.827282
 21
233.0
 31
0.0
  0
LINE
  5
204
100
AcDbEntity
  8
0
 62
     0
100
AcDbLine
 10
-150.0
 20
253.571405
 30
0.0
 11
-150.569127
 21
253.172898
 31
0.0
  0
LINE
  5
205
100
AcDbEntity
  8
0
 62
     0
100
AcDbLine
 10
-153.128977
 20
251.380471
 30
0.0
 11
-155.688827
 21
249.588045
 31
0.0
  0
LINE
  5
206
100
AcDbEntity
  8
0
 62
     0
100
AcDbLine
 10
-158.248678
 20
247.795618
 30
0.0
 11
-160.808528
 21
246.003192
 31
0.0
  0
LINE
  5
207
100
AcDbEntity
  8
0
 62
     0
100
AcDbLine
 10
-163.368378
 20
244.210766
 30
0.0
 11
-165.928228
 21
242.418339
 31
0.0
  0
LINE
  5
208
100
AcDbEntity
  8
0
 62
     0
100
AcDbLine
 10
-168.488078
 20
240.625913
 30
0.0
 11
-171.047928
 21
238.833487
 31
0.0
  0
LINE
  5
209
100
AcDbEntity
  8
0
 62
     0
100
AcDbLine
 10
-173.607778
 20
237.04106
 30
0.0
 11
-176.167629
 21
235.248634
 31
0.0
  0
LINE
  5
20A
100
AcDbEntity
  8
0
 62
     0
100
AcDbLine
 10
-178.727479
 20
233.456208
 30
0.0
 11
-179.379011
 21
233.0
 31
0.0
  0
LINE
  5
20B
100
AcDbEntity
  8
0
 62
     0
100
AcDbLine
 10
-150.0
 20
249.756484
 30
0.0
 11
-151.336551
 21
248.820621
 31
0.0
  0
LINE
  5
20C
100
AcDbEntity
  8
0
 62
     0
100
AcDbLine
 10
-153.896401
 20
247.028195
 30
0.0
 11
-156.456251
 21
245.235768
 31
0.0
  0
LINE
  5
20D
100
AcDbEntity
  8
0
 62
     0
100
AcDbLine
 10
-159.016101
 20
243.443342
 30
0.0
 11
-161.575952
 21
241.650916
 31
0.0
  0
LINE
  5
20E
100
AcDbEntity
  8
0
 62
     0
100
AcDbLine
 10
-164.135802
 20
239.858489
 30
0.0
 11
-166.695652
 21
238.066063
 31
0.0
  0
LINE
  5
20F
100
AcDbEntity
  8
0
 62
     0
100
AcDbLine
 10
-169.255502
 20
236.273637
 30
0.0
 11
-171.815352
 21
234.48121
 31
0.0
  0
LINE
  5
210
100
AcDbEntity
  8
0
 62
     0
100
AcDbLine
 10
-150.0
 20
245.941564
 30
0.0
 11
-152.103975
 21
244.468345
 31
0.0
  0
LINE
  5
211
100
AcDbEntity
  8
0
 62
     0
100
AcDbLine
 10
-154.663825
 20
242.675918
 30
0.0
 11
-157.223675
 21
240.883492
 31
0.0
  0
LINE
  5
212
100
AcDbEntity
  8
0
 62
     0
100
AcDbLine
 10
-159.783525
 20
239.091065
 30
0.0
 11
-162.343375
 21
237.298639
 31
0.0
  0
LINE
  5
213
100
AcDbEntity
  8
0
 62
     0
100
AcDbLine
 10
-164.903225
 20
235.506213
 30
0.0
 11
-167.463076
 21
233.713786
 31
0.0
  0
LINE
  5
214
100
AcDbEntity
  8
0
 62
     0
100
AcDbLine
 10
-150.311548
 20
241.908494
 30
0.0
 11
-152.871399
 21
240.116068
 31
0.0
  0
LINE
  5
215
100
AcDbEntity
  8
0
 62
     0
100
AcDbLine
 10
-155.431249
 20
238.323642
 30
0.0
 11
-157.991099
 21
236.531215
 31
0.0
  0
LINE
  5
216
100
AcDbEntity
  8
0
 62
     0
100
AcDbLine
 10
-160.550949
 20
234.738789
 30
0.0
 11
-163.034197
 21
233.0
 31
0.0
  0
LINE
  5
217
100
AcDbEntity
  8
0
 62
     0
100
AcDbLine
 10
-151.078972
 20
237.556218
 30
0.0
 11
-153.638822
 21
235.763792
 31
0.0
  0
LINE
  5
218
100
AcDbEntity
  8
0
 62
     0
100
AcDbLine
 10
-156.198672
 20
233.971365
 30
0.0
 11
-157.585926
 21
233.0
 31
0.0
  0
LINE
  5
219
100
AcDbEntity
  8
0
 62
     0
100
AcDbLine
 10
-151.846396
 20
233.203941
 30
0.0
 11
-152.137654
 21
233.0
 31
0.0
  0
LINE
  5
21A
100
AcDbEntity
  8
0
 62
     0
100
AcDbLine
 10
-222.765401
 20
263.659252
 30
0.0
 11
-225.325252
 21
261.866825
 31
0.0
  0
LINE
  5
21B
100
AcDbEntity
  8
0
 62
     0
100
AcDbLine
 10
-227.885102
 20
260.074399
 30
0.0
 11
-230.444952
 21
258.281972
 31
0.0
  0
LINE
  5
21C
100
AcDbEntity
  8
0
 62
     0
100
AcDbLine
 10
-233.004802
 20
256.489546
 30
0.0
 11
-235.564652
 21
254.69712
 31
0.0
  0
LINE
  5
21D
100
AcDbEntity
  8
0
 62
     0
100
AcDbLine
 10
-238.124502
 20
252.904693
 30
0.0
 11
-240.684352
 21
251.112267
 31
0.0
  0
LINE
  5
21E
100
AcDbEntity
  8
0
 62
     0
100
AcDbLine
 10
-243.244202
 20
249.319841
 30
0.0
 11
-245.804053
 21
247.527414
 31
0.0
  0
LINE
  5
21F
100
AcDbEntity
  8
0
 62
     0
100
AcDbLine
 10
-248.363903
 20
245.734988
 30
0.0
 11
-250.923753
 21
243.942562
 31
0.0
  0
LINE
  5
220
100
AcDbEntity
  8
0
 62
     0
100
AcDbLine
 10
-253.483603
 20
242.150135
 30
0.0
 11
-256.043453
 21
240.357709
 31
0.0
  0
LINE
  5
221
100
AcDbEntity
  8
0
 62
     0
100
AcDbLine
 10
-258.603303
 20
238.565282
 30
0.0
 11
-261.163153
 21
236.772856
 31
0.0
  0
LINE
  5
222
100
AcDbEntity
  8
0
 62
     0
100
AcDbLine
 10
-263.723004
 20
234.98043
 30
0.0
 11
-266.282854
 21
233.188003
 31
0.0
  0
LINE
  5
223
100
AcDbEntity
  8
0
 62
     0
100
AcDbLine
 10
-227.117678
 20
264.426675
 30
0.0
 11
-229.677528
 21
262.634249
 31
0.0
  0
LINE
  5
224
100
AcDbEntity
  8
0
 62
     0
100
AcDbLine
 10
-232.237378
 20
260.841823
 30
0.0
 11
-234.797228
 21
259.049396
 31
0.0
  0
LINE
  5
225
100
AcDbEntity
  8
0
 62
     0
100
AcDbLine
 10
-237.357078
 20
257.25697
 30
0.0
 11
-239.916929
 21
255.464544
 31
0.0
  0
LINE
  5
226
100
AcDbEntity
  8
0
 62
     0
100
AcDbLine
 10
-242.476779
 20
253.672117
 30
0.0
 11
-245.036629
 21
251.879691
 31
0.0
  0
LINE
  5
227
100
AcDbEntity
  8
0
 62
     0
100
AcDbLine
 10
-247.596479
 20
250.087264
 30
0.0
 11
-250.156329
 21
248.294838
 31
0.0
  0
LINE
  5
228
100
AcDbEntity
  8
0
 62
     0
100
AcDbLine
 10
-252.716179
 20
246.502412
 30
0.0
 11
-255.276029
 21
244.709985
 31
0.0
  0
LINE
  5
229
100
AcDbEntity
  8
0
 62
     0
100
AcDbLine
 10
-257.83588
 20
242.917559
 30
0.0
 11
-260.39573
 21
241.125133
 31
0.0
  0
LINE
  5
22A
100
AcDbEntity
  8
0
 62
     0
100
AcDbLine
 10
-262.95558
 20
239.332706
 30
0.0
 11
-265.51543
 21
237.54028
 31
0.0
  0
LINE
  5
22B
100
AcDbEntity
  8
0
 62
     0
100
AcDbLine
 10
-268.07528
 20
235.747854
 30
0.0
 11
-270.63513
 21
233.955427
 31
0.0
  0
LINE
  5
22C
100
AcDbEntity
  8
0
 62
     0
100
AcDbLine
 10
-231.747157
 20
265.0
 30
0.0
 11
-234.029805
 21
263.401673
 31
0.0
  0
LINE
  5
22D
100
AcDbEntity
  8
0
 62
     0
100
AcDbLine
 10
-236.589655
 20
261.609246
 30
0.0
 11
-239.149505
 21
259.81682
 31
0.0
  0
LINE
  5
22E
100
AcDbEntity
  8
0
 62
     0
100
AcDbLine
 10
-241.709355
 20
258.024394
 30
0.0
 11
-244.269205
 21
256.231967
 31
0.0
  0
LINE
  5
22F
100
AcDbEntity
  8
0
 62
     0
100
AcDbLine
 10
-246.829055
 20
254.439541
 30
0.0
 11
-249.388905
 21
252.647115
 31
0.0
  0
LINE
  5
230
100
AcDbEntity
  8
0
 62
     0
100
AcDbLine
 10
-251.948755
 20
250.854688
 30
0.0
 11
-254.508606
 21
249.062262
 31
0.0
  0
LINE
  5
231
100
AcDbEntity
  8
0
 62
     0
100
AcDbLine
 10
-257.068456
 20
247.269836
 30
0.0
 11
-259.628306
 21
245.477409
 31
0.0
  0
LINE
  5
232
100
AcDbEntity
  8
0
 62
     0
100
AcDbLine
 10
-262.188156
 20
243.684983
 30
0.0
 11
-264.748006
 21
241.892556
 31
0.0
  0
LINE
  5
233
100
AcDbEntity
  8
0
 62
     0
100
AcDbLine
 10
-267.307856
 20
240.10013
 30
0.0
 11
-269.867706
 21
238.307704
 31
0.0
  0
LINE
  5
234
100
AcDbEntity
  8
0
 62
     0
100
AcDbLine
 10
-272.427557
 20
236.515277
 30
0.0
 11
-274.987407
 21
234.722851
 31
0.0
  0
LINE
  5
235
100
AcDbEntity
  8
0
 62
     0
100
AcDbLine
 10
-237.195428
 20
265.0
 30
0.0
 11
-238.382081
 21
264.169097
 31
0.0
  0
LINE
  5
236
100
AcDbEntity
  8
0
 62
     0
100
AcDbLine
 10
-240.941931
 20
262.37667
 30
0.0
 11
-243.501781
 21
260.584244
 31
0.0
  0
LINE
  5
237
100
AcDbEntity
  8
0
 62
     0
100
AcDbLine
 10
-246.061631
 20
258.791817
 30
0.0
 11
-248.621482
 21
256.999391
 31
0.0
  0
LINE
  5
238
100
AcDbEntity
  8
0
 62
     0
100
AcDbLine
 10
-251.181332
 20
255.206965
 30
0.0
 11
-253.741182
 21
253.414538
 31
0.0
  0
LINE
  5
239
100
AcDbEntity
  8
0
 62
     0
100
AcDbLine
 10
-256.301032
 20
251.622112
 30
0.0
 11
-258.860882
 21
249.829686
 31
0.0
  0
LINE
  5
23A
100
AcDbEntity
  8
0
 62
     0
100
AcDbLine
 10
-261.420732
 20
248.037259
 30
0.0
 11
-263.980582
 21
246.244833
 31
0.0
  0
LINE
  5
23B
100
AcDbEntity
  8
0
 62
     0
100
AcDbLine
 10
-266.540433
 20
244.452407
 30
0.0
 11
-269.100283
 21
242.65998
 31
0.0
  0
LINE
  5
23C
100
AcDbEntity
  8
0
 62
     0
100
AcDbLine
 10
-271.660133
 20
240.867554
 30
0.0
 11
-274.219983
 21
239.075127
 31
0.0
  0
LINE
  5
23D
100
AcDbEntity
  8
0
 62
     0
100
AcDbLine
 10
-276.779833
 20
237.282701
 30
0.0
 11
-279.339683
 21
235.490275
 31
0.0
  0
LINE
  5
23E
100
AcDbEntity
  8
0
 62
     0
100
AcDbLine
 10
-281.899533
 20
233.697848
 30
0.0
 11
-282.896164
 21
233.0
 31
0.0
  0
LINE
  5
23F
100
AcDbEntity
  8
0
 62
     0
100
AcDbLine
 10
-242.643699
 20
265.0
 30
0.0
 11
-242.734358
 21
264.93652
 31
0.0
  0
LINE
  5
240
100
AcDbEntity
  8
0
 62
     0
100
AcDbLine
 10
-245.294208
 20
263.144094
 30
0.0
 11
-247.854058
 21
261.351668
 31
0.0
  0
LINE
  5
241
100
AcDbEntity
  8
0
 62
     0
100
AcDbLine
 10
-250.413908
 20
259.559241
 30
0.0
 11
-252.973758
 21
257.766815
 31
0.0
  0
LINE
  5
242
100
AcDbEntity
  8
0
 62
     0
100
AcDbLine
 10
-255.533608
 20
255.974389
 30
0.0
 11
-258.093458
 21
254.181962
 31
0.0
  0
LINE
  5
243
100
AcDbEntity
  8
0
 62
     0
100
AcDbLine
 10
-260.653308
 20
252.389536
 30
0.0
 11
-263.213159
 21
250.597109
 31
0.0
  0
LINE
  5
244
100
AcDbEntity
  8
0
 62
     0
100
AcDbLine
 10
-265.773009
 20
248.804683
 30
0.0
 11
-268.332859
 21
247.012257
 31
0.0
  0
LINE
  5
245
100
AcDbEntity
  8
0
 62
     0
100
AcDbLine
 10
-270.892709
 20
245.21983
 30
0.0
 11
-273.452559
 21
243.427404
 31
0.0
  0
LINE
  5
246
100
AcDbEntity
  8
0
 62
     0
100
AcDbLine
 10
-276.012409
 20
241.634978
 30
0.0
 11
-278.572259
 21
239.842551
 31
0.0
  0
LINE
  5
247
100
AcDbEntity
  8
0
 62
     0
100
AcDbLine
 10
-281.13211
 20
238.050125
 30
0.0
 11
-283.69196
 21
236.257699
 31
0.0
  0
LINE
  5
248
100
AcDbEntity
  8
0
 62
     0
100
AcDbLine
 10
-286.25181
 20
234.465272
 30
0.0
 11
-288.344435
 21
233.0
 31
0.0
  0
LINE
  5
249
100
AcDbEntity
  8
0
 62
     0
100
AcDbLine
 10
-249.646484
 20
263.911518
 30
0.0
 11
-252.206334
 21
262.119091
 31
0.0
  0
LINE
  5
24A
100
AcDbEntity
  8
0
 62
     0
100
AcDbLine
 10
-254.766184
 20
260.326665
 30
0.0
 11
-257.326035
 21
258.534239
 31
0.0
  0
LINE
  5
24B
100
AcDbEntity
  8
0
 62
     0
100
AcDbLine
 10
-259.885885
 20
256.741812
 30
0.0
 11
-262.445735
 21
254.949386
 31
0.0
  0
LINE
  5
24C
100
AcDbEntity
  8
0
 62
     0
100
AcDbLine
 10
-265.005585
 20
253.15696
 30
0.0
 11
-267.565435
 21
251.364533
 31
0.0
  0
LINE
  5
24D
100
AcDbEntity
  8
0
 62
     0
100
AcDbLine
 10
-270.125285
 20
249.572107
 30
0.0
 11
-272.685135
 21
247.77968
 31
0.0
  0
LINE
  5
24E
100
AcDbEntity
  8
0
 62
     0
100
AcDbLine
 10
-275.244986
 20
245.987254
 30
0.0
 11
-277.804836
 21
244.194828
 31
0.0
  0
LINE
  5
24F
100
AcDbEntity
  8
0
 62
     0
100
AcDbLine
 10
-280.364686
 20
242.402401
 30
0.0
 11
-282.924536
 21
240.609975
 31
0.0
  0
LINE
  5
250
100
AcDbEntity
  8
0
 62
     0
100
AcDbLine
 10
-285.484386
 20
238.817549
 30
0.0
 11
-288.044236
 21
237.025122
 31
0.0
  0
LINE
  5
251
100
AcDbEntity
  8
0
 62
     0
100
AcDbLine
 10
-290.604086
 20
235.232696
 30
0.0
 11
-293.163937
 21
233.44027
 31
0.0
  0
LINE
  5
252
100
AcDbEntity
  8
0
 62
     0
100
AcDbLine
 10
-253.998761
 20
264.678942
 30
0.0
 11
-256.558611
 21
262.886515
 31
0.0
  0
LINE
  5
253
100
AcDbEntity
  8
0
 62
     0
100
AcDbLine
 10
-259.118461
 20
261.094089
 30
0.0
 11
-261.678311
 21
259.301662
 31
0.0
  0
LINE
  5
254
100
AcDbEntity
  8
0
 62
     0
100
AcDbLine
 10
-264.238161
 20
257.509236
 30
0.0
 11
-266.798011
 21
255.71681
 31
0.0
  0
LINE
  5
255
100
AcDbEntity
  8
0
 62
     0
100
AcDbLine
 10
-269.357861
 20
253.924383
 30
0.0
 11
-271.917712
 21
252.131957
 31
0.0
  0
LINE
  5
256
100
AcDbEntity
  8
0
 62
     0
100
AcDbLine
 10
-274.477562
 20
250.339531
 30
0.0
 11
-277.037412
 21
248.547104
 31
0.0
  0
LINE
  5
257
100
AcDbEntity
  8
0
 62
     0
100
AcDbLine
 10
-279.597262
 20
246.754678
 30
0.0
 11
-282.157112
 21
244.962252
 31
0.0
  0
LINE
  5
258
100
AcDbEntity
  8
0
 62
     0
100
AcDbLine
 10
-284.716962
 20
243.169825
 30
0.0
 11
-287.276812
 21
241.377399
 31
0.0
  0
LINE
  5
259
100
AcDbEntity
  8
0
 62
     0
100
AcDbLine
 10
-289.836663
 20
239.584972
 30
0.0
 11
-292.396513
 21
237.792546
 31
0.0
  0
LINE
  5
25A
100
AcDbEntity
  8
0
 62
     0
100
AcDbLine
 10
-294.956363
 20
236.00012
 30
0.0
 11
-297.516213
 21
234.207693
 31
0.0
  0
LINE
  5
25B
100
AcDbEntity
  8
0
 62
     0
100
AcDbLine
 10
-258.988513
 20
265.0
 30
0.0
 11
-260.910887
 21
263.653939
 31
0.0
  0
LINE
  5
25C
100
AcDbEntity
  8
0
 62
     0
100
AcDbLine
 10
-263.470737
 20
261.861513
 30
0.0
 11
-266.030588
 21
260.069086
 31
0.0
  0
LINE
  5
25D
100
AcDbEntity
  8
0
 62
     0
100
AcDbLine
 10
-268.590438
 20
258.27666
 30
0.0
 11
-271.150288
 21
256.484233
 31
0.0
  0
LINE
  5
25E
100
AcDbEntity
  8
0
 62
     0
100
AcDbLine
 10
-273.710138
 20
254.691807
 30
0.0
 11
-276.269988
 21
252.899381
 31
0.0
  0
LINE
  5
25F
100
AcDbEntity
  8
0
 62
     0
100
AcDbLine
 10
-278.829838
 20
251.106954
 30
0.0
 11
-281.389688
 21
249.314528
 31
0.0
  0
LINE
  5
260
100
AcDbEntity
  8
0
 62
     0
100
AcDbLine
 10
-283.949539
 20
247.522102
 30
0.0
 11
-286.509389
 21
245.729675
 31
0.0
  0
LINE
  5
261
100
AcDbEntity
  8
0
 62
     0
100
AcDbLine
 10
-289.069239
 20
243.937249
 30
0.0
 11
-291.629089
 21
242.144823
 31
0.0
  0
LINE
  5
262
100
AcDbEntity
  8
0
 62
     0
100
AcDbLine
 10
-294.188939
 20
240.352396
 30
0.0
 11
-296.748789
 21
238.55997
 31
0.0
  0
LINE
  5
263
100
AcDbEntity
  8
0
 62
     0
100
AcDbLine
 10
-299.308639
 20
236.767543
 30
0.0
 11
-301.86849
 21
234.975117
 31
0.0
  0
LINE
  5
264
100
AcDbEntity
  8
0
 62
     0
100
AcDbLine
 10
-304.42834
 20
233.182691
 30
0.0
 11
-304.689249
 21
233.0
 31
0.0
  0
LINE
  5
265
100
AcDbEntity
  8
0
 62
     0
100
AcDbLine
 10
-264.436784
 20
265.0
 30
0.0
 11
-265.263164
 21
264.421363
 31
0.0
  0
LINE
  5
266
100
AcDbEntity
  8
0
 62
     0
100
AcDbLine
 10
-267.823014
 20
262.628936
 30
0.0
 11
-270.382864
 21
260.83651
 31
0.0
  0
LINE
  5
267
100
AcDbEntity
  8
0
 62
     0
100
AcDbLine
 10
-272.942714
 20
259.044084
 30
0.0
 11
-275.502564
 21
257.251657
 31
0.0
  0
LINE
  5
268
100
AcDbEntity
  8
0
 62
     0
100
AcDbLine
 10
-278.062415
 20
255.459231
 30
0.0
 11
-280.622265
 21
253.666805
 31
0.0
  0
LINE
  5
269
100
AcDbEntity
  8
0
 62
     0
100
AcDbLine
 10
-283.182115
 20
251.874378
 30
0.0
 11
-285.741965
 21
250.081952
 31
0.0
  0
LINE
  5
26A
100
AcDbEntity
  8
0
 62
     0
100
AcDbLine
 10
-288.301815
 20
248.289525
 30
0.0
 11
-290.861665
 21
246.497099
 31
0.0
  0
LINE
  5
26B
100
AcDbEntity
  8
0
 62
     0
100
AcDbLine
 10
-293.421515
 20
244.704673
 30
0.0
 11
-295.981365
 21
242.912246
 31
0.0
  0
LINE
  5
26C
100
AcDbEntity
  8
0
 62
     0
100
AcDbLine
 10
-298.541216
 20
241.11982
 30
0.0
 11
-301.101066
 21
239.327394
 31
0.0
  0
LINE
  5
26D
100
AcDbEntity
  8
0
 62
     0
100
AcDbLine
 10
-303.660916
 20
237.534967
 30
0.0
 11
-306.220766
 21
235.742541
 31
0.0
  0
LINE
  5
26E
100
AcDbEntity
  8
0
 62
     0
100
AcDbLine
 10
-308.780616
 20
233.950115
 30
0.0
 11
-310.13752
 21
233.0
 31
0.0
  0
LINE
  5
26F
100
AcDbEntity
  8
0
 62
     0
100
AcDbLine
 10
-272.17529
 20
263.39636
 30
0.0
 11
-274.735141
 21
261.603934
 31
0.0
  0
LINE
  5
270
100
AcDbEntity
  8
0
 62
     0
100
AcDbLine
 10
-277.294991
 20
259.811507
 30
0.0
 11
-279.854841
 21
258.019081
 31
0.0
  0
LINE
  5
271
100
AcDbEntity
  8
0
 62
     0
100
AcDbLine
 10
-282.414691
 20
256.226655
 30
0.0
 11
-284.974541
 21
254.434228
 31
0.0
  0
LINE
  5
272
100
AcDbEntity
  8
0
 62
     0
100
AcDbLine
 10
-287.534391
 20
252.641802
 30
0.0
 11
-290.094241
 21
250.849376
 31
0.0
  0
LINE
  5
273
100
AcDbEntity
  8
0
 62
     0
100
AcDbLine
 10
-292.654092
 20
249.056949
 30
0.0
 11
-295.213942
 21
247.264523
 31
0.0
  0
LINE
  5
274
100
AcDbEntity
  8
0
 62
     0
100
AcDbLine
 10
-297.773792
 20
245.472096
 30
0.0
 11
-300.333642
 21
243.67967
 31
0.0
  0
LINE
  5
275
100
AcDbEntity
  8
0
 62
     0
100
AcDbLine
 10
-302.893492
 20
241.887244
 30
0.0
 11
-305.453342
 21
240.094817
 31
0.0
  0
LINE
  5
276
100
AcDbEntity
  8
0
 62
     0
100
AcDbLine
 10
-308.013192
 20
238.302391
 30
0.0
 11
-310.573043
 21
236.509965
 31
0.0
  0
LINE
  5
277
100
AcDbEntity
  8
0
 62
     0
100
AcDbLine
 10
-313.132893
 20
234.717538
 30
0.0
 11
-315.585792
 21
233.0
 31
0.0
  0
LINE
  5
278
100
AcDbEntity
  8
0
 62
     0
100
AcDbLine
 10
-276.527567
 20
264.163784
 30
0.0
 11
-279.087417
 21
262.371358
 31
0.0
  0
LINE
  5
279
100
AcDbEntity
  8
0
 62
     0
100
AcDbLine
 10
-281.647267
 20
260.578931
 30
0.0
 11
-284.207117
 21
258.786505
 31
0.0
  0
LINE
  5
27A
100
AcDbEntity
  8
0
 62
     0
100
AcDbLine
 10
-286.766968
 20
256.994078
 30
0.0
 11
-289.326818
 21
255.201652
 31
0.0
  0
LINE
  5
27B
100
AcDbEntity
  8
0
 62
     0
100
AcDbLine
 10
-291.886668
 20
253.409226
 30
0.0
 11
-294.446518
 21
251.616799
 31
0.0
  0
LINE
  5
27C
100
AcDbEntity
  8
0
 62
     0
100
AcDbLine
 10
-297.006368
 20
249.824373
 30
0.0
 11
-299.566218
 21
248.031947
 31
0.0
  0
LINE
  5
27D
100
AcDbEntity
  8
0
 62
     0
100
AcDbLine
 10
-302.126068
 20
246.23952
 30
0.0
 11
-304.685918
 21
244.447094
 31
0.0
  0
LINE
  5
27E
100
AcDbEntity
  8
0
 62
     0
100
AcDbLine
 10
-307.245769
 20
242.654668
 30
0.0
 11
-309.805619
 21
240.862241
 31
0.0
  0
LINE
  5
27F
100
AcDbEntity
  8
0
 62
     0
100
AcDbLine
 10
-312.365469
 20
239.069815
 30
0.0
 11
-314.925319
 21
237.277388
 31
0.0
  0
LINE
  5
280
100
AcDbEntity
  8
0
 62
     0
100
AcDbLine
 10
-317.485169
 20
235.484962
 30
0.0
 11
-320.045019
 21
233.692536
 31
0.0
  0
LINE
  5
281
100
AcDbEntity
  8
0
 62
     0
100
AcDbLine
 10
-280.879843
 20
264.931208
 30
0.0
 11
-283.439694
 21
263.138781
 31
0.0
  0
LINE
  5
282
100
AcDbEntity
  8
0
 62
     0
100
AcDbLine
 10
-285.999544
 20
261.346355
 30
0.0
 11
-288.559394
 21
259.553929
 31
0.0
  0
LINE
  5
283
100
AcDbEntity
  8
0
 62
     0
100
AcDbLine
 10
-291.119244
 20
257.761502
 30
0.0
 11
-293.679094
 21
255.969076
 31
0.0
  0
LINE
  5
284
100
AcDbEntity
  8
0
 62
     0
100
AcDbLine
 10
-296.238944
 20
254.176649
 30
0.0
 11
-298.798794
 21
252.384223
 31
0.0
  0
LINE
  5
285
100
AcDbEntity
  8
0
 62
     0
100
AcDbLine
 10
-301.358645
 20
250.591797
 30
0.0
 11
-303.918495
 21
248.79937
 31
0.0
  0
LINE
  5
286
100
AcDbEntity
  8
0
 62
     0
100
AcDbLine
 10
-306.478345
 20
247.006944
 30
0.0
 11
-309.038195
 21
245.214518
 31
0.0
  0
LINE
  5
287
100
AcDbEntity
  8
0
 62
     0
100
AcDbLine
 10
-311.598045
 20
243.422091
 30
0.0
 11
-314.157895
 21
241.629665
 31
0.0
  0
LINE
  5
288
100
AcDbEntity
  8
0
 62
     0
100
AcDbLine
 10
-316.717745
 20
239.837239
 30
0.0
 11
-319.277596
 21
238.044812
 31
0.0
  0
LINE
  5
289
100
AcDbEntity
  8
0
 62
     0
100
AcDbLine
 10
-321.837446
 20
236.252386
 30
0.0
 11
-324.397296
 21
234.459959
 31
0.0
  0
LINE
  5
28A
100
AcDbEntity
  8
0
 62
     0
100
AcDbLine
 10
-286.229869
 20
265.0
 30
0.0
 11
-287.79197
 21
263.906205
 31
0.0
  0
LINE
  5
28B
100
AcDbEntity
  8
0
 62
     0
100
AcDbLine
 10
-290.35182
 20
262.113779
 30
0.0
 11
-292.91167
 21
260.321352
 31
0.0
  0
LINE
  5
28C
100
AcDbEntity
  8
0
 62
     0
100
AcDbLine
 10
-295.471521
 20
258.528926
 30
0.0
 11
-298.031371
 21
256.7365
 31
0.0
  0
LINE
  5
28D
100
AcDbEntity
  8
0
 62
     0
100
AcDbLine
 10
-300.591221
 20
254.944073
 30
0.0
 11
-303.151071
 21
253.151647
 31
0.0
  0
LINE
  5
28E
100
AcDbEntity
  8
0
 62
     0
100
AcDbLine
 10
-305.710921
 20
251.359221
 30
0.0
 11
-308.270771
 21
249.566794
 31
0.0
  0
LINE
  5
28F
100
AcDbEntity
  8
0
 62
     0
100
AcDbLine
 10
-310.830621
 20
247.774368
 30
0.0
 11
-313.390471
 21
245.981941
 31
0.0
  0
LINE
  5
290
100
AcDbEntity
  8
0
 62
     0
100
AcDbLine
 10
-315.950322
 20
244.189515
 30
0.0
 11
-318.510172
 21
242.397089
 31
0.0
  0
LINE
  5
291
100
AcDbEntity
  8
0
 62
     0
100
AcDbLine
 10
-321.070022
 20
240.604662
 30
0.0
 11
-323.629872
 21
238.812236
 31
0.0
  0
LINE
  5
292
100
AcDbEntity
  8
0
 62
     0
100
AcDbLine
 10
-326.189722
 20
237.01981
 30
0.0
 11
-328.749572
 21
235.227383
 31
0.0
  0
LINE
  5
293
100
AcDbEntity
  8
0
 62
     0
100
AcDbLine
 10
-291.67814
 20
265.0
 30
0.0
 11
-292.144247
 21
264.673629
 31
0.0
  0
LINE
  5
294
100
AcDbEntity
  8
0
 62
     0
100
AcDbLine
 10
-294.704097
 20
262.881202
 30
0.0
 11
-297.263947
 21
261.088776
 31
0.0
  0
LINE
  5
295
100
AcDbEntity
  8
0
 62
     0
100
AcDbLine
 10
-299.823797
 20
259.29635
 30
0.0
 11
-302.383647
 21
257.503923
 31
0.0
  0
LINE
  5
296
100
AcDbEntity
  8
0
 62
     0
100
AcDbLine
 10
-304.943497
 20
255.711497
 30
0.0
 11
-307.503347
 21
253.919071
 31
0.0
  0
LINE
  5
297
100
AcDbEntity
  8
0
 62
     0
100
AcDbLine
 10
-310.063198
 20
252.126644
 30
0.0
 11
-312.623048
 21
250.334218
 31
0.0
  0
LINE
  5
298
100
AcDbEntity
  8
0
 62
     0
100
AcDbLine
 10
-315.182898
 20
248.541792
 30
0.0
 11
-317.742748
 21
246.749365
 31
0.0
  0
LINE
  5
299
100
AcDbEntity
  8
0
 62
     0
100
AcDbLine
 10
-320.302598
 20
244.956939
 30
0.0
 11
-322.862448
 21
243.164512
 31
0.0
  0
LINE
  5
29A
100
AcDbEntity
  8
0
 62
     0
100
AcDbLine
 10
-325.422298
 20
241.372086
 30
0.0
 11
-327.982149
 21
239.57966
 31
0.0
  0
LINE
  5
29B
100
AcDbEntity
  8
0
 62
     0
100
AcDbLine
 10
-299.056373
 20
263.648626
 30
0.0
 11
-301.616223
 21
261.8562
 31
0.0
  0
LINE
  5
29C
100
AcDbEntity
  8
0
 62
     0
100
AcDbLine
 10
-304.176074
 20
260.063774
 30
0.0
 11
-306.735924
 21
258.271347
 31
0.0
  0
LINE
  5
29D
100
AcDbEntity
  8
0
 62
     0
100
AcDbLine
 10
-309.295774
 20
256.478921
 30
0.0
 11
-311.855624
 21
254.686494
 31
0.0
  0
LINE
  5
29E
100
AcDbEntity
  8
0
 62
     0
100
AcDbLine
 10
-314.415474
 20
252.894068
 30
0.0
 11
-316.975324
 21
251.101642
 31
0.0
  0
LINE
  5
29F
100
AcDbEntity
  8
0
 62
     0
100
AcDbLine
 10
-319.535174
 20
249.309215
 30
0.0
 11
-322.095024
 21
247.516789
 31
0.0
  0
LINE
  5
2A0
100
AcDbEntity
  8
0
 62
     0
100
AcDbLine
 10
-324.654875
 20
245.724363
 30
0.0
 11
-327.214725
 21
243.931936
 31
0.0
  0
LINE
  5
2A1
100
AcDbEntity
  8
0
 62
     0
100
AcDbLine
 10
-329.774575
 20
242.13951
 30
0.0
 11
-330.0
 21
241.981666
 31
0.0
  0
LINE
  5
2A2
100
AcDbEntity
  8
0
 62
     0
100
AcDbLine
 10
-303.40865
 20
264.41605
 30
0.0
 11
-305.9685
 21
262.623624
 31
0.0
  0
LINE
  5
2A3
100
AcDbEntity
  8
0
 62
     0
100
AcDbLine
 10
-308.52835
 20
260.831197
 30
0.0
 11
-311.0882
 21
259.038771
 31
0.0
  0
LINE
  5
2A4
100
AcDbEntity
  8
0
 62
     0
100
AcDbLine
 10
-313.64805
 20
257.246345
 30
0.0
 11
-316.2079
 21
255.453918
 31
0.0
  0
LINE
  5
2A5
100
AcDbEntity
  8
0
 62
     0
100
AcDbLine
 10
-318.767751
 20
253.661492
 30
0.0
 11
-321.327601
 21
251.869065
 31
0.0
  0
LINE
  5
2A6
100
AcDbEntity
  8
0
 62
     0
100
AcDbLine
 10
-323.887451
 20
250.076639
 30
0.0
 11
-326.447301
 21
248.284213
 31
0.0
  0
LINE
  5
2A7
100
AcDbEntity
  8
0
 62
     0
100
AcDbLine
 10
-329.007151
 20
246.491786
 30
0.0
 11
-330.0
 21
245.796586
 31
0.0
  0
LINE
  5
2A8
100
AcDbEntity
  8
0
 62
     0
100
AcDbLine
 10
-308.022954
 20
265.0
 30
0.0
 11
-310.320776
 21
263.391047
 31
0.0
  0
LINE
  5
2A9
100
AcDbEntity
  8
0
 62
     0
100
AcDbLine
 10
-312.880627
 20
261.598621
 30
0.0
 11
-315.440477
 21
259.806195
 31
0.0
  0
LINE
  5
2AA
100
AcDbEntity
  8
0
 62
     0
100
AcDbLine
 10
-318.000327
 20
258.013768
 30
0.0
 11
-320.560177
 21
256.221342
 31
0.0
  0
LINE
  5
2AB
100
AcDbEntity
  8
0
 62
     0
100
AcDbLine
 10
-323.120027
 20
254.428916
 30
0.0
 11
-325.679877
 21
252.636489
 31
0.0
  0
LINE
  5
2AC
100
AcDbEntity
  8
0
 62
     0
100
AcDbLine
 10
-328.239727
 20
250.844063
 30
0.0
 11
-330.0
 21
249.611507
 31
0.0
  0
LINE
  5
2AD
100
AcDbEntity
  8
0
 62
     0
100
AcDbLine
 10
-313.471225
 20
265.0
 30
0.0
 11
-314.673053
 21
264.158471
 31
0.0
  0
LINE
  5
2AE
100
AcDbEntity
  8
0
 62
     0
100
AcDbLine
 10
-317.232903
 20
262.366045
 30
0.0
 11
-319.792753
 21
260.573618
 31
0.0
  0
LINE
  5
2AF
100
AcDbEntity
  8
0
 62
     0
100
AcDbLine
 10
-322.352603
 20
258.781192
 30
0.0
 11
-324.912453
 21
256.988766
 31
0.0
  0
LINE
  5
2B0
100
AcDbEntity
  8
0
 62
     0
100
AcDbLine
 10
-327.472304
 20
255.196339
 30
0.0
 11
-330.0
 21
253.426427
 31
0.0
  0
LINE
  5
2B1
100
AcDbEntity
  8
0
 62
     0
100
AcDbLine
 10
-318.919496
 20
265.0
 30
0.0
 11
-319.025329
 21
264.925895
 31
0.0
  0
LINE
  5
2B2
100
AcDbEntity
  8
0
 62
     0
100
AcDbLine
 10
-321.58518
 20
263.133469
 30
0.0
 11
-324.14503
 21
261.341042
 31
0.0
  0
LINE
  5
2B3
100
AcDbEntity
  8
0
 62
     0
100
AcDbLine
 10
-326.70488
 20
259.548616
 30
0.0
 11
-329.26473
 21
257.75619
 31
0.0
  0
LINE
  5
2B4
100
AcDbEntity
  8
0
 62
     0
100
AcDbLine
 10
-325.937456
 20
263.900892
 30
0.0
 11
-328.497306
 21
262.108466
 31
0.0
  0
ENDBLK
  5
2B6
100
AcDbEntity
  8
0
100
AcDbBlockEnd
  0
BLOCK
  5
301
100
AcDbEntity
  8
0
100
AcDbBlockBegin
  2
SP76521_720_32
 70
     0
 10
0.0
 20
0.0
 30
0.0
  3
SP76521_720_32
  1

  0
LINE
  5
2CD
100
AcDbEntity
  8
GLAS_MED_FOGNING
100
AcDbLine
 10
10.0
 20
-30.0
 30
0.0
 11
10.0
 21
-62.0
 31
0.0
  0
LWPOLYLINE
  5
2CE
100
AcDbEntity
  8
GLAS_MED_FOGNING
100
AcDbPolyline
 90
        3
 70
     0
 43
0.0
 10
8.2
 20
-30.0
 10
10.0
 20
-30.0
 10
10.0
 20
-62.0
  0
LWPOLYLINE
  5
2CF
100
AcDbEntity
  8
GLAS_MED_FOGNING
100
AcDbPolyline
 90
        3
 70
     0
 43
0.0
 10
-8.2
 20
-30.0
 10
-10.0
 20
-30.0
 10
-10.0
 20
-62.0
  0
INSERT
  5
2D0
100
AcDbEntity
  8
GLAS_MED_FOGNING
100
AcDbBlockReference
  2
*X0
 10
-275.0
 20
83.0
 30
0.0
1001
ACAD
1000
HATCH
1002
{
1070
    16
1000
DASH
1040
25.0
1040
3.752458
1002
}
  0
LWPOLYLINE
  5
2FB
100
AcDbEntity
  8
STALPROFIL
100
AcDbPolyline
 90
        2
 70
     0
 43
3.0
 10
-10.0
 20
-63.5
 10
30.0
 20
-63.5
  0
LINE
  5
2FC
100
AcDbEntity
  8
SPKONTUR
100
AcDbLine
 10
-10.0
 20
-65.0
 30
0.0
 11
30.0
 21
-65.0
 31
0.0
  0
LINE
  5
2FD
100
AcDbEntity
  8
GLAS_MED_FOGNING
100
AcDbLine
 10
10.0
 20
-62.0
 30
0.0
 11
-10.0
 21
-62.0
 31
0.0
  0
LWPOLYLINE
  5
2FE
100
AcDbEntity
  8
STALPROFIL
100
AcDbPolyline
 90
        8
 70
     1
 43
1.8
 10
-8.2
 20
-29.1
 42
-0.414214
 10
-9.1
 20
-28.2
 10
-9.1
 20
-1.8
 42
-0.414214
 10
-8.2
 20
-0.9
 10
8.2
 20
-0.9
 42
-0.414214
 10
9.1
 20
-1.8
 10
9.1
 20
-28.2
 42
-0.414214
 10
8.2
 20
-29.1
  0
LWPOLYLINE
  5
2FF
100
AcDbEntity
  8
SPKONTUR
100
AcDbPolyline
 90
        8
 70
     1
 43
0.0
 10
-8.2
 20
-30.0
 42
-0.414214
 10
-10.0
 20
-28.2
 10
-10.0
 20
-1.8
 42
-0.414214
 10
-8.2
 20
0.0
 10
8.2
 20
0.0
 42
-0.414214
 10
10.0
 20
-1.8
 10
10.0
 20
-28.2
 42
-0.414214
 10
8.2
 20
-30.0
  0
LINE
  5
300
100
AcDbEntity
  8
GLAS_MED_FOGNING
100
AcDbLine
 10
10.0
 20
-30.0
 30
0.0
 11
-10.0
 21
-30.0
 31
0.0
  0
ENDBLK
  5
302
100
AcDbEntity
  8
0
100
AcDbBlockEnd
  0
BLOCK
  5
30F
100
AcDbEntity
  8
0
100
AcDbBlockBegin
  2
SP76522_720_32
 70
     0
 10
0.0
 20
0.0
 30
0.0
  3
SP76522_720_32
  1

  0
LINE
  5
305
100
AcDbEntity
  8
GLAS_MED_FOGNING
100
AcDbLine
 10
10.0
 20
-30.0
 30
0.0
 11
10.0
 21
-62.0
 31
0.0
  0
LWPOLYLINE
  5
306
100
AcDbEntity
  8
GLAS_MED_FOGNING
100
AcDbPolyline
 90
        3
 70
     0
 43
0.0
 10
8.2
 20
-30.0
 10
10.0
 20
-30.0
 10
10.0
 20
-62.0
  0
LWPOLYLINE
  5
307
100
AcDbEntity
  8
GLAS_MED_FOGNING
100
AcDbPolyline
 90
        3
 70
     0
 43
0.0
 10
-8.2
 20
-30.0
 10
-10.0
 20
-30.0
 10
-10.0
 20
-62.0
  0
INSERT
  5
308
100
AcDbEntity
  8
GLAS_MED_FOGNING
100
AcDbBlockReference
  2
*X0
 10
-275.0
 20
83.0
 30
0.0
1001
ACAD
1000
HATCH
1002
{
1070
    16
1000
DASH
1040
25.0
1040
3.752458
1002
}
  0
LWPOLYLINE
  5
309
100
AcDbEntity
  8
STALPROFIL
100
AcDbPolyline
 90
        2
 70
     0
 43
3.0
 10
-30.0
 20
-63.5
 10
30.0
 20
-63.5
  0
LINE
  5
30A
100
AcDbEntity
  8
SPKONTUR
100
AcDbLine
 10
-30.0
 20
-65.0
 30
0.0
 11
30.0
 21
-65.0
 31
0.0
  0
LINE
  5
30B
100
AcDbEntity
  8
GLAS_MED_FOGNING
100
AcDbLine
 10
10.0
 20
-62.0
 30
0.0
 11
-10.0
 21
-62.0
 31
0.0
  0
LINE
  5
30C
100
AcDbEntity
  8
GLAS_MED_FOGNING
100
AcDbLine
 10
-10.0
 20
-30.0
 30
0.0
 11
10.0
 21
-30.0
 31
0.0
  0
LWPOLYLINE
  5
30D
100
AcDbEntity
  8
STALPROFIL
100
AcDbPolyline
 90
        8
 70
     1
 43
1.8
 10
-8.2
 20
-29.1
 42
-0.414214
 10
-9.1
 20
-28.2
 10
-9.1
 20
-1.8
 42
-0.414214
 10
-8.2
 20
-0.9
 10
8.2
 20
-0.9
 42
-0.414214
 10
9.1
 20
-1.8
 10
9.1
 20
-28.2
 42
-0.414214
 10
8.2
 20
-29.1
  0
LWPOLYLINE
  5
30E
100
AcDbEntity
  8
SPKONTUR
100
AcDbPolyline
 90
        8
 70
     1
 43
0.0
 10
-8.2
 20
-30.0
 42
-0.414214
 10
-10.0
 20
-28.2
 10
-10.0
 20
-1.8
 42
-0.414214
 10
-8.2
 20
0.0
 10
8.2
 20
0.0
 42
-0.414214
 10
10.0
 20
-1.8
 10
10.0
 20
-28.2
 42
-0.414214
 10
8.2
 20
-30.0
  0
ENDBLK
  5
310
100
AcDbEntity
  8
0
100
AcDbBlockEnd
  0
BLOCK
  5
171
100
AcDbEntity
  8
0
100
AcDbBlockBegin
  2
SP76521_7180_32
 70
     0
 10
0.0
 20
0.0
 30
0.0
  3
SP76521_7180_32
  1

  0
LINE
  5
24
100
AcDbEntity
  8
SPKONTUR
100
AcDbLine
 10
-155.0
 20
-65.0
 30
0.0
 11
45.0
 21
-65.0
 31
0.0
  0
LWPOLYLINE
  5
26
100
AcDbEntity
  8
STALPROFIL
100
AcDbPolyline
 90
        2
 70
     0
 43
3.0
 10
-155.0
 20
-63.5
 10
45.0
 20
-63.5
  0
LWPOLYLINE
  5
28
100
AcDbEntity
  8
STALPROFIL
100
AcDbPolyline
 90
        9
 70
     0
 43
1.8
 10
-153.2
 20
-29.1
 42
-0.414214
 10
-154.1
 20
-28.2
 10
-154.1
 20
-1.8
 42
-0.414214
 10
-153.2
 20
-0.9
 10
23.2
 20
-0.9
 42
-0.414214
 10
24.1
 20
-1.8
 10
24.1
 20
-28.2
 42
-0.414214
 10
23.2
 20
-29.1
 10
10.0
 20
-29.1
 42
-0.071574
  0
LWPOLYLINE
  5
29
100
AcDbEntity
  8
SPKONTUR
100
AcDbPolyline
 90
        9
 70
     0
 43
0.0
 10
-153.2
 20
-30.0
 42
-0.414214
 10
-155.0
 20
-28.2
 10
-155.0
 20
-1.8
 42
-0.414214
 10
-153.2
 20
0.0
 10
23.2
 20
0.0
 42
-0.414214
 10
25.0
 20
-1.8
 10
25.0
 20
-28.2
 42
-0.414214
 10
23.2
 20
-30.0
 10
10.0
 20
-30.0
 42
-0.071574
  0
LINE
  5
2A
100
AcDbEntity
  8
GLAS_MED_FOGNING
100
AcDbLine
 10
25.0
 20
-62.0
 30
0.0
 11
-155.0
 21
-62.0
 31
0.0
  0
LINE
  5
2B
100
AcDbEntity
  8
GLAS_MED_FOGNING
100
AcDbLine
 10
-155.0
 20
-30.0
 30
0.0
 11
25.0
 21
-30.0
 31
0.0
  0
INSERT
  5
2C
100
AcDbEntity
  8
GLAS_MED_FOGNING
100
AcDbBlockReference
  2
*X1
 10
185.0
 20
-400.0
 30
0.0
1001
ACAD
1000
HATCH
1002
{
1070
    16
1000
DASH
1040
25.0
1040
3.752458
1002
}
  0
LWPOLYLINE
  5
16C
100
AcDbEntity
  8
GLAS_MED_FOGNING
100
AcDbPolyline
 90
        3
 70
     0
 43
0.0
 10
-153.2
 20
-30.0
 10
-155.0
 20
-30.0
 10
-155.0
 20
-62.0
  0
LWPOLYLINE
  5
16D
100
AcDbEntity
  8
SPKONTUR
100
AcDbPolyline
 90
        2
 70
     0
 43
0.0
 10
-140.0
 20
-30.0
 10
-153.2
 20
-30.0
 42
-0.728012
  0
LWPOLYLINE
  5
16E
100
AcDbEntity
  8
STALPROFIL
100
AcDbPolyline
 90
        2
 70
     0
 43
1.8
 10
-140.0
 20
-29.1
 10
-153.2
 20
-29.1
 42
-0.728012
  0
LWPOLYLINE
  5
16F
100
AcDbEntity
  8
GLAS_MED_FOGNING
100
AcDbPolyline
 90
        3
 70
     0
 43
0.0
 10
23.2
 20
-30.0
 10
25.0
 20
-30.0
 10
25.0
 20
-62.0
  0
LINE
  5
170
100
AcDbEntity
  8
GLAS_MED_FOGNING
100
AcDbLine
 10
25.0
 20
-30.0
 30
0.0
 11
25.0
 21
-62.0
 31
0.0
  0
ENDBLK
  5
172
100
AcDbEntity
  8
0
100
AcDbBlockEnd
  0
BLOCK
  5
2C0
100
AcDbEntity
  8
0
100
AcDbBlockBegin
  2
SP76522_7180_32
 70
     0
 10
0.0
 20
0.0
 30
0.0
  3
SP76522_7180_32
  1

  0
LWPOLYLINE
  5
176
100
AcDbEntity
  8
GLAS_MED_FOGNING
100
AcDbPolyline
 90
        3
 70
     0
 43
0.0
 10
23.2
 20
-30.0
 10
25.0
 20
-30.0
 10
25.0
 20
-62.0
  0
LINE
  5
177
100
AcDbEntity
  8
GLAS_MED_FOGNING
100
AcDbLine
 10
25.0
 20
-62.0
 30
0.0
 11
-155.0
 21
-62.0
 31
0.0
  0
INSERT
  5
178
100
AcDbEntity
  8
GLAS_MED_FOGNING
100
AcDbBlockReference
  2
*X2
 10
175.0
 20
-295.0
 30
0.0
1001
ACAD
1000
HATCH
1002
{
1070
    16
1000
DASH
1040
25.0
1040
3.752458
1002
}
  0
LWPOLYLINE
  5
2B7
100
AcDbEntity
  8
STALPROFIL
100
AcDbPolyline
 90
        2
 70
     0
 43
3.0
 10
-175.0
 20
-63.5
 10
45.0
 20
-63.5
  0
LINE
  5
2B8
100
AcDbEntity
  8
SPKONTUR
100
AcDbLine
 10
-175.0
 20
-65.0
 30
0.0
 11
45.0
 21
-65.0
 31
0.0
  0
LWPOLYLINE
  5
2B9
100
AcDbEntity
  8
GLAS_MED_FOGNING
100
AcDbPolyline
 90
        3
 70
     0
 43
0.0
 10
-153.2
 20
-30.0
 10
-155.0
 20
-30.0
 10
-155.0
 20
-62.0
  0
LINE
  5
2BA
100
AcDbEntity
  8
GLAS_MED_FOGNING
100
AcDbLine
 10
25.0
 20
-30.0
 30
0.0
 11
25.0
 21
-62.0
 31
0.0
  0
LWPOLYLINE
  5
2BB
100
AcDbEntity
  8
SPKONTUR
100
AcDbPolyline
 90
        9
 70
     0
 43
0.0
 10
-153.2
 20
-30.0
 42
-0.414214
 10
-155.0
 20
-28.2
 10
-155.0
 20
-1.8
 42
-0.414214
 10
-153.2
 20
0.0
 10
23.2
 20
0.0
 42
-0.414214
 10
25.0
 20
-1.8
 10
25.0
 20
-28.2
 42
-0.414214
 10
23.2
 20
-30.0
 10
10.0
 20
-30.0
 42
-0.071574
  0
LWPOLYLINE
  5
2BC
100
AcDbEntity
  8
STALPROFIL
100
AcDbPolyline
 90
        9
 70
     0
 43
1.8
 10
-153.2
 20
-29.1
 42
-0.414214
 10
-154.1
 20
-28.2
 10
-154.1
 20
-1.8
 42
-0.414214
 10
-153.2
 20
-0.9
 10
23.2
 20
-0.9
 42
-0.414214
 10
24.1
 20
-1.8
 10
24.1
 20
-28.2
 42
-0.414214
 10
23.2
 20
-29.1
 10
10.0
 20
-29.1
 42
-0.071574
  0
LINE
  5
2BD
100
AcDbEntity
  8
GLAS_MED_FOGNING
100
AcDbLine
 10
-155.0
 20
-30.0
 30
0.0
 11
25.0
 21
-30.0
 31
0.0
  0
LWPOLYLINE
  5
2BE
100
AcDbEntity
  8
STALPROFIL
100
AcDbPolyline
 90
        2
 70
     0
 43
1.8
 10
-140.0
 20
-29.1
 10
-153.2
 20
-29.1
 42
-0.728012
  0
LWPOLYLINE
  5
2BF
100
AcDbEntity
  8
SPKONTUR
100
AcDbPolyline
 90
        2
 70
     0
 43
0.0
 10
-140.0
 20
-30.0
 10
-153.2
 20
-30.0
 42
-0.728012
  0
ENDBLK
  5
2C1
100
AcDbEntity
  8
0
100
AcDbBlockEnd
  0
ENDSEC
  0
SECTION
  2
ENTITIES
  0
LWPOLYLINE
  5
1E
100
AcDbEntity
  8
RAM
 62
     5
100
AcDbPolyline
 90
        4
 70
     1
 43
0.0
 10
-20.0
 20
35.0
 10
-20.0
 20
560.0
 10
-380.0
 20
560.0
 10
-380.0
 20
35.0
  0
LINE
  5
20
100
AcDbEntity
  8
RAM
  6
DASHDOT
 62
     6
100
AcDbLine
 10
-260.0
 20
307.5
 30
0.0
 11
-260.0
 21
287.5
 31
0.0
  0
INSERT
  5
22
100
AcDbEntity
  8
GLAS_MED_FOGNING
100
AcDbBlockReference
  2
SP76521_7180_32
 10
-195.0
 20
265.0
 30
0.0
  0
INSERT
  5
174
100
AcDbEntity
  8
GLAS_MED_FOGNING
100
AcDbBlockReference
  2
SP76522_7180_32
 10
-195.0
 20
140.0
 30
0.0
  0
TEXT
  5
2C2
100
AcDbEntity
  8
0
  6
BYBLOCK
 62
     6
100
AcDbText
 10
-295.774023
 20
123.0
 30
0.0
 40
5.25
  1
%%USP 76522/7180/32
 41
0.8
  7
ROMANS
 72
     4
 11
-263.789023
 21
125.25
 31
0.0
100
AcDbText
  0
LINE
  5
2C4
100
AcDbEntity
  8
RAM
  6
DASHDOT
 62
     6
100
AcDbLine
 10
-260.0
 20
177.5
 30
0.0
 11
-260.0
 21
157.5
 31
0.0
  0
LINE
  5
2C5
100
AcDbEntity
  8
RAM
  6
DASHDOT
 62
     6
100
AcDbLine
 10
-270.0
 20
167.5
 30
0.0
 11
-250.0
 21
167.5
 31
0.0
  0
TEXT
  5
2C6
100
AcDbEntity
  8
0
  6
BYBLOCK
 62
     6
100
AcDbText
 10
-295.774023
 20
248.0
 30
0.0
 40
5.25
  1
%%USP 76521/7180/32
 41
0.8
  7
ROMANS
 72
     4
 11
-263.789023
 21
250.25
 31
0.0
100
AcDbText
  0
LINE
  5
2C7
100
AcDbEntity
  8
RAM
  6
DASHDOT
 62
     6
100
AcDbLine
 10
-270.0
 20
297.5
 30
0.0
 11
-250.0
 21
297.5
 31
0.0
  0
TEXT
  5
2C8
100
AcDbEntity
  8
TEXT
100
AcDbText
 10
-82.142857
 20
40.0
 30
0.0
 40
5.0
  1
SP 76500  %%UPAGE8
 41
0.8
  7
ROMANS
 72
     2
 11
-25.0
 21
40.0
 31
0.0
100
AcDbText
  0
TEXT
  5
2CA
100
AcDbEntity
  8
TEXT
100
AcDbText
 10
-89.0
 20
25.0
 30
0.0
 40
5.0
  1
File name %%U765PAGE8
 41
0.8
  7
ROMANS
 72
     2
 11
-25.0
 21
25.0
 31
0.0
100
AcDbText
  0
INSERT
  5
2CB
100
AcDbEntity
  8
GLAS_MED_FOGNING
100
AcDbBlockReference
  2
SP76521_720_32
 10
-315.0
 20
525.0
 30
0.0
  0
INSERT
  5
303
100
AcDbEntity
  8
GLAS_MED_FOGNING
100
AcDbBlockReference
  2
SP76522_720_32
 10
-205.0
 20
525.0
 30
0.0
  0
TEXT
  5
311
100
AcDbEntity
  8
0
  6
BYBLOCK
 62
     6
100
AcDbText
 10
-292.4
 20
470.980782
 30
0.0
 40
4.2
  1
%%USP 76521/720/32
 50
90.0
 41
0.8
  7
ROMANS
 72
     4
 11
-294.2
 21
494.968782
 31
0.0
100
AcDbText
  0
TEXT
  5
312
100
AcDbEntity
  8
0
  6
BYBLOCK
 62
     6
100
AcDbText
 10
-182.4
 20
471.980782
 30
0.0
 40
4.2
  1
%%USP 76522/720/32
 50
90.0
 41
0.8
  7
ROMANS
 72
     4
 11
-184.2
 21
495.968782
 31
0.0
100
AcDbText
  0
LINE
  5
313
100
AcDbEntity
  8
RAM
  6
DASHDOT
 62
     6
100
AcDbLine
 10
-260.0
 20
437.5
 30
0.0
 11
-260.0
 21
417.5
 31
0.0
  0
LINE
  5
314
100
AcDbEntity
  8
RAM
  6
DASHDOT
 62
     6
100
AcDbLine
 10
-270.0
 20
427.5
 30
0.0
 11
-250.0
 21
427.5
 31
0.0
  0
ENDSEC
  0
SECTION
  2
OBJECTS
  0
DICTIONARY
  5
1A
100
AcDbDictionary
  3
ACAD_GROUP
350
18
  3
ACAD_LAYOUT
350
318
  3
ACAD_MLINESTYLE
350
19
  3
ACAD_PLOTSETTINGS
350
319
  3
ACAD_PLOTSTYLENAME
350
316
  3
ACDBHEADERROUNDTRIPXREC
350
322
  0
DICTIONARY
  5
320
100
AcDbDictionary
280
     1
  3
ACAD_XREC_ROUNDTRIP
360
321
  0
DICTIONARY
  5
342
100
AcDbDictionary
280
     1
  3
ACAD_LAYOUTSELFREF
360
343
  0
DICTIONARY
  5
344
100
AcDbDictionary
280
     1
  3
ACAD_LAYOUTSELFREF
360
345
  0
DICTIONARY
  5
18
102
{ACAD_REACTORS
330
1A
102
}
100
AcDbDictionary
  0
DICTIONARY
  5
318
102
{ACAD_XDICTIONARY
360
34A
102
}
102
{ACAD_REACTORS
330
1A
102
}
100
AcDbDictionary
  3
LAYOUT1
350
31B
  3
MODEL
350
31A
  0
DICTIONARY
  5
19
102
{ACAD_REACTORS
330
1A
102
}
100
AcDbDictionary
  3
STANDARD
350
1C
  0
DICTIONARY
  5
319
102
{ACAD_REACTORS
330
1A
102
}
100
AcDbDictionary
  0
ACAD_PROXY_OBJECT
  5
316
102
{ACAD_REACTORS
330
1A
102
}
100
AcDbProxyObject
 90
      499
 91
      501
 93
       86
310
405010041939BDC9B585B0
350
317
340
317
 94
        0
  0
DICTIONARY
  5
322
102
{ACAD_REACTORS
330
1A
102
}
100
AcDbDictionary
  3
CEPSNTYPE
350
32C
  3
FINGERPRINTGUID
350
32D
  3
HYPERLINKBASE
350
325
  3
INSUNITS
350
32B
  3
LAYOUTDICT
350
327
  3
LWETCUNION
350
32A
  3
PLOTSETDICT
350
328
  3
PLOTSTYLNAMDICT
350
329
  3
PSVPSCALE
350
32F
  3
PUCSBASE
350
332
  3
PUCSORGBACK
350
338
  3
PUCSORGBOTTOM
350
334
  3
PUCSORGFRONT
350
337
  3
PUCSORGLEFT
350
335
  3
PUCSORGRIGHT
350
336
  3
PUCSORGTOP
350
333
  3
PUCSORTHOREF
350
330
  3
PUCSORTHOVIEW
350
331
  3
STYLESHEET
350
326
  3
TSTACKALIGN
350
323
  3
TSTACKSIZE
350
324
  3
UCSBASE
350
33B
  3
UCSORGBACK
350
341
  3
UCSORGBOTTOM
350
33D
  3
UCSORGFRONT
350
340
  3
UCSORGLEFT
350
33E
  3
UCSORGRIGHT
350
33F
  3
UCSORGTOP
350
33C
  3
UCSORTHOREF
350
339
  3
UCSORTHOVIEW
350
33A
  3
VERSIONGUID
350
32E
  0
XRECORD
  5
321
102
{ACAD_REACTORS
330
320
102
}
100
AcDbXrecord
102
EXTNAMES
  1
*ACTIVE
  2
*Active
102
UCS
 74
     0
 71
     1
 10
0.0
 20
0.0
 30
0.0
 10
1.0
 20
0.0
 30
0.0
 10
0.0
 20
1.0
 30
0.0
146
0.0
 79
     0
102
VIEW
281
     0
  0
XRECORD
  5
343
102
{ACAD_REACTORS
330
342
102
}
100
AcDbXrecord
340
2
  0
XRECORD
  5
345
102
{ACAD_REACTORS
330
344
102
}
100
AcDbXrecord
340
7
  0
DICTIONARY
  5
34A
100
AcDbDictionary
280
     1
  3
ACAD_XREC_ROUNDTRIP
360
34B
  0
ACAD_PROXY_OBJECT
  5
31B
102
{ACAD_REACTORS
330
318
102
}
100
AcDbProxyObject
 90
      499
 91
      503
 93
     1092
310
91D4850204C617365724A65742034562F344D5620506F73745363726970742C00AAAAAA416AA591069074C61796F75743140501A800000000000000000000000000000000000000000101E900000000000241C902A6A6A10232D5E076BC5510408CB5781DAF154410232D5E076BC5510408CB5781DAF15C410232D5E076BC5
310
710408CB5781DAF15C40
330
7
330
0
340
0
340
0
 94
        0
  0
ACAD_PROXY_OBJECT
  5
31A
102
{ACAD_REACTORS
330
318
102
}
100
AcDbProxyObject
 90
      499
 91
      503
 93
      668
310
91D4850204C617365724A65742034562F344D5620506F73745363726970742C01AAAAAAAAA5A69054D6F64656C901A800000000000000000000000000000000000000000000A1000000000000008902A6A6AAAA2
330
2
330
0
340
0
340
0
 94
        0
  0
MLINESTYLE
  5
1C
102
{ACAD_REACTORS
330
19
102
}
100
AcDbMlineStyle
  2
STANDARD
 70
     0
  3

 62
     0
 51
90.0
 52
90.0
 71
     2
 49
0.5
 62
   256
  6
BYLAYER
 49
-0.5
 62
   256
  6
BYLAYER
  0
ACAD_PROXY_OBJECT
  5
317
102
{ACAD_REACTORS
330
316
102
}
100
AcDbProxyObject
 90
      499
 91
      502
 93
        0
 94
        0
  0
XRECORD
  5
32C
102
{ACAD_REACTORS
330
322
102
}
100
AcDbXrecord
 90
        0
  0
XRECORD
  5
32D
102
{ACAD_REACTORS
330
322
102
}
100
AcDbXrecord
  1
{DCFA0A8A-0BE8-11D6-AA0B-00D0B7E2A69D}
  0
XRECORD
  5
325
102
{ACAD_REACTORS
330
322
102
}
100
AcDbXrecord
  1

  0
XRECORD
  5
32B
102
{ACAD_REACTORS
330
322
102
}
100
AcDbXrecord
 90
        0
  0
XRECORD
  5
327
102
{ACAD_REACTORS
330
322
102
}
100
AcDbXrecord
340
318
  0
XRECORD
  5
32A
102
{ACAD_REACTORS
330
322
102
}
100
AcDbXrecord
 90
    14877
  0
XRECORD
  5
328
102
{ACAD_REACTORS
330
322
102
}
100
AcDbXrecord
340
319
  0
XRECORD
  5
329
102
{ACAD_REACTORS
330
322
102
}
100
AcDbXrecord
340
316
  0
XRECORD
  5
32F
102
{ACAD_REACTORS
330
322
102
}
100
AcDbXrecord
 40
0.0
  0
XRECORD
  5
332
102
{ACAD_REACTORS
330
322
102
}
100
AcDbXrecord
340
0
  0
XRECORD
  5
338
102
{ACAD_REACTORS
330
322
102
}
100
AcDbXrecord
 10
0.0
 20
0.0
 30
0.0
  0
XRECORD
  5
334
102
{ACAD_REACTORS
330
322
102
}
100
AcDbXrecord
 10
0.0
 20
0.0
 30
0.0
  0
XRECORD
  5
337
102
{ACAD_REACTORS
330
322
102
}
100
AcDbXrecord
 10
0.0
 20
0.0
 30
0.0
  0
XRECORD
  5
335
102
{ACAD_REACTORS
330
322
102
}
100
AcDbXrecord
 10
0.0
 20
0.0
 30
0.0
  0
XRECORD
  5
336
102
{ACAD_REACTORS
330
322
102
}
100
AcDbXrecord
 10
0.0
 20
0.0
 30
0.0
  0
XRECORD
  5
333
102
{ACAD_REACTORS
330
322
102
}
100
AcDbXrecord
 10
0.0
 20
0.0
 30
0.0
  0
XRECORD
  5
330
102
{ACAD_REACTORS
330
322
102
}
100
AcDbXrecord
340
0
  0
XRECORD
  5
331
102
{ACAD_REACTORS
330
322
102
}
100
AcDbXrecord
 70
     0
  0
XRECORD
  5
326
102
{ACAD_REACTORS
330
322
102
}
100
AcDbXrecord
  1

  0
XRECORD
  5
323
102
{ACAD_REACTORS
330
322
102
}
100
AcDbXrecord
 90
        1
  0
XRECORD
  5
324
102
{ACAD_REACTORS
330
322
102
}
100
AcDbXrecord
 90
       70
  0
XRECORD
  5
33B
102
{ACAD_REACTORS
330
322
102
}
100
AcDbXrecord
340
0
  0
XRECORD
  5
341
102
{ACAD_REACTORS
330
322
102
}
100
AcDbXrecord
 10
0.0
 20
0.0
 30
0.0
  0
XRECORD
  5
33D
102
{ACAD_REACTORS
330
322
102
}
100
AcDbXrecord
 10
0.0
 20
0.0
 30
0.0
  0
XRECORD
  5
340
102
{ACAD_REACTORS
330
322
102
}
100
AcDbXrecord
 10
0.0
 20
0.0
 30
0.0
  0
XRECORD
  5
33E
102
{ACAD_REACTORS
330
322
102
}
100
AcDbXrecord
 10
0.0
 20
0.0
 30
0.0
  0
XRECORD
  5
33F
102
{ACAD_REACTORS
330
322
102
}
100
AcDbXrecord
 10
0.0
 20
0.0
 30
0.0
  0
XRECORD
  5
33C
102
{ACAD_REACTORS
330
322
102
}
100
AcDbXrecord
 10
0.0
 20
0.0
 30
0.0
  0
XRECORD
  5
339
102
{ACAD_REACTORS
330
322
102
}
100
AcDbXrecord
340
0
  0
XRECORD
  5
33A
102
{ACAD_REACTORS
330
322
102
}
100
AcDbXrecord
 70
     0
  0
XRECORD
  5
32E
102
{ACAD_REACTORS
330
322
102
}
100
AcDbXrecord
  1
{DCFA0A8C-0BE8-11D6-AA0B-00D0B7E2A69D}
  0
XRECORD
  5
34B
102
{ACAD_REACTORS
330
34A
102
}
100
AcDbXrecord
102
EXTNAMES
  1
LAYOUT1
  2
Layout1
  1
MODEL
  2
Model
  0
ENDSEC
  0
EOF
