  0
SECTION
  2
HEADER
  9
$ACADVER
  1
AC1014
  9
$ACADMAINTVER
 70
     0
  9
$DWGCODEPAGE
  3
ANSI_1252
  9
$INSBASE
 10
-5.0
 20
20.0
 30
0.0
  9
$EXTMIN
 10
-380.0
 20
24.0
 30
0.0
  9
$EXTMAX
 10
-20.0
 20
560.0
 30
0.0
  9
$LIMMIN
 10
0.0
 20
0.0
  9
$LIMMAX
 10
840.0
 20
600.0
  9
$ORTHOMODE
 70
     0
  9
$REGENMODE
 70
     1
  9
$FILLMODE
 70
     1
  9
$QTEXTMODE
 70
     0
  9
$MIRRTEXT
 70
     1
  9
$DRAGMODE
 70
     2
  9
$LTSCALE
 40
5.0
  9
$OSMODE
 70
   547
  9
$ATTMODE
 70
     1
  9
$TEXTSIZE
 40
3.15
  9
$TRACEWID
 40
0.05
  9
$TEXTSTYLE
  7
STANDARD
  9
$CLAYER
  8
GLAS_MED_FOGNING
  9
$CELTYPE
  6
BYLAYER
  9
$CECOLOR
 62
   256
  9
$CELTSCALE
 40
1.0
  9
$DELOBJ
 70
     1
  9
$DISPSILH
 70
     0
  9
$DIMSCALE
 40
1.0
  9
$DIMASZ
 40
0.0
  9
$DIMEXO
 40
1.0
  9
$DIMDLI
 40
10.0
  9
$DIMRND
 40
0.0
  9
$DIMDLE
 40
0.0
  9
$DIMEXE
 40
2.0
  9
$DIMTP
 40
0.0
  9
$DIMTM
 40
0.0
  9
$DIMTXT
 40
3.5
  9
$DIMCEN
 40
2.5
  9
$DIMTSZ
 40
1.0
  9
$DIMTOL
 70
     0
  9
$DIMLIM
 70
     0
  9
$DIMTIH
 70
     0
  9
$DIMTOH
 70
     0
  9
$DIMSE1
 70
     0
  9
$DIMSE2
 70
     0
  9
$DIMTAD
 70
     1
  9
$DIMZIN
 70
     8
  9
$DIMBLK
  1

  9
$DIMASO
 70
     1
  9
$DIMSHO
 70
     1
  9
$DIMPOST
  1

  9
$DIMAPOST
  1

  9
$DIMALT
 70
     0
  9
$DIMALTD
 70
     2
  9
$DIMALTF
 40
25.4
  9
$DIMLFAC
 40
1.0
  9
$DIMTOFL
 70
     1
  9
$DIMTVP
 40
0.0
  9
$DIMTIX
 70
     0
  9
$DIMSOXD
 70
     0
  9
$DIMSAH
 70
     0
  9
$DIMBLK1
  1

  9
$DIMBLK2
  1

  9
$DIMSTYLE
  2
STANDARD
  9
$DIMCLRD
 70
     0
  9
$DIMCLRE
 70
     0
  9
$DIMCLRT
 70
     6
  9
$DIMTFAC
 40
1.0
  9
$DIMGAP
 40
0.1
  9
$DIMJUST
 70
     0
  9
$DIMSD1
 70
     0
  9
$DIMSD2
 70
     0
  9
$DIMTOLJ
 70
     1
  9
$DIMTZIN
 70
     0
  9
$DIMALTZ
 70
     0
  9
$DIMALTTZ
 70
     0
  9
$DIMFIT
 70
     3
  9
$DIMUPT
 70
     0
  9
$DIMUNIT
 70
     2
  9
$DIMDEC
 70
     4
  9
$DIMTDEC
 70
     4
  9
$DIMALTU
 70
     2
  9
$DIMALTTD
 70
     2
  9
$DIMTXSTY
  7
STANDARD
  9
$DIMAUNIT
 70
     0
  9
$LUNITS
 70
     2
  9
$LUPREC
 70
     2
  9
$SKETCHINC
 40
0.1
  9
$FILLETRAD
 40
0.5
  9
$AUNITS
 70
     0
  9
$AUPREC
 70
     4
  9
$MENU
  1
acad
  9
$ELEVATION
 40
0.0
  9
$PELEVATION
 40
0.0
  9
$THICKNESS
 40
0.0
  9
$LIMCHECK
 70
     0
  9
$BLIPMODE
 70
     0
  9
$CHAMFERA
 40
10.0
  9
$CHAMFERB
 40
10.0
  9
$CHAMFERC
 40
0.0
  9
$CHAMFERD
 40
0.0
  9
$SKPOLY
 70
     0
  9
$TDCREATE
 40
2450609.896149421
  9
$TDUPDATE
 40
2452293.532489236
  9
$TDINDWG
 40
0.0147567130
  9
$TDUSRTIMER
 40
0.0147567130
  9
$USRTIMER
 70
     1
  9
$ANGBASE
 50
0.0
  9
$ANGDIR
 70
     0
  9
$PDMODE
 70
    35
  9
$PDSIZE
 40
0.0
  9
$PLINEWID
 40
0.0
  9
$COORDS
 70
     1
  9
$SPLFRAME
 70
     0
  9
$SPLINETYPE
 70
     6
  9
$SPLINESEGS
 70
     8
  9
$ATTDIA
 70
     0
  9
$ATTREQ
 70
     1
  9
$HANDLING
 70
     1
  9
$HANDSEED
  5
CAE
  9
$SURFTAB1
 70
     6
  9
$SURFTAB2
 70
     6
  9
$SURFTYPE
 70
     6
  9
$SURFU
 70
     6
  9
$SURFV
 70
     6
  9
$UCSNAME
  2

  9
$UCSORG
 10
0.0
 20
0.0
 30
0.0
  9
$UCSXDIR
 10
1.0
 20
0.0
 30
0.0
  9
$UCSYDIR
 10
0.0
 20
1.0
 30
0.0
  9
$PUCSNAME
  2

  9
$PUCSORG
 10
0.0
 20
0.0
 30
0.0
  9
$PUCSXDIR
 10
1.0
 20
0.0
 30
0.0
  9
$PUCSYDIR
 10
0.0
 20
1.0
 30
0.0
  9
$USERI1
 70
     0
  9
$USERI2
 70
     0
  9
$USERI3
 70
     0
  9
$USERI4
 70
     0
  9
$USERI5
 70
     0
  9
$USERR1
 40
0.0
  9
$USERR2
 40
0.0
  9
$USERR3
 40
0.0
  9
$USERR4
 40
0.0
  9
$USERR5
 40
0.0
  9
$WORLDVIEW
 70
     1
  9
$SHADEDGE
 70
     3
  9
$SHADEDIF
 70
    70
  9
$TILEMODE
 70
     1
  9
$MAXACTVP
 70
    16
  9
$PINSBASE
 10
0.0
 20
0.0
 30
0.0
  9
$PLIMCHECK
 70
     0
  9
$PEXTMIN
 10
1.000000E+20
 20
1.000000E+20
 30
1.000000E+20
  9
$PEXTMAX
 10
-1.000000E+20
 20
-1.000000E+20
 30
-1.000000E+20
  9
$PLIMMIN
 10
0.0
 20
0.0
  9
$PLIMMAX
 10
420.0
 20
297.0
  9
$UNITMODE
 70
     0
  9
$VISRETAIN
 70
     0
  9
$PLINEGEN
 70
     0
  9
$PSLTSCALE
 70
     1
  9
$TREEDEPTH
 70
  3020
  9
$PICKSTYLE
 70
     1
  9
$CMLSTYLE
  2
STANDARD
  9
$CMLJUST
 70
     0
  9
$CMLSCALE
 40
1.0
  9
$PROXYGRAPHICS
 70
     1
  9
$MEASUREMENT
 70
     0
  0
ENDSEC
  0
SECTION
  2
CLASSES
  0
CLASS
  1
LWPOLYLINE
  2
AcDbPolyline
  3
"AutoCAD"
 90
        0
280
     0
281
     1
  0
CLASS
  1
HATCH
  2
AcDbHatch
  3
"ACAD_SEDONA"
 90
        0
280
     0
281
     1
  0
CLASS
  1
ACDBDICTIONARYWDFLT
  2
AcDbDictionaryWithDefault
  3
AutoCAD 2000
 90
        0
280
     0
281
     0
  0
CLASS
  1
ACDBPLACEHOLDER
  2
AcDbPlaceHolder
  3
AutoCAD 2000
 90
        0
280
     0
281
     0
  0
CLASS
  1
LAYOUT
  2
AcDbLayout
  3
AutoCAD 2000
 90
        0
280
     0
281
     0
  0
CLASS
  1
LONG_TRANSACTION
  2
AcDbLongTransaction
  3
AutoCAD 2000
 90
        0
280
     0
281
     0
  0
CLASS
  1
LWPOLYLINE
  2
AcDbPolyline
  3
"AutoCAD"
 90
        0
280
     0
281
     1
  0
CLASS
  1
HATCH
  2
AcDbHatch
  3
"ACAD_SEDONA"
 90
        0
280
     0
281
     1
  0
CLASS
  1
XRECORD
  2
AcDbXrecord
  3
"<Built In>"
 90
        0
280
     0
281
     0
  0
ENDSEC
  0
SECTION
  2
TABLES
  0
TABLE
  2
VPORT
  5
12
100
AcDbSymbolTable
 70
     1
  0
VPORT
  5
C7E
102
{ACAD_XDICTIONARY
360
C7F
102
}
100
AcDbSymbolTableRecord
100
AcDbViewportTableRecord
  2
*ACTIVE
 70
     0
 10
0.0
 20
0.0
 11
1.0
 21
1.0
 12
-109.629947
 22
321.068877
 13
0.0
 23
0.0
 14
5.0
 24
5.0
 15
10.0
 25
10.0
 16
0.0
 26
0.0
 36
1.0
 17
0.0
 27
0.0
 37
0.0
 40
747.794205
 41
1.630435
 42
50.0
 43
0.0
 44
0.0
 50
0.0
 51
0.0
 71
     0
 72
   100
 73
     1
 74
     1
 75
     1
 76
     0
 77
     0
 78
     0
  0
ENDTAB
  0
TABLE
  2
LTYPE
  5
D
100
AcDbSymbolTable
 70
     2
  0
LTYPE
  5
E
100
AcDbSymbolTableRecord
100
AcDbLinetypeTableRecord
  2
BYBLOCK
 70
     0
  3

 72
    65
 73
     0
 40
0.0
  0
LTYPE
  5
F
100
AcDbSymbolTableRecord
100
AcDbLinetypeTableRecord
  2
BYLAYER
 70
     0
  3

 72
    65
 73
     0
 40
0.0
  0
LTYPE
  5
5
100
AcDbSymbolTableRecord
100
AcDbLinetypeTableRecord
  2
CONTINUOUS
 70
     0
  3
Solid line
 72
    65
 73
     0
 40
0.0
  0
LTYPE
  5
23
100
AcDbSymbolTableRecord
100
AcDbLinetypeTableRecord
  2
DASHDOT
 70
     0
  3
__ . __ . __ . __ . __ . __ . __ . __ . __ . __
 72
    65
 73
     4
 40
1.0
 49
0.5
 74
     0
 49
-0.25
 74
     0
 49
0.0
 74
     0
 49
-0.25
 74
     0
  0
ENDTAB
  0
TABLE
  2
LAYER
  5
A
100
AcDbSymbolTable
 70
    14
  0
LAYER
  5
4
100
AcDbSymbolTableRecord
100
AcDbLayerTableRecord
  2
0
 70
     0
 62
     7
  6
CONTINUOUS
  0
LAYER
  5
38
100
AcDbSymbolTableRecord
100
AcDbLayerTableRecord
  2
STALPROFIL
 70
     0
 62
     1
  6
CONTINUOUS
  0
LAYER
  5
36
100
AcDbSymbolTableRecord
100
AcDbLayerTableRecord
  2
SPKONTUR
 70
     0
 62
     7
  6
CONTINUOUS
  0
LAYER
  5
1B
100
AcDbSymbolTableRecord
100
AcDbLayerTableRecord
  2
GLAS_MED_FOGNING
 70
     0
 62
     2
  6
CONTINUOUS
  0
LAYER
  5
51
100
AcDbSymbolTableRecord
100
AcDbLayerTableRecord
  2
TEXT
 70
     0
 62
     6
  6
CONTINUOUS
  0
LAYER
  5
21
100
AcDbSymbolTableRecord
100
AcDbLayerTableRecord
  2
RAM
 70
     0
 62
     5
  6
CONTINUOUS
  0
LAYER
  5
32
100
AcDbSymbolTableRecord
100
AcDbLayerTableRecord
  2
CENTRUM
 70
     0
 62
     3
  6
DASHDOT
  0
LAYER
  5
2F5
100
AcDbSymbolTableRecord
100
AcDbLayerTableRecord
  2
ISOLERING
 70
     0
 62
     3
  6
CONTINUOUS
  0
LAYER
  5
2CD
100
AcDbSymbolTableRecord
100
AcDbLayerTableRecord
  2
FOGNINGB
 70
     0
 62
     5
  6
CONTINUOUS
  0
LAYER
  5
257
100
AcDbSymbolTableRecord
100
AcDbLayerTableRecord
  2
DIMENSION
 70
     0
 62
     2
  6
CONTINUOUS
  0
LAYER
  5
2B6
100
AcDbSymbolTableRecord
100
AcDbLayerTableRecord
  2
DIM
 70
     0
 62
     4
  6
CONTINUOUS
  0
LAYER
  5
2B4
100
AcDbSymbolTableRecord
100
AcDbLayerTableRecord
  2
KON
 70
     0
 62
     8
  6
CONTINUOUS
  0
LAYER
  5
998
100
AcDbSymbolTableRecord
100
AcDbLayerTableRecord
  2
FOGNINGR
 70
     0
 62
     1
  6
CONTINUOUS
  0
LAYER
  5
999
100
AcDbSymbolTableRecord
100
AcDbLayerTableRecord
  2
RAMTEXT
 70
     0
 62
     6
  6
CONTINUOUS
  0
ENDTAB
  0
TABLE
  2
STYLE
  5
B
100
AcDbSymbolTable
 70
     3
  0
STYLE
  5
C
100
AcDbSymbolTableRecord
100
AcDbTextStyleTableRecord
  2
STANDARD
 70
     0
 40
0.0
 41
1.0
 50
0.0
 71
     0
 42
5.0
  3
txt
  4

  0
STYLE
  5
52
100
AcDbSymbolTableRecord
100
AcDbTextStyleTableRecord
  2
ROMANS
 70
     0
 40
0.0
 41
0.8
 50
0.0
 71
     0
 42
5.0
  3
romans
  4

  0
STYLE
  5
99A
100
AcDbSymbolTableRecord
100
AcDbTextStyleTableRecord
  2
SIMPLEX
 70
     0
 40
0.0
 41
1.0
 50
0.0
 71
     0
 42
0.4
  3
simplex
  4

  0
ENDTAB
  0
TABLE
  2
VIEW
  5
10
100
AcDbSymbolTable
 70
     0
  0
ENDTAB
  0
TABLE
  2
UCS
  5
11
100
AcDbSymbolTable
 70
     0
  0
ENDTAB
  0
TABLE
  2
APPID
  5
14
100
AcDbSymbolTable
 70
     5
  0
APPID
  5
15
100
AcDbSymbolTableRecord
100
AcDbRegAppTableRecord
  2
ACAD
 70
     0
  0
APPID
  5
479
100
AcDbSymbolTableRecord
100
AcDbRegAppTableRecord
  2
CONTENTBLOCKDESCRIPTION
 70
     0
  0
APPID
  5
47A
100
AcDbSymbolTableRecord
100
AcDbRegAppTableRecord
  2
CONTENTBLOCKICON
 70
     0
  0
APPID
  5
A1F
100
AcDbSymbolTableRecord
100
AcDbRegAppTableRecord
  2
CONTENTTABDATA
 70
     0
  0
APPID
  5
A20
100
AcDbSymbolTableRecord
100
AcDbRegAppTableRecord
  2
CONTENTCURRENTTAB
 70
     0
  0
ENDTAB
  0
TABLE
  2
DIMSTYLE
  5
16
100
AcDbSymbolTable
 70
     1
  0
DIMSTYLE
105
1D
100
AcDbSymbolTableRecord
100
AcDbDimStyleTableRecord
  2
STANDARD
 70
     0
  3

  4

  5

  6

  7

 40
1.0
 41
0.18
 42
0.0625
 43
0.38
 44
0.18
 45
0.0
 46
0.0
 47
0.0
 48
0.0
140
0.18
141
0.09
142
0.0
143
25.4
144
1.0
145
0.0
146
1.0
147
0.09
 71
     0
 72
     0
 73
     1
 74
     1
 75
     0
 76
     0
 77
     0
 78
     0
170
     0
171
     2
172
     0
173
     0
174
     0
175
     0
176
     0
177
     0
178
     0
270
     2
271
     4
272
     4
273
     2
274
     2
340
C
275
     0
280
     0
281
     0
282
     0
283
     1
284
     0
285
     0
286
     0
287
     3
288
     0
  0
ENDTAB
  0
TABLE
  2
BLOCK_RECORD
  5
1
100
AcDbSymbolTable
 70
    80
  0
BLOCK_RECORD
  5
2
102
{ACAD_XDICTIONARY
360
CA1
102
}
100
AcDbSymbolTableRecord
100
AcDbBlockTableRecord
  2
*MODEL_SPACE
  0
BLOCK_RECORD
  5
7
102
{ACAD_XDICTIONARY
360
CA3
102
}
100
AcDbSymbolTableRecord
100
AcDbBlockTableRecord
  2
*PAPER_SPACE
  0
BLOCK_RECORD
  5
1F
100
AcDbSymbolTableRecord
100
AcDbBlockTableRecord
  2
SIDA
  0
BLOCK_RECORD
  5
3A
100
AcDbSymbolTableRecord
100
AcDbBlockTableRecord
  2
SP40020
  0
BLOCK_RECORD
  5
3D1
100
AcDbSymbolTableRecord
100
AcDbBlockTableRecord
  2
SP44020
  0
BLOCK_RECORD
  5
354
100
AcDbSymbolTableRecord
100
AcDbBlockTableRecord
  2
SP45020
  0
BLOCK_RECORD
  5
7F
100
AcDbSymbolTableRecord
100
AcDbBlockTableRecord
  2
SP41520
  0
BLOCK_RECORD
  5
3A9
100
AcDbSymbolTableRecord
100
AcDbBlockTableRecord
  2
SP42520
  0
BLOCK_RECORD
  5
38B
100
AcDbSymbolTableRecord
100
AcDbBlockTableRecord
  2
SP43020
  0
BLOCK_RECORD
  5
43D
100
AcDbSymbolTableRecord
100
AcDbBlockTableRecord
  2
SP43520
  0
BLOCK_RECORD
  5
34
100
AcDbSymbolTableRecord
100
AcDbBlockTableRecord
  2
SP42020
  0
BLOCK_RECORD
  5
D6
100
AcDbSymbolTableRecord
100
AcDbBlockTableRecord
  2
*X9
  0
BLOCK_RECORD
  5
B0
100
AcDbSymbolTableRecord
100
AcDbBlockTableRecord
  2
*X10
  0
BLOCK_RECORD
  5
AD
100
AcDbSymbolTableRecord
100
AcDbBlockTableRecord
  2
GLASH5
  0
BLOCK_RECORD
  5
435
100
AcDbSymbolTableRecord
100
AcDbBlockTableRecord
  2
65_SP43520DK
  0
BLOCK_RECORD
  5
44D
100
AcDbSymbolTableRecord
100
AcDbBlockTableRecord
  2
*X13
  0
BLOCK_RECORD
  5
D4
100
AcDbSymbolTableRecord
100
AcDbBlockTableRecord
  2
GLASV6_18
  0
BLOCK_RECORD
  5
44A
100
AcDbSymbolTableRecord
100
AcDbBlockTableRecord
  2
65_SP43520
  0
BLOCK_RECORD
  5
3CA
100
AcDbSymbolTableRecord
100
AcDbBlockTableRecord
  2
65_SP44020DK
  0
BLOCK_RECORD
  5
396
100
AcDbSymbolTableRecord
100
AcDbBlockTableRecord
  2
65_SP43020DK
  0
BLOCK_RECORD
  5
3B7
100
AcDbSymbolTableRecord
100
AcDbBlockTableRecord
  2
65_SP42520DK
  0
BLOCK_RECORD
  5
428
100
AcDbSymbolTableRecord
100
AcDbBlockTableRecord
  2
65_SP42020DK
  0
BLOCK_RECORD
  5
18B
100
AcDbSymbolTableRecord
100
AcDbBlockTableRecord
  2
65_SP41520DK
  0
BLOCK_RECORD
  5
13E
100
AcDbSymbolTableRecord
100
AcDbBlockTableRecord
  2
*X21
  0
BLOCK_RECORD
  5
13B
100
AcDbSymbolTableRecord
100
AcDbBlockTableRecord
  2
65_SP41520
  0
BLOCK_RECORD
  5
FC
100
AcDbSymbolTableRecord
100
AcDbBlockTableRecord
  2
*X23
  0
BLOCK_RECORD
  5
41A
100
AcDbSymbolTableRecord
100
AcDbBlockTableRecord
  2
65_SP42020
  0
BLOCK_RECORD
  5
19A
100
AcDbSymbolTableRecord
100
AcDbBlockTableRecord
  2
*X25
  0
BLOCK_RECORD
  5
3A2
100
AcDbSymbolTableRecord
100
AcDbBlockTableRecord
  2
65_SP42520
  0
BLOCK_RECORD
  5
360
100
AcDbSymbolTableRecord
100
AcDbBlockTableRecord
  2
*X27
  0
BLOCK_RECORD
  5
35D
100
AcDbSymbolTableRecord
100
AcDbBlockTableRecord
  2
65_SP43020
  0
BLOCK_RECORD
  5
3FA
100
AcDbSymbolTableRecord
100
AcDbBlockTableRecord
  2
*X29
  0
BLOCK_RECORD
  5
3F7
100
AcDbSymbolTableRecord
100
AcDbBlockTableRecord
  2
65_SP44020
  0
BLOCK_RECORD
  5
5A
100
AcDbSymbolTableRecord
100
AcDbBlockTableRecord
  2
*X31
  0
BLOCK_RECORD
  5
8B
100
AcDbSymbolTableRecord
100
AcDbBlockTableRecord
  2
*X32
  0
BLOCK_RECORD
  5
57
100
AcDbSymbolTableRecord
100
AcDbBlockTableRecord
  2
GLASV4_18
  0
BLOCK_RECORD
  5
86
100
AcDbSymbolTableRecord
100
AcDbBlockTableRecord
  2
GLASH3
  0
BLOCK_RECORD
  5
34B
100
AcDbSymbolTableRecord
100
AcDbBlockTableRecord
  2
65_SP45020DK
  0
BLOCK_RECORD
  5
1D9
100
AcDbSymbolTableRecord
100
AcDbBlockTableRecord
  2
65_40SP41520DK
  0
BLOCK_RECORD
  5
1FE
100
AcDbSymbolTableRecord
100
AcDbBlockTableRecord
  2
*X37
  0
BLOCK_RECORD
  5
1FB
100
AcDbSymbolTableRecord
100
AcDbBlockTableRecord
  2
65_40SP41520
  0
BLOCK_RECORD
  5
3E0
100
AcDbSymbolTableRecord
100
AcDbBlockTableRecord
  2
*X39
  0
BLOCK_RECORD
  5
3DC
100
AcDbSymbolTableRecord
100
AcDbBlockTableRecord
  2
65_SP45020
  0
BLOCK_RECORD
  5
2F8
100
AcDbSymbolTableRecord
100
AcDbBlockTableRecord
  2
SP40520
  0
BLOCK_RECORD
  5
328
100
AcDbSymbolTableRecord
100
AcDbBlockTableRecord
  2
*X42
  0
BLOCK_RECORD
  5
304
100
AcDbSymbolTableRecord
100
AcDbBlockTableRecord
  2
*X43
  0
BLOCK_RECORD
  5
300
100
AcDbSymbolTableRecord
100
AcDbBlockTableRecord
  2
FYLLNV
  0
BLOCK_RECORD
  5
324
100
AcDbSymbolTableRecord
100
AcDbBlockTableRecord
  2
FYLLNH
  0
BLOCK_RECORD
  5
2F3
100
AcDbSymbolTableRecord
100
AcDbBlockTableRecord
  2
65_SP40520FYLLN
  0
BLOCK_RECORD
  5
1CF
100
AcDbSymbolTableRecord
100
AcDbBlockTableRecord
  2
-
1001
CONTENTBLOCKICON
1071
        0
1004
2800000020000000200000000100040000000000000200000000000000000000000000000000000000000000000080000080000000808000800000008000800080800000C0C0C000808080000000FF0000FF000000FFFF00FF000000FF00FF00FFFF0000FFFFFF00FFFFFFFFFFFFFFFFFFFFFFFFFFFFFFFFFFFFFFFFFFFFFF
1004
FFFFFFFFAFFFFFFFFFFFFFFFFFFFFFFFFFFFFFFFAFFFFFFFFFFFFFFFFFFFFFFFFFFFFFBBBBBBFFFFFFFFFFFFFFFFFFFFFFFFFBFFAFFBFFFFFFFFFFFFFFFFFFFFFFFFBBBBBBBBFFFFFFFFFFFFFFFFFFFFFFFFBBFFAFFBFFFFFFFFFFFFFFFFFFFFFFFFBBFFAFFBFFFFFFFFF00000000000000FBBBBBBBBB000FFFF0999999999
1004
999990BBBBBBBBB090FFF09FFFFFFFFFFFFF90BFFFAFFFB9990FF09FFFFFFFFFFFFF9BFFFFFFFFB9990FF09FFFFFFFFFFFF99BFFFFAFFFFB990FF09FFFFFFFFFFFF9BFFFFFAFFFFB990FF09FFFFFFFFFFFFFBBBBBBBBBBBB990FF09FFFFFFFFFFFFFFFFFBBBBBFFF990FF09FFFFFFFFFFFFFFFFFFFAFFFFF990FF09FFFFFFF
1004
FFFFFFFFFFFFAFFFFF990FF09FFFFFFFFFFFFFFFFFFFAFFFFF990FF09FFFFFFFFFFFFFFFFFFFFFFFFF990FF09FFFFFFFFFFFFFFFFFFFFFFFFF990FF09FFFFFFFFFFFFFFFFFFFFFFFFF990FF09FFFFFFFFFFFFFFFFFFFFFFFFF990FF09FFFFFFFFFFFFFFFFFFFFFFFFF990FF09FFFFFFFFFFFFFFFFFFFFFFFFF990FF09FFFFF
1004
FFFFFFFFFFFFFFFFFFFF990FF09FFFFFFFFFFFFFFFFFFFFFFFFF990FF09FFFFFFFFFFFFFFFFFFFFFFFFF990FF09FFFFFFFFFFFFFFFFFFFFFFFFF990FFF0FFFFFFFFFFFFFFFFFFFFFFFFF990FFF0099999999999999999999999900FFFFFF000000000000000000000000FFFF
  0
BLOCK_RECORD
  5
197
100
AcDbSymbolTableRecord
100
AcDbBlockTableRecord
  2
SP42520_2
  0
BLOCK_RECORD
  5
1E7
100
AcDbSymbolTableRecord
100
AcDbBlockTableRecord
  2
SP42520-2_DK
  0
BLOCK_RECORD
  5
47C
100
AcDbSymbolTableRecord
100
AcDbBlockTableRecord
  2
*X50
  0
BLOCK_RECORD
  5
5DB
100
AcDbSymbolTableRecord
100
AcDbBlockTableRecord
  2
*X51
  0
BLOCK_RECORD
  5
633
100
AcDbSymbolTableRecord
100
AcDbBlockTableRecord
  2
*X52
  0
BLOCK_RECORD
  5
691
100
AcDbSymbolTableRecord
100
AcDbBlockTableRecord
  2
GLAS26-5DK
  0
BLOCK_RECORD
  5
6B5
100
AcDbSymbolTableRecord
100
AcDbBlockTableRecord
  2
65_SP42520TRI
  0
BLOCK_RECORD
  5
6D5
100
AcDbSymbolTableRecord
100
AcDbBlockTableRecord
  2
65_SP42520DKTRI
  0
BLOCK_RECORD
  5
6DC
100
AcDbSymbolTableRecord
100
AcDbBlockTableRecord
  2
SP41020
  0
BLOCK_RECORD
  5
6EF
100
AcDbSymbolTableRecord
100
AcDbBlockTableRecord
  2
*X57
  0
BLOCK_RECORD
  5
6FA
100
AcDbSymbolTableRecord
100
AcDbBlockTableRecord
  2
*X58
  0
BLOCK_RECORD
  5
705
100
AcDbSymbolTableRecord
100
AcDbBlockTableRecord
  2
*X59
  0
BLOCK_RECORD
  5
735
100
AcDbSymbolTableRecord
100
AcDbBlockTableRecord
  2
GLAS11-6X5
  0
BLOCK_RECORD
  5
756
100
AcDbSymbolTableRecord
100
AcDbBlockTableRecord
  2
SP41000
  0
BLOCK_RECORD
  5
75B
100
AcDbSymbolTableRecord
100
AcDbBlockTableRecord
  2
*X62
  0
BLOCK_RECORD
  5
75F
100
AcDbSymbolTableRecord
100
AcDbBlockTableRecord
  2
*X63
  0
BLOCK_RECORD
  5
765
100
AcDbSymbolTableRecord
100
AcDbBlockTableRecord
  2
*X64
  0
BLOCK_RECORD
  5
771
100
AcDbSymbolTableRecord
100
AcDbBlockTableRecord
  2
*X65
  0
BLOCK_RECORD
  5
77D
100
AcDbSymbolTableRecord
100
AcDbBlockTableRecord
  2
GLAS30-4X3DK
  0
BLOCK_RECORD
  5
7B3
100
AcDbSymbolTableRecord
100
AcDbBlockTableRecord
  2
65_SP42020TRI
  0
BLOCK_RECORD
  5
7D1
100
AcDbSymbolTableRecord
100
AcDbBlockTableRecord
  2
65_SP42020DKTRI
  0
BLOCK_RECORD
  5
7F5
100
AcDbSymbolTableRecord
100
AcDbBlockTableRecord
  2
65_SP43020TRI
  0
BLOCK_RECORD
  5
815
100
AcDbSymbolTableRecord
100
AcDbBlockTableRecord
  2
65_SP43020DKTRI
  0
BLOCK_RECORD
  5
83A
100
AcDbSymbolTableRecord
100
AcDbBlockTableRecord
  2
65_SP43520TRI
  0
BLOCK_RECORD
  5
85A
100
AcDbSymbolTableRecord
100
AcDbBlockTableRecord
  2
65_SP43520DKTRI
  0
BLOCK_RECORD
  5
87F
100
AcDbSymbolTableRecord
100
AcDbBlockTableRecord
  2
65_SP44020TRI
  0
BLOCK_RECORD
  5
89F
100
AcDbSymbolTableRecord
100
AcDbBlockTableRecord
  2
65_SP44020DKTRI
  0
BLOCK_RECORD
  5
92F
100
AcDbSymbolTableRecord
100
AcDbBlockTableRecord
  2
SP40067
1001
CONTENTBLOCKICON
1071
        0
1004
2800000020000000200000000100040000000000000200000000000000000000000000000000000000000000000080000080000000808000800000008000800080800000C0C0C000808080000000FF0000FF000000FFFF00FF000000FF00FF00FFFF0000FFFFFF00FFFFFFFFFFFF00000000000FFFFFFFFFFFFFFFFFFF0000
1004
0000BBBB0FFFFFFFFFFFFFFFFFFF000FFFFF00BB0FFFFFFFFFFFFFFFFFF0B00FFFFFF0BB0FFFFFFFFFFFFFFFFFFFF00FFFFFF0BB0FFFFFFFFFFFFFFFFFFFF00FFFFFF0BB0FFFFFFFFFFFFFFFFFFF000FFFFFB0BB0FFFFFFFFFFFFFFFFFFFFF80FFF00B0B0FFFFFFFFFFFFFFFFFFFFFB00000FEEB0FFFFFFFFFFFFFFFFFFFFF
1004
FFB00BFEEB0FFFFFFFFFFFFFFFFFFFFFFFFFFFCCEB0FFFFFFFFFFFFFFFFFFFFFFFFFFFCC0B0FFFFFFFFFFFFFFFFFFFFFFFFFFFCC0B0FFFFFFFFFFFFFFFFFFFFFFFFFFFCC0B0FFFFFFFFFFFFFFFFFFFFFFFFFFFCC0B0FFFFFFFFFFFFFFFFFFFFFFFFFFFCE0B0FFFFFFFFFFFFFFFFFFFFFFFFFFFCE0B0FFFFFFFFFFFFFFFFFFF
1004
FFFFFFFFCEEB0FFFFFFFFFFFFFFFFFFFFFFFFFFFCE0B0FFFFFFFFFFFFFFFFFFFFFFFFFFFCEEBBFFFFFFFFFFFFFFFFFFFFFFFFFFFBE0B0FFFFFFFFFFFFFFFFFFFFFFFFFFFFE0B0FFFFFFFFFFFFFFFFFFFFFFFB00BFE0B0FFFFFFFFFFFFFFFFFFFFFB00000BEEB0FFFFFFFFFFFFFFFFFFFFF0FFFFFB00B0FFFFFFFFFFFFFFFFF
1004
FF000FFFFFF0BB0FFFFFFFFFFFFFFFFFFFF00FFFFFFFBB0FFFFFFFFFFFFFFFFFFFF00FFFFFF0BB0FFFFFFFFFFFFFFFFFF0F00FFFFFF0BB0FFFFFFFFFFFFFFFFFFF000FFFF000BB0FFFFFFFFFFFFFFFFFFF0000000BBBBB0FFFFFFFFFFFFFFFFFFFFFF0000000000FFFFFFFFF
  0
BLOCK_RECORD
  5
AE5
100
AcDbSymbolTableRecord
100
AcDbBlockTableRecord
  2
*X76
  0
BLOCK_RECORD
  5
AF7
100
AcDbSymbolTableRecord
100
AcDbBlockTableRecord
  2
*X77
  0
BLOCK_RECORD
  5
B51
100
AcDbSymbolTableRecord
100
AcDbBlockTableRecord
  2
*X78
  0
BLOCK_RECORD
  5
B62
100
AcDbSymbolTableRecord
100
AcDbBlockTableRecord
  2
SP_40067
1001
CONTENTBLOCKICON
1071
        0
1004
2800000020000000200000000100040000000000000200000000000000000000000000000000000000000000000080000080000000808000800000008000800080800000C0C0C000808080000000FF0000FF000000FFFF00FF000000FF00FF00FFFF0000FFFFFF00FFFFFFFFFFBBBBBBBBBBBFFFFFFFFFFFFFFFFFFFFBFBBB
1004
BBBBBBBBFFFFFFFFFFFFFFFFFFFFBBFFFFFFFFBBFFFFFFFFFFFFFFFFFFFFBBFFFFFFFFBBFFFFFFFFFFFFFFFFFFFFBBFFFFFFFFBBFFFFFFFFFFFFFFFFFFFFBBFFFFFFFFBBFFFFFFFFFFFFFFFFFFFFBBFFFFFFFBBFFFFFFFFFFFFFFFFFFFFFBEBBBFFBBFBFFFFFFFFFFFFFFFFFFFFFBEEFBBBBBBBBFFFFFFFFFFFFFFFFFFFFBE
1004
EFFFBBFFFBFFFFFFFFFFFFFFFFFFFFBEEFFFFFFFFFFFFFFFFFFFFFFFFFFFFFBEBCBFFFFFFFFFFFFFFFFFFFFFFFFFFFBECCCFFFFFFFFFFFFFFFFFFFFFFFFFFFBECCCFFFFFFFFFFFFFFFFFFFFFFFFFFFBEBCCFFFFFFFFFFFFFFFFFFFFFFFFFFFBECCCFFFFFFFFFFFFFFFFFFFFFFFFFFFBECCCFFFFFFFFFFFFFFFFFFFFFFFFFFF
1004
BECCCFFFFFFFFFFFFFFFFFFFFFFFFFFFBEBCCFFFFFFFFFFFFFFFFFFFFFFFFFFFBEBCCFFFFFFFFFFFFFFFFFFFFFFFFFFFBECBCFFFFFFFFFFFFFFFFFFFFFFFFFFFBEEFFFFFFFFFFFFFFFFFFFFFFFFFFFFFBEEFFFBBFFFBFFFFFFFFFFFFFFFFFFFFBEEBBBBBBBBBFFFFFFFFFFFFFFFFFFFFBBBBBFFFBBBFFFFFFFFFFFFFFFFFFF
1004
FFBBFFFFFFFBBFFFFFFFFFFFFFFFFFFFFFBBFFFFFFFFBBFFFFFFFFFFFFFFFFFFFFBBFFFFFFFFBFFFFFFFFFFFFFFFFFFFFFBBFFFFFFFFBBFFFFFFFFFFFFFFFFFFFBBBFFFFFFFFBFFFFFFFFFFFFFFFFFFFFBBBBBBBBBBBBBFFFFFFFFFFFFFFFFFFFBFBBBBBBBBBBFFFFFFFFFFF
  0
ENDTAB
  0
ENDSEC
  0
SECTION
  2
BLOCKS
  0
BLOCK
  5
3
100
AcDbEntity
  8
0
100
AcDbBlockBegin
  2
*MODEL_SPACE
 70
     0
 10
0.0
 20
0.0
 30
0.0
  3
*MODEL_SPACE
  1

  0
ENDBLK
  5
6
100
AcDbEntity
  8
0
100
AcDbBlockEnd
  0
BLOCK
  5
8
100
AcDbEntity
 67
     1
  8
0
100
AcDbBlockBegin
  2
*PAPER_SPACE
 70
     0
 10
0.0
 20
0.0
 30
0.0
  3
*PAPER_SPACE
  1

  0
ENDBLK
  5
9
100
AcDbEntity
 67
     1
  8
0
100
AcDbBlockEnd
  0
BLOCK
  5
2F
100
AcDbEntity
  8
0
100
AcDbBlockBegin
  2
SIDA
 70
     0
 10
0.0
 20
0.0
 30
0.0
  3
SIDA
  1

  0
LWPOLYLINE
  5
20
100
AcDbEntity
  8
RAM
 62
     5
100
AcDbPolyline
 90
        4
 70
     1
 43
0.0
 10
-20.0
 20
35.0
 10
-20.0
 20
560.0
 10
-380.0
 20
560.0
 10
-380.0
 20
35.0
  0
LINE
  5
22
100
AcDbEntity
  8
RAM
  6
DASHDOT
 62
     6
100
AcDbLine
 10
-260.0
 20
307.5
 30
0.0
 11
-260.0
 21
287.5
 31
0.0
  0
LINE
  5
24
100
AcDbEntity
  8
RAM
  6
DASHDOT
 62
     6
100
AcDbLine
 10
-270.0
 20
167.5
 30
0.0
 11
-250.0
 21
167.5
 31
0.0
  0
LINE
  5
25
100
AcDbEntity
  8
RAM
  6
DASHDOT
 62
     6
100
AcDbLine
 10
-260.0
 20
177.5
 30
0.0
 11
-260.0
 21
157.5
 31
0.0
  0
LINE
  5
26
100
AcDbEntity
  8
RAM
  6
DASHDOT
 62
     6
100
AcDbLine
 10
-270.0
 20
297.5
 30
0.0
 11
-250.0
 21
297.5
 31
0.0
  0
LINE
  5
27
100
AcDbEntity
  8
RAM
  6
DASHDOT
 62
     6
100
AcDbLine
 10
-270.0
 20
427.5
 30
0.0
 11
-250.0
 21
427.5
 31
0.0
  0
LINE
  5
28
100
AcDbEntity
  8
RAM
  6
DASHDOT
 62
     6
100
AcDbLine
 10
-260.0
 20
437.5
 30
0.0
 11
-260.0
 21
417.5
 31
0.0
  0
LINE
  5
29
100
AcDbEntity
  8
RAM
  6
DASHDOT
 62
     6
100
AcDbLine
 10
-140.0
 20
307.5
 30
0.0
 11
-140.0
 21
287.5
 31
0.0
  0
LINE
  5
2A
100
AcDbEntity
  8
RAM
  6
DASHDOT
 62
     6
100
AcDbLine
 10
-140.0
 20
177.5
 30
0.0
 11
-140.0
 21
157.5
 31
0.0
  0
LINE
  5
2B
100
AcDbEntity
  8
RAM
  6
DASHDOT
 62
     6
100
AcDbLine
 10
-150.0
 20
167.5
 30
0.0
 11
-130.0
 21
167.5
 31
0.0
  0
LINE
  5
2C
100
AcDbEntity
  8
RAM
  6
DASHDOT
 62
     6
100
AcDbLine
 10
-150.0
 20
297.5
 30
0.0
 11
-130.0
 21
297.5
 31
0.0
  0
LINE
  5
2D
100
AcDbEntity
  8
RAM
  6
DASHDOT
 62
     6
100
AcDbLine
 10
-150.0
 20
427.5
 30
0.0
 11
-130.0
 21
427.5
 31
0.0
  0
LINE
  5
2E
100
AcDbEntity
  8
RAM
  6
DASHDOT
 62
     6
100
AcDbLine
 10
-140.0
 20
437.5
 30
0.0
 11
-140.0
 21
417.5
 31
0.0
  0
ENDBLK
  5
30
100
AcDbEntity
  8
0
100
AcDbBlockEnd
  0
BLOCK
  5
4C
100
AcDbEntity
  8
0
100
AcDbBlockBegin
  2
SP40020
 70
     0
 10
0.0
 20
0.0
 30
0.0
  3
SP40020
  1

  0
LWPOLYLINE
  5
3B
100
AcDbEntity
  8
CENTRUM
100
AcDbPolyline
 90
        4
 70
     0
 43
0.0
 10
-13.0
 20
34.06657
 10
-13.0
 20
30.997255
 10
-13.0
 20
22.0
 10
-13.0
 20
18.0
  0
ARC
  5
3C
100
AcDbEntity
  8
GLAS_MED_FOGNING
100
AcDbCircle
 10
-13.0
 20
18.928391
 30
0.0
 40
12.068864
100
AcDbArc
 50
66.544514
 51
113.455486
  0
LINE
  5
3D
100
AcDbEntity
  8
GLAS_MED_FOGNING
100
AcDbLine
 10
-9.267949
 20
25.0
 30
0.0
 11
-16.73205
 21
25.0
 31
0.0
  0
LINE
  5
3E
100
AcDbEntity
  8
GLAS_MED_FOGNING
100
AcDbLine
 10
-8.196152
 20
30.0
 30
0.0
 11
-17.803848
 21
30.0
 31
0.0
  0
LINE
  5
3F
100
AcDbEntity
  8
GLAS_MED_FOGNING
100
AcDbLine
 10
-9.267949
 20
26.0
 30
0.0
 11
-16.73205
 21
26.0
 31
0.0
  0
LINE
  5
40
100
AcDbEntity
  8
GLAS_MED_FOGNING
100
AcDbLine
 10
-16.73205
 20
26.0
 30
0.0
 11
-16.73205
 21
25.0
 31
0.0
  0
LINE
  5
41
100
AcDbEntity
  8
GLAS_MED_FOGNING
100
AcDbLine
 10
-17.803848
 20
30.0
 30
0.0
 11
-16.73205
 21
26.0
 31
0.0
  0
LINE
  5
42
100
AcDbEntity
  8
GLAS_MED_FOGNING
100
AcDbLine
 10
-9.267949
 20
26.0
 30
0.0
 11
-9.267949
 21
25.0
 31
0.0
  0
LINE
  5
43
100
AcDbEntity
  8
GLAS_MED_FOGNING
100
AcDbLine
 10
-16.0
 20
25.0
 30
0.0
 11
-16.0
 21
22.0
 31
0.0
  0
LINE
  5
44
100
AcDbEntity
  8
GLAS_MED_FOGNING
100
AcDbLine
 10
-15.5
 20
25.0
 30
0.0
 11
-15.5
 21
21.0
 31
0.0
  0
LINE
  5
45
100
AcDbEntity
  8
GLAS_MED_FOGNING
100
AcDbLine
 10
-10.5
 20
25.0
 30
0.0
 11
-10.5
 21
21.0
 31
0.0
  0
LINE
  5
46
100
AcDbEntity
  8
GLAS_MED_FOGNING
100
AcDbLine
 10
-10.0
 20
25.0
 30
0.0
 11
-10.0
 21
22.0
 31
0.0
  0
LINE
  5
47
100
AcDbEntity
  8
GLAS_MED_FOGNING
100
AcDbLine
 10
-8.196152
 20
30.0
 30
0.0
 11
-9.267949
 21
26.0
 31
0.0
  0
LINE
  5
48
100
AcDbEntity
  8
GLAS_MED_FOGNING
100
AcDbLine
 10
-10.0
 20
22.0
 30
0.0
 11
-10.5
 21
21.0
 31
0.0
  0
LINE
  5
49
100
AcDbEntity
  8
GLAS_MED_FOGNING
100
AcDbLine
 10
-16.0
 20
22.0
 30
0.0
 11
-15.5
 21
21.0
 31
0.0
  0
LINE
  5
4A
100
AcDbEntity
  8
GLAS_MED_FOGNING
100
AcDbLine
 10
-10.0
 20
22.0
 30
0.0
 11
-16.0
 21
22.0
 31
0.0
  0
LINE
  5
4B
100
AcDbEntity
  8
GLAS_MED_FOGNING
100
AcDbLine
 10
-10.5
 20
21.0
 30
0.0
 11
-15.5
 21
21.0
 31
0.0
  0
ENDBLK
  5
4D
100
AcDbEntity
  8
0
100
AcDbBlockEnd
  0
BLOCK
  5
3D5
100
AcDbEntity
  8
0
100
AcDbBlockBegin
  2
SP44020
 70
     0
 10
0.0
 20
0.0
 30
0.0
  3
SP44020
  1

  0
LWPOLYLINE
  5
3D2
100
AcDbEntity
  8
SPKONTUR
100
AcDbPolyline
 90
       14
 70
     0
 43
0.0
 10
-8.196152
 20
30.0
 10
-9.0
 20
27.0
 42
0.414214
 10
-7.0
 20
25.0
 10
-2.0
 20
25.0
 42
0.414214
 10
0.0
 20
27.0
 10
0.0
 20
43.0
 42
0.414214
 10
-2.0
 20
45.0
 10
-38.0
 20
45.0
 42
0.414214
 10
-40.0
 20
43.0
 10
-40.0
 20
27.0
 42
0.414214
 10
-38.0
 20
25.0
 10
-19.0
 20
25.0
 42
0.414214
 10
-17.0
 20
27.0
 10
-17.803848
 20
30.0
  0
LWPOLYLINE
  5
3D3
100
AcDbEntity
  8
STALPROFIL
100
AcDbPolyline
 90
       14
 70
     0
 43
1.25
 10
-7.592449
 20
29.838238
 10
-8.372969
 20
26.925296
 42
0.398381
 10
-7.0
 20
25.625
 10
-2.0
 20
25.625
 42
0.414214
 10
-0.625
 20
27.0
 10
-0.625
 20
43.0
 42
0.414214
 10
-2.0
 20
44.375
 10
-38.0
 20
44.375
 42
0.414214
 10
-39.375
 20
43.0
 10
-39.375
 20
27.0
 42
0.414214
 10
-38.0
 20
25.625
 10
-19.0
 20
25.625
 42
0.398381
 10
-17.627031
 20
26.925296
 10
-18.407551
 20
29.838238
  0
INSERT
  5
3D4
100
AcDbEntity
  8
GLAS_MED_FOGNING
100
AcDbBlockReference
  2
SP40020
 10
0.0
 20
0.0
 30
0.0
  0
ENDBLK
  5
3D6
100
AcDbEntity
  8
0
100
AcDbBlockEnd
  0
BLOCK
  5
358
100
AcDbEntity
  8
0
100
AcDbBlockBegin
  2
SP45020
 70
     0
 10
0.0
 20
0.0
 30
0.0
  3
SP45020
  1

  0
INSERT
  5
355
100
AcDbEntity
  8
GLAS_MED_FOGNING
100
AcDbBlockReference
  2
SP40020
 10
0.0
 20
0.0
 30
0.0
  0
LWPOLYLINE
  5
356
100
AcDbEntity
  8
SPKONTUR
100
AcDbPolyline
 90
       14
 70
     0
 43
0.0
 10
-8.196152
 20
30.0
 10
-9.0
 20
27.0
 42
0.414214
 10
-7.0
 20
25.0
 10
-2.0
 20
25.0
 42
0.414214
 10
0.0
 20
27.0
 10
0.0
 20
43.0
 42
0.414214
 10
-2.0
 20
45.0
 10
-48.0
 20
45.0
 42
0.414214
 10
-50.0
 20
43.0
 10
-50.0
 20
27.0
 42
0.414214
 10
-48.0
 20
25.0
 10
-19.0
 20
25.0
 42
0.414214
 10
-17.0
 20
27.0
 10
-17.803848
 20
30.0
  0
LWPOLYLINE
  5
357
100
AcDbEntity
  8
STALPROFIL
100
AcDbPolyline
 90
       14
 70
     0
 43
1.25
 10
-7.592449
 20
29.838238
 10
-8.372969
 20
26.925296
 42
0.398381
 10
-7.0
 20
25.625
 10
-2.0
 20
25.625
 42
0.414214
 10
-0.625
 20
27.0
 10
-0.625
 20
43.0
 42
0.414214
 10
-2.0
 20
44.375
 10
-48.0
 20
44.375
 42
0.414214
 10
-49.375
 20
43.0
 10
-49.375
 20
27.0
 42
0.414214
 10
-48.0
 20
25.625
 10
-19.0
 20
25.625
 42
0.398381
 10
-17.627031
 20
26.925296
 10
-18.407551
 20
29.838238
  0
ENDBLK
  5
359
100
AcDbEntity
  8
0
100
AcDbBlockEnd
  0
BLOCK
  5
83
100
AcDbEntity
  8
0
100
AcDbBlockBegin
  2
SP41520
 70
     0
 10
0.0
 20
0.0
 30
0.0
  3
SP41520
  1

  0
INSERT
  5
80
100
AcDbEntity
  8
GLAS_MED_FOGNING
100
AcDbBlockReference
  2
SP40020
 10
5.5
 20
0.0
 30
0.0
  0
LWPOLYLINE
  5
81
100
AcDbEntity
  8
STALPROFIL
100
AcDbPolyline
 90
       12
 70
     0
 43
1.25
 10
-2.02546
 20
29.838243
 10
-2.872606
 20
26.676553
 42
0.395246
 10
-1.75
 20
25.625
 42
0.414213
 10
-0.625
 20
26.749998
 10
-0.625
 20
43.0
 42
0.414214
 10
-2.0
 20
44.375
 10
-13.0
 20
44.375
 42
0.414214
 10
-14.375
 20
43.0
 10
-14.375
 20
26.749999
 42
0.414213
 10
-13.249964
 20
25.625
 42
0.395246
 10
-12.127394
 20
26.676553
 10
-12.97454
 20
29.838243
  0
LWPOLYLINE
  5
82
100
AcDbEntity
  8
SPKONTUR
100
AcDbPolyline
 90
       13
 70
     0
 43
0.0
 10
-2.629165
 20
30.0
 10
-3.5
 20
26.7499
 42
0.41423
 10
-1.75
 20
25.0
 42
0.414213
 10
0.0
 20
26.749998
 10
0.0
 20
43.0
 42
0.414214
 10
-2.0
 20
45.0
 10
-7.5
 20
45.0
 10
-13.0
 20
45.0
 42
0.414214
 10
-15.0
 20
43.0
 10
-15.0
 20
26.749998
 42
0.414213
 10
-13.25
 20
25.0
 42
0.41423
 10
-11.5
 20
26.7499
 10
-12.370835
 20
30.0
  0
ENDBLK
  5
84
100
AcDbEntity
  8
0
100
AcDbBlockEnd
  0
BLOCK
  5
3AD
100
AcDbEntity
  8
0
100
AcDbBlockBegin
  2
SP42520
 70
     0
 10
0.0
 20
0.0
 30
0.0
  3
SP42520
  1

  0
INSERT
  5
3AA
100
AcDbEntity
  8
0
100
AcDbBlockReference
  2
SP40020
 10
0.0
 20
0.0
 30
0.0
  0
LWPOLYLINE
  5
3AB
100
AcDbEntity
  8
STALPROFIL
100
AcDbPolyline
 90
       14
 70
     0
 43
1.25
 10
-7.592449
 20
29.838238
 10
-8.372969
 20
26.925296
 42
0.398381
 10
-7.0
 20
25.625
 10
-2.0
 20
25.625
 42
0.414214
 10
-0.625
 20
27.0
 10
-0.625
 20
43.0
 42
0.414214
 10
-2.0
 20
44.375
 10
-23.0
 20
44.375
 42
0.414214
 10
-24.375
 20
43.0
 10
-24.375
 20
27.0
 42
0.414214
 10
-23.0
 20
25.625
 10
-19.0
 20
25.625
 42
0.398381
 10
-17.627031
 20
26.925296
 10
-18.407551
 20
29.838238
  0
LWPOLYLINE
  5
3AC
100
AcDbEntity
  8
SPKONTUR
100
AcDbPolyline
 90
       14
 70
     0
 43
0.0
 10
-8.196152
 20
30.0
 10
-9.0
 20
27.0
 42
0.414214
 10
-7.0
 20
25.0
 10
-2.0
 20
25.0
 42
0.414214
 10
0.0
 20
27.0
 10
0.0
 20
43.0
 42
0.414214
 10
-2.0
 20
45.0
 10
-23.0
 20
45.0
 42
0.414214
 10
-25.0
 20
43.0
 10
-25.0
 20
27.0
 42
0.414214
 10
-23.0
 20
25.0
 10
-19.0
 20
25.0
 42
0.414214
 10
-17.0
 20
27.0
 10
-17.803848
 20
30.0
  0
ENDBLK
  5
3AE
100
AcDbEntity
  8
0
100
AcDbBlockEnd
  0
BLOCK
  5
38F
100
AcDbEntity
  8
0
100
AcDbBlockBegin
  2
SP43020
 70
     0
 10
0.0
 20
0.0
 30
0.0
  3
SP43020
  1

  0
LWPOLYLINE
  5
38C
100
AcDbEntity
  8
SPKONTUR
100
AcDbPolyline
 90
       14
 70
     0
 43
0.0
 10
-8.196152
 20
30.0
 10
-9.0
 20
27.0
 42
0.414214
 10
-7.0
 20
25.0
 10
-2.0
 20
25.0
 42
0.414214
 10
0.0
 20
27.0
 10
0.0
 20
43.0
 42
0.414214
 10
-2.0
 20
45.0
 10
-28.0
 20
45.0
 42
0.414214
 10
-30.0
 20
43.0
 10
-30.0
 20
27.0
 42
0.414214
 10
-28.0
 20
25.0
 10
-19.0
 20
25.0
 42
0.414214
 10
-17.0
 20
27.0
 10
-17.803848
 20
30.0
  0
LWPOLYLINE
  5
38D
100
AcDbEntity
  8
STALPROFIL
100
AcDbPolyline
 90
       14
 70
     0
 43
1.25
 10
-7.592449
 20
29.838238
 10
-8.372969
 20
26.925296
 42
0.398381
 10
-7.0
 20
25.625
 10
-2.0
 20
25.625
 42
0.414214
 10
-0.625
 20
27.0
 10
-0.625
 20
43.0
 42
0.414214
 10
-2.0
 20
44.375
 10
-28.0
 20
44.375
 42
0.414214
 10
-29.375
 20
43.0
 10
-29.375
 20
27.0
 42
0.414214
 10
-28.0
 20
25.625
 10
-19.0
 20
25.625
 42
0.398381
 10
-17.627031
 20
26.925296
 10
-18.407551
 20
29.838238
  0
INSERT
  5
38E
100
AcDbEntity
  8
GLAS_MED_FOGNING
100
AcDbBlockReference
  2
SP40020
 10
0.0
 20
0.0
 30
0.0
  0
ENDBLK
  5
390
100
AcDbEntity
  8
0
100
AcDbBlockEnd
  0
BLOCK
  5
441
100
AcDbEntity
  8
0
100
AcDbBlockBegin
  2
SP43520
 70
     0
 10
0.0
 20
0.0
 30
0.0
  3
SP43520
  1

  0
LWPOLYLINE
  5
43E
100
AcDbEntity
  8
SPKONTUR
100
AcDbPolyline
 90
       14
 70
     0
 43
0.0
 10
-8.196152
 20
30.0
 10
-9.0
 20
27.0
 42
0.414214
 10
-7.0
 20
25.0
 10
-2.0
 20
25.0
 42
0.414214
 10
0.0
 20
27.0
 10
0.0
 20
43.0
 42
0.414214
 10
-2.0
 20
45.0
 10
-33.0
 20
45.0
 42
0.414214
 10
-35.0
 20
43.0
 10
-35.0
 20
27.0
 42
0.414214
 10
-33.0
 20
25.0
 10
-19.0
 20
25.0
 42
0.414214
 10
-17.0
 20
27.0
 10
-17.803848
 20
30.0
  0
LWPOLYLINE
  5
43F
100
AcDbEntity
  8
STALPROFIL
100
AcDbPolyline
 90
       14
 70
     0
 43
1.25
 10
-7.592449
 20
29.838238
 10
-8.372969
 20
26.925296
 42
0.398381
 10
-7.0
 20
25.625
 10
-2.0
 20
25.625
 42
0.414214
 10
-0.625
 20
27.0
 10
-0.625
 20
43.0
 42
0.414214
 10
-2.0
 20
44.375
 10
-33.0
 20
44.375
 42
0.414214
 10
-34.375
 20
43.0
 10
-34.375
 20
27.0
 42
0.414214
 10
-33.0
 20
25.625
 10
-19.0
 20
25.625
 42
0.398381
 10
-17.627031
 20
26.925296
 10
-18.407551
 20
29.838238
  0
INSERT
  5
440
100
AcDbEntity
  8
GLAS_MED_FOGNING
100
AcDbBlockReference
  2
SP40020
 10
0.0
 20
0.0
 30
0.0
  0
ENDBLK
  5
442
100
AcDbEntity
  8
0
100
AcDbBlockEnd
  0
BLOCK
  5
4E
100
AcDbEntity
  8
0
100
AcDbBlockBegin
  2
SP42020
 70
     0
 10
0.0
 20
0.0
 30
0.0
  3
SP42020
  1

  0
LWPOLYLINE
  5
35
100
AcDbEntity
  8
SPKONTUR
100
AcDbPolyline
 90
       14
 70
     0
 43
0.0
 10
-2.629165
 20
30.000002
 10
-3.5
 20
26.749902
 42
0.41423
 10
-1.75
 20
25.000002
 42
0.414213
 10
0.0
 20
26.75
 10
0.0
 20
43.000002
 42
0.414214
 10
-2.0
 20
45.000002
 10
-7.5
 20
45.000002
 10
-18.0
 20
45.000002
 42
0.414214
 10
-20.0
 20
43.000002
 10
-20.0
 20
27.000002
 42
0.414214
 10
-18.0
 20
25.000002
 10
-13.5
 20
25.000002
 42
0.414214
 10
-11.5
 20
27.000002
 10
-12.303848
 20
30.000002
  0
LWPOLYLINE
  5
37
100
AcDbEntity
  8
STALPROFIL
100
AcDbPolyline
 90
       13
 70
     0
 43
1.25
 10
-2.02546
 20
29.838245
 10
-2.872606
 20
26.676555
 42
0.395246
 10
-1.75
 20
25.625002
 42
0.414213
 10
-0.625
 20
26.75
 10
-0.625
 20
43.000002
 42
0.414214
 10
-2.0
 20
44.375002
 10
-18.0
 20
44.375002
 42
0.414214
 10
-19.375
 20
43.000002
 10
-19.375
 20
27.000002
 42
0.414214
 10
-18.0
 20
25.625002
 10
-13.5
 20
25.625002
 42
0.398381
 10
-12.127031
 20
26.925298
 10
-12.907551
 20
29.83824
  0
INSERT
  5
39
100
AcDbEntity
  8
0
100
AcDbBlockReference
  2
SP40020
 10
5.5
 20
0.0
 30
0.0
  0
ENDBLK
  5
4F
100
AcDbEntity
  8
0
100
AcDbBlockEnd
  0
BLOCK
  5
E9
100
AcDbEntity
  8
0
100
AcDbBlockBegin
  2
*X9
 70
     1
 10
0.0
 20
0.0
 30
0.0
  3
*X9
  1

  0
LINE
  5
D7
100
AcDbEntity
  8
0
 62
     0
100
AcDbLine
 10
-59.163263
 20
41.509483
 30
0.0
 11
-59.163263
 21
41.509483
 31
0.0
  0
LINE
  5
D8
100
AcDbEntity
  8
0
 62
     0
100
AcDbLine
 10
-56.584865
 20
43.487958
 30
0.0
 11
-56.584865
 21
43.487958
 31
0.0
  0
LINE
  5
D9
100
AcDbEntity
  8
0
 62
     0
100
AcDbLine
 10
-58.785303
 20
29.948541
 30
0.0
 11
-58.785303
 21
29.948541
 31
0.0
  0
LINE
  5
DA
100
AcDbEntity
  8
0
 62
     0
100
AcDbLine
 10
-58.659316
 20
26.094893
 30
0.0
 11
-58.659316
 21
26.094893
 31
0.0
  0
LINE
  5
DB
100
AcDbEntity
  8
0
 62
     0
100
AcDbLine
 10
-56.080918
 20
28.073368
 30
0.0
 11
-56.080918
 21
28.073368
 31
0.0
  0
LINE
  5
DC
100
AcDbEntity
  8
0
 62
     0
100
AcDbLine
 10
-57.165758
 20
44.256996
 30
0.0
 11
-57.165758
 21
44.256996
 31
0.0
  0
LINE
  5
DD
100
AcDbEntity
  8
0
 62
     0
100
AcDbLine
 10
-56.124741
 20
44.394049
 30
0.0
 11
-56.124741
 21
44.394049
 31
0.0
  0
LINE
  5
DE
100
AcDbEntity
  8
0
 62
     0
100
AcDbLine
 10
-61.359856
 20
28.169929
 30
0.0
 11
-61.359856
 21
28.169929
 31
0.0
  0
LINE
  5
DF
100
AcDbEntity
  8
0
 62
     0
100
AcDbLine
 10
-59.733886
 20
28.383992
 30
0.0
 11
-59.733886
 21
28.383992
 31
0.0
  0
LINE
  5
E0
100
AcDbEntity
  8
0
 62
     0
100
AcDbLine
 10
-57.017327
 20
28.741634
 30
0.0
 11
-57.017327
 21
28.741634
 31
0.0
  0
LINE
  5
E1
100
AcDbEntity
  8
0
 62
     0
100
AcDbLine
 10
-55.97631
 20
28.878687
 30
0.0
 11
-55.97631
 21
28.878687
 31
0.0
  0
LINE
  5
E2
100
AcDbEntity
  8
0
 62
     0
100
AcDbLine
 10
-56.715696
 20
42.523035
 30
0.0
 11
-56.715696
 21
42.523035
 31
0.0
  0
LINE
  5
E3
100
AcDbEntity
  8
0
 62
     0
100
AcDbLine
 10
-55.749526
 20
29.97
 30
0.0
 11
-55.749526
 21
29.97
 31
0.0
  0
LINE
  5
E4
100
AcDbEntity
  8
0
 62
     0
100
AcDbLine
 10
-61.134419
 20
29.421382
 30
0.0
 11
-61.134419
 21
29.421382
 31
0.0
  0
LINE
  5
E5
100
AcDbEntity
  8
0
 62
     0
100
AcDbLine
 10
-58.098209
 20
27.487104
 30
0.0
 11
-58.098209
 21
27.487104
 31
0.0
  0
LINE
  5
E6
100
AcDbEntity
  8
0
 62
     0
100
AcDbLine
 10
-57.663397
 20
43.320028
 30
0.0
 11
-57.663397
 21
43.320028
 31
0.0
  0
LINE
  5
E7
100
AcDbEntity
  8
0
 62
     0
100
AcDbLine
 10
-57.294758
 20
42.982232
 30
0.0
 11
-57.294758
 21
42.982232
 31
0.0
  0
LINE
  5
E8
100
AcDbEntity
  8
0
 62
     0
100
AcDbLine
 10
-55.554784
 20
41.38784
 30
0.0
 11
-55.554784
 21
41.38784
 31
0.0
  0
ENDBLK
  5
EA
100
AcDbEntity
  8
0
100
AcDbBlockEnd
  0
BLOCK
  5
C3
100
AcDbEntity
  8
0
100
AcDbBlockBegin
  2
*X10
 70
     1
 10
0.0
 20
0.0
 30
0.0
  3
*X10
  1

  0
LINE
  5
B1
100
AcDbEntity
  8
0
 62
     0
100
AcDbLine
 10
-38.293936
 20
41.721799
 30
0.0
 11
-38.293936
 21
41.721799
 31
0.0
  0
LINE
  5
B2
100
AcDbEntity
  8
0
 62
     0
100
AcDbLine
 10
-37.915976
 20
30.160857
 30
0.0
 11
-37.915976
 21
30.160857
 31
0.0
  0
LINE
  5
B3
100
AcDbEntity
  8
0
 62
     0
100
AcDbLine
 10
-37.789989
 20
26.307209
 30
0.0
 11
-37.789989
 21
26.307209
 31
0.0
  0
LINE
  5
B4
100
AcDbEntity
  8
0
 62
     0
100
AcDbLine
 10
-35.092588
 20
28.376998
 30
0.0
 11
-35.092588
 21
28.376998
 31
0.0
  0
LINE
  5
B5
100
AcDbEntity
  8
0
 62
     0
100
AcDbLine
 10
-39.171129
 20
41.447733
 30
0.0
 11
-39.171129
 21
41.447733
 31
0.0
  0
LINE
  5
B6
100
AcDbEntity
  8
0
 62
     0
100
AcDbLine
 10
-38.130112
 20
41.584785
 30
0.0
 11
-38.130112
 21
41.584785
 31
0.0
  0
LINE
  5
B7
100
AcDbEntity
  8
0
 62
     0
100
AcDbLine
 10
-36.504142
 20
41.798848
 30
0.0
 11
-36.504142
 21
41.798848
 31
0.0
  0
LINE
  5
B8
100
AcDbEntity
  8
0
 62
     0
100
AcDbLine
 10
-39.974104
 20
46.52032
 30
0.0
 11
-39.974104
 21
46.52032
 31
0.0
  0
LINE
  5
B9
100
AcDbEntity
  8
0
 62
     0
100
AcDbLine
 10
-39.022698
 20
25.932371
 30
0.0
 11
-39.022698
 21
25.932371
 31
0.0
  0
LINE
  5
BA
100
AcDbEntity
  8
0
 62
     0
100
AcDbLine
 10
-37.981681
 20
26.069423
 30
0.0
 11
-37.981681
 21
26.069423
 31
0.0
  0
LINE
  5
BB
100
AcDbEntity
  8
0
 62
     0
100
AcDbLine
 10
-36.355712
 20
26.283486
 30
0.0
 11
-36.355712
 21
26.283486
 31
0.0
  0
LINE
  5
BC
100
AcDbEntity
  8
0
 62
     0
100
AcDbLine
 10
-38.030845
 20
42.55699
 30
0.0
 11
-38.030845
 21
42.55699
 31
0.0
  0
LINE
  5
BD
100
AcDbEntity
  8
0
 62
     0
100
AcDbLine
 10
-37.064675
 20
30.003954
 30
0.0
 11
-37.064675
 21
30.003954
 31
0.0
  0
LINE
  5
BE
100
AcDbEntity
  8
0
 62
     0
100
AcDbLine
 10
-36.221284
 20
29.466655
 30
0.0
 11
-36.221284
 21
29.466655
 31
0.0
  0
LINE
  5
BF
100
AcDbEntity
  8
0
 62
     0
100
AcDbLine
 10
-39.413358
 20
27.521058
 30
0.0
 11
-39.413358
 21
27.521058
 31
0.0
  0
LINE
  5
C0
100
AcDbEntity
  8
0
 62
     0
100
AcDbLine
 10
-35.254096
 20
30.050252
 30
0.0
 11
-35.254096
 21
30.050252
 31
0.0
  0
LINE
  5
C1
100
AcDbEntity
  8
0
 62
     0
100
AcDbLine
 10
-39.431016
 20
41.14226
 30
0.0
 11
-39.431016
 21
41.14226
 31
0.0
  0
LINE
  5
C2
100
AcDbEntity
  8
0
 62
     0
100
AcDbLine
 10
-39.157736
 20
26.362713
 30
0.0
 11
-39.157736
 21
26.362713
 31
0.0
  0
ENDBLK
  5
C4
100
AcDbEntity
  8
0
100
AcDbBlockEnd
  0
BLOCK
  5
D1
100
AcDbEntity
  8
0
100
AcDbBlockBegin
  2
GLASH5
 70
     0
 10
0.0
 20
0.0
 30
0.0
  3
GLASH5
  1

  0
LINE
  5
AE
100
AcDbEntity
  8
GLAS_MED_FOGNING
100
AcDbLine
 10
-25.0
 20
49.0
 30
0.0
 11
-25.0
 21
30.0
 31
0.0
  0
INSERT
  5
AF
100
AcDbEntity
  8
GLAS_MED_FOGNING
100
AcDbBlockReference
  2
*X10
 10
15.0
 20
0.0
 30
0.0
1001
ACAD
1000
HATCH
1002
{
1070
    16
1000
AR-SAND
1040
2.0
1040
0.0
1002
}
  0
LINE
  5
C5
100
AcDbEntity
  8
GLAS_MED_FOGNING
100
AcDbLine
 10
-20.0
 20
31.0
 30
0.0
 11
-25.0
 21
31.0
 31
0.0
  0
LINE
  5
C6
100
AcDbEntity
  8
GLAS_MED_FOGNING
100
AcDbLine
 10
-20.0
 20
32.0
 30
0.0
 11
-25.0
 21
32.0
 31
0.0
  0
ARC
  5
C7
100
AcDbEntity
  8
GLAS_MED_FOGNING
100
AcDbCircle
 10
-20.0
 20
48.0
 30
0.0
 40
5.0
100
AcDbArc
 50
180.0
 51
270.0
  0
LINE
  5
C8
100
AcDbEntity
  8
GLAS_MED_FOGNING
100
AcDbLine
 10
-20.0
 20
41.0
 30
0.0
 11
-25.0
 21
41.0
 31
0.0
  0
LINE
  5
C9
100
AcDbEntity
  8
GLAS_MED_FOGNING
100
AcDbLine
 10
-20.0
 20
40.0
 30
0.0
 11
-25.0
 21
40.0
 31
0.0
  0
LINE
  5
CA
100
AcDbEntity
  8
GLAS_MED_FOGNING
100
AcDbLine
 10
-20.0
 20
39.0
 30
0.0
 11
-25.0
 21
39.0
 31
0.0
  0
LINE
  5
CB
100
AcDbEntity
  8
GLAS_MED_FOGNING
100
AcDbLine
 10
-20.0
 20
38.0
 30
0.0
 11
-25.0
 21
38.0
 31
0.0
  0
LINE
  5
CC
100
AcDbEntity
  8
GLAS_MED_FOGNING
100
AcDbLine
 10
-20.0
 20
37.0
 30
0.0
 11
-25.0
 21
37.0
 31
0.0
  0
LINE
  5
CD
100
AcDbEntity
  8
GLAS_MED_FOGNING
100
AcDbLine
 10
-20.0
 20
36.0
 30
0.0
 11
-25.0
 21
36.0
 31
0.0
  0
LINE
  5
CE
100
AcDbEntity
  8
GLAS_MED_FOGNING
100
AcDbLine
 10
-20.0
 20
35.0
 30
0.0
 11
-25.0
 21
35.0
 31
0.0
  0
LINE
  5
CF
100
AcDbEntity
  8
GLAS_MED_FOGNING
100
AcDbLine
 10
-20.0
 20
34.0
 30
0.0
 11
-25.0
 21
34.0
 31
0.0
  0
LINE
  5
D0
100
AcDbEntity
  8
GLAS_MED_FOGNING
100
AcDbLine
 10
-20.0
 20
33.0
 30
0.0
 11
-25.0
 21
33.0
 31
0.0
  0
ENDBLK
  5
D2
100
AcDbEntity
  8
0
100
AcDbBlockEnd
  0
BLOCK
  5
444
100
AcDbEntity
  8
0
100
AcDbBlockBegin
  2
65_SP43520DK
 70
     0
 10
0.0
 20
0.0
 30
0.0
  3
65_SP43520DK
  1

  0
LWPOLYLINE
  5
436
100
AcDbEntity
  8
CENTRUM
100
AcDbPolyline
 90
        4
 70
     0
 43
0.0
 10
0.0
 20
57.5
 10
-40.0
 20
57.5
 10
-55.4
 20
57.5
 10
-65.0
 20
57.5
  0
LINE
  5
437
100
AcDbEntity
  8
GLAS_MED_FOGNING
100
AcDbLine
 10
-40.0
 20
30.0
 30
0.0
 11
-55.4
 21
30.0
 31
0.0
  0
LWPOLYLINE
  5
438
100
AcDbEntity
  8
GLAS_MED_FOGNING
100
AcDbPolyline
 90
        4
 70
     1
 43
0.0
 10
-55.4
 20
30.0
 10
-55.4
 20
25.0
 10
-40.0
 20
30.0
 10
-40.0
 20
25.0
  0
LINE
  5
439
100
AcDbEntity
  8
GLAS_MED_FOGNING
100
AcDbLine
 10
-55.4
 20
57.5
 30
0.0
 11
-55.4
 21
49.0
 31
0.0
  0
INSERT
  5
43A
100
AcDbEntity
  8
0
100
AcDbBlockReference
  2
GLASV6_18
 10
-65.0
 20
0.0
 30
0.0
  0
LINE
  5
43B
100
AcDbEntity
  8
GLAS_MED_FOGNING
100
AcDbLine
 10
-40.0
 20
57.5
 30
0.0
 11
-40.0
 21
49.0
 31
0.0
  0
INSERT
  5
43C
100
AcDbEntity
  8
0
100
AcDbBlockReference
  2
SP43520
 10
0.0
 20
0.0
 30
0.0
  0
INSERT
  5
443
100
AcDbEntity
  8
GLAS_MED_FOGNING
100
AcDbBlockReference
  2
GLASH5
 10
-15.0
 20
0.0
 30
0.0
  0
ENDBLK
  5
445
100
AcDbEntity
  8
0
100
AcDbBlockEnd
  0
BLOCK
  5
46A
100
AcDbEntity
  8
0
100
AcDbBlockBegin
  2
*X13
 70
     1
 10
0.0
 20
0.0
 30
0.0
  3
*X13
  1

  0
LINE
  5
44E
100
AcDbEntity
  8
0
 62
     0
100
AcDbLine
 10
-48.141351
 20
26.264971
 30
0.0
 11
-48.141351
 21
26.264971
 31
0.0
  0
LINE
  5
44F
100
AcDbEntity
  8
0
 62
     0
100
AcDbLine
 10
-45.729557
 20
28.115606
 30
0.0
 11
-45.729557
 21
28.115606
 31
0.0
  0
LINE
  5
450
100
AcDbEntity
  8
0
 62
     0
100
AcDbLine
 10
-53.543137
 20
26.070355
 30
0.0
 11
-53.543137
 21
26.070355
 31
0.0
  0
LINE
  5
451
100
AcDbEntity
  8
0
 62
     0
100
AcDbLine
 10
-50.845736
 20
28.140144
 30
0.0
 11
-50.845736
 21
28.140144
 31
0.0
  0
LINE
  5
452
100
AcDbEntity
  8
0
 62
     0
100
AcDbLine
 10
-53.669124
 20
29.924003
 30
0.0
 11
-53.669124
 21
29.924003
 31
0.0
  0
LINE
  5
453
100
AcDbEntity
  8
0
 62
     0
100
AcDbLine
 10
-42.906168
 20
26.331747
 30
0.0
 11
-42.906168
 21
26.331747
 31
0.0
  0
LINE
  5
454
100
AcDbEntity
  8
0
 62
     0
100
AcDbLine
 10
-40.32777
 20
28.310222
 30
0.0
 11
-40.32777
 21
28.310222
 31
0.0
  0
LINE
  5
455
100
AcDbEntity
  8
0
 62
     0
100
AcDbLine
 10
-44.406244
 20
25.223614
 30
0.0
 11
-44.406244
 21
25.223614
 31
0.0
  0
LINE
  5
456
100
AcDbEntity
  8
0
 62
     0
100
AcDbLine
 10
-43.365227
 20
25.360666
 30
0.0
 11
-43.365227
 21
25.360666
 31
0.0
  0
LINE
  5
457
100
AcDbEntity
  8
0
 62
     0
100
AcDbLine
 10
-41.739257
 20
25.574729
 30
0.0
 11
-41.739257
 21
25.574729
 31
0.0
  0
LINE
  5
458
100
AcDbEntity
  8
0
 62
     0
100
AcDbLine
 10
-54.350341
 20
29.09275
 30
0.0
 11
-54.350341
 21
29.09275
 31
0.0
  0
LINE
  5
459
100
AcDbEntity
  8
0
 62
     0
100
AcDbLine
 10
-51.633782
 20
29.450391
 30
0.0
 11
-51.633782
 21
29.450391
 31
0.0
  0
LINE
  5
45A
100
AcDbEntity
  8
0
 62
     0
100
AcDbLine
 10
-50.592764
 20
29.587444
 30
0.0
 11
-50.592764
 21
29.587444
 31
0.0
  0
LINE
  5
45B
100
AcDbEntity
  8
0
 62
     0
100
AcDbLine
 10
-48.966795
 20
29.801507
 30
0.0
 11
-48.966795
 21
29.801507
 31
0.0
  0
LINE
  5
45C
100
AcDbEntity
  8
0
 62
     0
100
AcDbLine
 10
-49.521243
 20
29.981318
 30
0.0
 11
-49.521243
 21
29.981318
 31
0.0
  0
LINE
  5
45D
100
AcDbEntity
  8
0
 62
     0
100
AcDbLine
 10
-48.677851
 20
29.444019
 30
0.0
 11
-48.677851
 21
29.444019
 31
0.0
  0
LINE
  5
45E
100
AcDbEntity
  8
0
 62
     0
100
AcDbLine
 10
-45.641642
 20
27.50974
 30
0.0
 11
-45.641642
 21
27.50974
 31
0.0
  0
LINE
  5
45F
100
AcDbEntity
  8
0
 62
     0
100
AcDbLine
 10
-43.292959
 20
29.992636
 30
0.0
 11
-43.292959
 21
29.992636
 31
0.0
  0
LINE
  5
460
100
AcDbEntity
  8
0
 62
     0
100
AcDbLine
 10
-42.449568
 20
29.455337
 30
0.0
 11
-42.449568
 21
29.455337
 31
0.0
  0
LINE
  5
461
100
AcDbEntity
  8
0
 62
     0
100
AcDbLine
 10
-54.906135
 20
29.4327
 30
0.0
 11
-54.906135
 21
29.4327
 31
0.0
  0
LINE
  5
462
100
AcDbEntity
  8
0
 62
     0
100
AcDbLine
 10
-51.869926
 20
27.498422
 30
0.0
 11
-51.869926
 21
27.498422
 31
0.0
  0
LINE
  5
463
100
AcDbEntity
  8
0
 62
     0
100
AcDbLine
 10
-41.266349
 20
28.294901
 30
0.0
 11
-41.266349
 21
28.294901
 31
0.0
  0
LINE
  5
464
100
AcDbEntity
  8
0
 62
     0
100
AcDbLine
 10
-40.89771
 20
27.957106
 30
0.0
 11
-40.89771
 21
27.957106
 31
0.0
  0
LINE
  5
465
100
AcDbEntity
  8
0
 62
     0
100
AcDbLine
 10
-51.009226
 20
29.958037
 30
0.0
 11
-51.009226
 21
29.958037
 31
0.0
  0
LINE
  5
466
100
AcDbEntity
  8
0
 62
     0
100
AcDbLine
 10
-49.269251
 20
28.363644
 30
0.0
 11
-49.269251
 21
28.363644
 31
0.0
  0
LINE
  5
467
100
AcDbEntity
  8
0
 62
     0
100
AcDbLine
 10
-47.278602
 20
26.53955
 30
0.0
 11
-47.278602
 21
26.53955
 31
0.0
  0
LINE
  5
468
100
AcDbEntity
  8
0
 62
     0
100
AcDbLine
 10
-46.909964
 20
26.201755
 30
0.0
 11
-46.909964
 21
26.201755
 31
0.0
  0
LINE
  5
469
100
AcDbEntity
  8
0
 62
     0
100
AcDbLine
 10
-55.281504
 20
26.608293
 30
0.0
 11
-55.281504
 21
26.608293
 31
0.0
  0
ENDBLK
  5
46B
100
AcDbEntity
  8
0
100
AcDbBlockEnd
  0
BLOCK
  5
F8
100
AcDbEntity
  8
0
100
AcDbBlockBegin
  2
GLASV6_18
 70
     0
 10
0.0
 20
0.0
 30
0.0
  3
GLASV6_18
  1

  0
INSERT
  5
D5
100
AcDbEntity
  8
GLAS_MED_FOGNING
100
AcDbBlockReference
  2
*X9
 10
65.0
 20
0.0
 30
0.0
1001
ACAD
1000
HATCH
1002
{
1070
    16
1000
AR-SAND
1040
2.0
1040
0.0
1002
}
  0
LINE
  5
EB
100
AcDbEntity
  8
GLAS_MED_FOGNING
100
AcDbLine
 10
9.6
 20
49.0
 30
0.0
 11
9.6
 21
30.0
 31
0.0
  0
LINE
  5
EC
100
AcDbEntity
  8
GLAS_MED_FOGNING
100
AcDbLine
 10
9.6
 20
32.0
 30
0.0
 11
3.6
 21
32.0
 31
0.0
  0
LINE
  5
ED
100
AcDbEntity
  8
GLAS_MED_FOGNING
100
AcDbLine
 10
9.6
 20
31.0
 30
0.0
 11
3.6
 21
31.0
 31
0.0
  0
ARC
  5
EE
100
AcDbEntity
  8
GLAS_MED_FOGNING
100
AcDbCircle
 10
3.6
 20
49.0
 30
0.0
 40
6.0
100
AcDbArc
 50
270.0
 51
0.0
  0
LINE
  5
EF
100
AcDbEntity
  8
GLAS_MED_FOGNING
100
AcDbLine
 10
9.6
 20
39.0
 30
0.0
 11
3.6
 21
39.0
 31
0.0
  0
LINE
  5
F0
100
AcDbEntity
  8
GLAS_MED_FOGNING
100
AcDbLine
 10
9.6
 20
40.0
 30
0.0
 11
3.6
 21
40.0
 31
0.0
  0
LINE
  5
F1
100
AcDbEntity
  8
GLAS_MED_FOGNING
100
AcDbLine
 10
9.6
 20
37.0
 30
0.0
 11
3.6
 21
37.0
 31
0.0
  0
LINE
  5
F2
100
AcDbEntity
  8
GLAS_MED_FOGNING
100
AcDbLine
 10
9.6
 20
38.0
 30
0.0
 11
3.6
 21
38.0
 31
0.0
  0
LINE
  5
F3
100
AcDbEntity
  8
GLAS_MED_FOGNING
100
AcDbLine
 10
9.6
 20
36.0
 30
0.0
 11
3.6
 21
36.0
 31
0.0
  0
LINE
  5
F4
100
AcDbEntity
  8
GLAS_MED_FOGNING
100
AcDbLine
 10
9.6
 20
35.0
 30
0.0
 11
3.6
 21
35.0
 31
0.0
  0
LINE
  5
F5
100
AcDbEntity
  8
GLAS_MED_FOGNING
100
AcDbLine
 10
9.6
 20
33.0
 30
0.0
 11
3.6
 21
33.0
 31
0.0
  0
LINE
  5
F6
100
AcDbEntity
  8
GLAS_MED_FOGNING
100
AcDbLine
 10
9.6
 20
34.0
 30
0.0
 11
3.6
 21
34.0
 31
0.0
  0
LINE
  5
F7
100
AcDbEntity
  8
GLAS_MED_FOGNING
100
AcDbLine
 10
9.6
 20
41.0
 30
0.0
 11
3.6
 21
41.0
 31
0.0
  0
ENDBLK
  5
F9
100
AcDbEntity
  8
0
100
AcDbBlockEnd
  0
BLOCK
  5
472
100
AcDbEntity
  8
0
100
AcDbBlockBegin
  2
65_SP43520
 70
     0
 10
0.0
 20
0.0
 30
0.0
  3
65_SP43520
  1

  0
LINE
  5
44B
100
AcDbEntity
  8
GLAS_MED_FOGNING
100
AcDbLine
 10
-40.0
 20
30.0
 30
0.0
 11
-55.4
 21
30.0
 31
0.0
  0
INSERT
  5
44C
100
AcDbEntity
  8
GLAS_MED_FOGNING
100
AcDbBlockReference
  2
*X13
 10
0.0
 20
0.0
 30
0.0
1001
ACAD
1000
HATCH
1002
{
1070
    16
1000
AR-SAND
1040
2.0
1040
0.0
1002
}
  0
LWPOLYLINE
  5
46C
100
AcDbEntity
  8
CENTRUM
100
AcDbPolyline
 90
        4
 70
     0
 43
0.0
 10
0.0
 20
57.5
 10
-40.0
 20
57.5
 10
-55.4
 20
57.5
 10
-65.0
 20
57.5
  0
LINE
  5
46D
100
AcDbEntity
  8
GLAS_MED_FOGNING
100
AcDbLine
 10
-55.4
 20
57.5
 30
0.0
 11
-55.4
 21
49.0
 31
0.0
  0
INSERT
  5
46E
100
AcDbEntity
  8
GLAS_MED_FOGNING
100
AcDbBlockReference
  2
GLASV6_18
 10
-65.0
 20
0.0
 30
0.0
  0
LINE
  5
46F
100
AcDbEntity
  8
GLAS_MED_FOGNING
100
AcDbLine
 10
-40.0
 20
57.5
 30
0.0
 11
-40.0
 21
49.0
 31
0.0
  0
INSERT
  5
470
100
AcDbEntity
  8
0
100
AcDbBlockReference
  2
SP43520
 10
0.0
 20
0.0
 30
0.0
  0
INSERT
  5
471
100
AcDbEntity
  8
GLAS_MED_FOGNING
100
AcDbBlockReference
  2
GLASH5
 10
-15.0
 20
0.0
 30
0.0
  0
ENDBLK
  5
473
100
AcDbEntity
  8
0
100
AcDbBlockEnd
  0
BLOCK
  5
3D9
100
AcDbEntity
  8
0
100
AcDbBlockBegin
  2
65_SP44020DK
 70
     0
 10
0.0
 20
0.0
 30
0.0
  3
65_SP44020DK
  1

  0
LWPOLYLINE
  5
3CB
100
AcDbEntity
  8
CENTRUM
100
AcDbPolyline
 90
        4
 70
     0
 43
0.0
 10
0.0
 20
57.5
 10
-45.0
 20
57.5
 10
-55.4
 20
57.5
 10
-65.0
 20
57.5
  0
LINE
  5
3CC
100
AcDbEntity
  8
GLAS_MED_FOGNING
100
AcDbLine
 10
-45.0
 20
30.0
 30
0.0
 11
-55.4
 21
30.0
 31
0.0
  0
LWPOLYLINE
  5
3CD
100
AcDbEntity
  8
GLAS_MED_FOGNING
100
AcDbPolyline
 90
        4
 70
     1
 43
0.0
 10
-55.4
 20
30.0
 10
-55.4
 20
25.0
 10
-45.0
 20
30.0
 10
-45.0
 20
25.0
  0
INSERT
  5
3CE
100
AcDbEntity
  8
0
100
AcDbBlockReference
  2
GLASV6_18
 10
-65.0
 20
0.0
 30
0.0
  0
LINE
  5
3CF
100
AcDbEntity
  8
GLAS_MED_FOGNING
100
AcDbLine
 10
-55.4
 20
57.5
 30
0.0
 11
-55.4
 21
49.0
 31
0.0
  0
INSERT
  5
3D0
100
AcDbEntity
  8
0
100
AcDbBlockReference
  2
SP44020
 10
0.0
 20
0.0
 30
0.0
  0
INSERT
  5
3D7
100
AcDbEntity
  8
GLAS_MED_FOGNING
100
AcDbBlockReference
  2
GLASH5
 10
-20.0
 20
0.0
 30
0.0
  0
LINE
  5
3D8
100
AcDbEntity
  8
GLAS_MED_FOGNING
100
AcDbLine
 10
-45.0
 20
57.5
 30
0.0
 11
-45.0
 21
49.0
 31
0.0
  0
ENDBLK
  5
3DA
100
AcDbEntity
  8
0
100
AcDbBlockEnd
  0
BLOCK
  5
39F
100
AcDbEntity
  8
0
100
AcDbBlockBegin
  2
65_SP43020DK
 70
     0
 10
0.0
 20
0.0
 30
0.0
  3
65_SP43020DK
  1

  0
LWPOLYLINE
  5
397
100
AcDbEntity
  8
CENTRUM
100
AcDbPolyline
 90
        4
 70
     0
 43
0.0
 10
0.0
 20
57.5
 10
-35.0
 20
57.5
 10
-55.4
 20
57.5
 10
-65.0
 20
57.5
  0
LINE
  5
398
100
AcDbEntity
  8
GLAS_MED_FOGNING
100
AcDbLine
 10
-35.0
 20
30.0
 30
0.0
 11
-55.4
 21
30.0
 31
0.0
  0
LWPOLYLINE
  5
399
100
AcDbEntity
  8
GLAS_MED_FOGNING
100
AcDbPolyline
 90
        4
 70
     1
 43
0.0
 10
-55.4
 20
30.0
 10
-55.4
 20
25.0
 10
-35.0
 20
30.0
 10
-35.0
 20
25.0
  0
INSERT
  5
39A
100
AcDbEntity
  8
0
100
AcDbBlockReference
  2
GLASV6_18
 10
-65.0
 20
0.0
 30
0.0
  0
LINE
  5
39B
100
AcDbEntity
  8
GLAS_MED_FOGNING
100
AcDbLine
 10
-55.4
 20
57.5
 30
0.0
 11
-55.4
 21
49.0
 31
0.0
  0
INSERT
  5
39C
100
AcDbEntity
  8
0
100
AcDbBlockReference
  2
SP43020
 10
0.0
 20
0.0
 30
0.0
  0
INSERT
  5
39D
100
AcDbEntity
  8
GLAS_MED_FOGNING
100
AcDbBlockReference
  2
GLASH5
 10
-10.0
 20
0.0
 30
0.0
  0
LINE
  5
39E
100
AcDbEntity
  8
GLAS_MED_FOGNING
100
AcDbLine
 10
-35.0
 20
57.5
 30
0.0
 11
-35.0
 21
49.0
 31
0.0
  0
ENDBLK
  5
3A0
100
AcDbEntity
  8
0
100
AcDbBlockEnd
  0
BLOCK
  5
3C0
100
AcDbEntity
  8
0
100
AcDbBlockBegin
  2
65_SP42520DK
 70
     0
 10
0.0
 20
0.0
 30
0.0
  3
65_SP42520DK
  1

  0
LWPOLYLINE
  5
3B8
100
AcDbEntity
  8
CENTRUM
100
AcDbPolyline
 90
        4
 70
     0
 43
0.0
 10
0.0
 20
57.5
 10
-30.0
 20
57.5
 10
-55.4
 20
57.5
 10
-65.0
 20
57.5
  0
LINE
  5
3B9
100
AcDbEntity
  8
GLAS_MED_FOGNING
100
AcDbLine
 10
-30.0
 20
30.0
 30
0.0
 11
-55.4
 21
30.0
 31
0.0
  0
LWPOLYLINE
  5
3BA
100
AcDbEntity
  8
GLAS_MED_FOGNING
100
AcDbPolyline
 90
        4
 70
     1
 43
0.0
 10
-55.4
 20
30.0
 10
-55.4
 20
25.0
 10
-30.0
 20
30.0
 10
-30.0
 20
25.0
  0
INSERT
  5
3BB
100
AcDbEntity
  8
0
100
AcDbBlockReference
  2
GLASV6_18
 10
-65.0
 20
0.0
 30
0.0
  0
LINE
  5
3BC
100
AcDbEntity
  8
GLAS_MED_FOGNING
100
AcDbLine
 10
-55.4
 20
57.5
 30
0.0
 11
-55.4
 21
49.0
 31
0.0
  0
INSERT
  5
3BD
100
AcDbEntity
  8
0
100
AcDbBlockReference
  2
SP42520
 10
0.0
 20
0.0
 30
0.0
  0
INSERT
  5
3BE
100
AcDbEntity
  8
GLAS_MED_FOGNING
100
AcDbBlockReference
  2
GLASH5
 10
-5.0
 20
0.0
 30
0.0
  0
LINE
  5
3BF
100
AcDbEntity
  8
GLAS_MED_FOGNING
100
AcDbLine
 10
-30.0
 20
57.5
 30
0.0
 11
-30.0
 21
49.0
 31
0.0
  0
ENDBLK
  5
3C1
100
AcDbEntity
  8
0
100
AcDbBlockEnd
  0
BLOCK
  5
431
100
AcDbEntity
  8
0
100
AcDbBlockBegin
  2
65_SP42020DK
 70
     0
 10
0.0
 20
0.0
 30
0.0
  3
65_SP42020DK
  1

  0
LWPOLYLINE
  5
429
100
AcDbEntity
  8
CENTRUM
100
AcDbPolyline
 90
        4
 70
     0
 43
0.0
 10
0.0
 20
57.5
 10
-25.0
 20
57.5
 10
-55.4
 20
57.5
 10
-65.0
 20
57.5
  0
LINE
  5
42A
100
AcDbEntity
  8
GLAS_MED_FOGNING
100
AcDbLine
 10
-25.0
 20
30.0
 30
0.0
 11
-55.4
 21
30.0
 31
0.0
  0
LWPOLYLINE
  5
42B
100
AcDbEntity
  8
GLAS_MED_FOGNING
100
AcDbPolyline
 90
        4
 70
     1
 43
0.0
 10
-55.4
 20
30.0
 10
-55.4
 20
25.0
 10
-25.0
 20
30.0
 10
-25.0
 20
25.0
  0
INSERT
  5
42C
100
AcDbEntity
  8
0
100
AcDbBlockReference
  2
GLASV6_18
 10
-65.0
 20
0.0
 30
0.0
  0
LINE
  5
42D
100
AcDbEntity
  8
GLAS_MED_FOGNING
100
AcDbLine
 10
-55.4
 20
57.5
 30
0.0
 11
-55.4
 21
49.0
 31
0.0
  0
INSERT
  5
42E
100
AcDbEntity
  8
0
100
AcDbBlockReference
  2
SP42020
 10
0.0
 20
0.0
 30
0.0
  0
INSERT
  5
42F
100
AcDbEntity
  8
GLAS_MED_FOGNING
100
AcDbBlockReference
  2
GLASH5
 10
0.0
 20
0.0
 30
0.0
  0
LINE
  5
430
100
AcDbEntity
  8
GLAS_MED_FOGNING
100
AcDbLine
 10
-25.0
 20
57.5
 30
0.0
 11
-25.0
 21
49.0
 31
0.0
  0
ENDBLK
  5
432
100
AcDbEntity
  8
0
100
AcDbBlockEnd
  0
BLOCK
  5
194
100
AcDbEntity
  8
0
100
AcDbBlockBegin
  2
65_SP41520DK
 70
     0
 10
0.0
 20
0.0
 30
0.0
  3
65_SP41520DK
  1

  0
LWPOLYLINE
  5
18C
100
AcDbEntity
  8
CENTRUM
100
AcDbPolyline
 90
        4
 70
     0
 43
0.0
 10
0.0
 20
57.5
 10
-20.0
 20
57.5
 10
-55.4
 20
57.5
 10
-65.0
 20
57.5
  0
LINE
  5
18D
100
AcDbEntity
  8
GLAS_MED_FOGNING
100
AcDbLine
 10
-20.0
 20
30.0
 30
0.0
 11
-55.4
 21
30.0
 31
0.0
  0
LWPOLYLINE
  5
18E
100
AcDbEntity
  8
GLAS_MED_FOGNING
100
AcDbPolyline
 90
        4
 70
     1
 43
0.0
 10
-55.4
 20
30.0
 10
-55.4
 20
25.0
 10
-20.0
 20
30.0
 10
-20.0
 20
25.0
  0
INSERT
  5
18F
100
AcDbEntity
  8
0
100
AcDbBlockReference
  2
GLASV6_18
 10
-65.0
 20
0.0
 30
0.0
  0
LINE
  5
190
100
AcDbEntity
  8
GLAS_MED_FOGNING
100
AcDbLine
 10
-55.4
 20
57.5
 30
0.0
 11
-55.4
 21
49.0
 31
0.0
  0
INSERT
  5
191
100
AcDbEntity
  8
GLAS_MED_FOGNING
100
AcDbBlockReference
  2
SP41520
 10
0.0
 20
0.0
 30
0.0
  0
INSERT
  5
192
100
AcDbEntity
  8
GLAS_MED_FOGNING
100
AcDbBlockReference
  2
GLASH5
 10
5.0
 20
0.0
 30
0.0
  0
LINE
  5
193
100
AcDbEntity
  8
GLAS_MED_FOGNING
100
AcDbLine
 10
-20.0
 20
57.5
 30
0.0
 11
-20.0
 21
49.0
 31
0.0
  0
ENDBLK
  5
195
100
AcDbEntity
  8
0
100
AcDbBlockEnd
  0
BLOCK
  5
180
100
AcDbEntity
  8
0
100
AcDbBlockBegin
  2
*X21
 70
     1
 10
0.0
 20
0.0
 30
0.0
  3
*X21
  1

  0
LINE
  5
13F
100
AcDbEntity
  8
0
 62
     0
100
AcDbLine
 10
-37.789989
 20
26.307209
 30
0.0
 11
-37.789989
 21
26.307209
 31
0.0
  0
LINE
  5
140
100
AcDbEntity
  8
0
 62
     0
100
AcDbLine
 10
-35.092588
 20
28.376998
 30
0.0
 11
-35.092588
 21
28.376998
 31
0.0
  0
LINE
  5
141
100
AcDbEntity
  8
0
 62
     0
100
AcDbLine
 10
-42.906168
 20
26.331747
 30
0.0
 11
-42.906168
 21
26.331747
 31
0.0
  0
LINE
  5
142
100
AcDbEntity
  8
0
 62
     0
100
AcDbLine
 10
-40.32777
 20
28.310222
 30
0.0
 11
-40.32777
 21
28.310222
 31
0.0
  0
LINE
  5
143
100
AcDbEntity
  8
0
 62
     0
100
AcDbLine
 10
-48.141351
 20
26.264971
 30
0.0
 11
-48.141351
 21
26.264971
 31
0.0
  0
LINE
  5
144
100
AcDbEntity
  8
0
 62
     0
100
AcDbLine
 10
-45.729557
 20
28.115606
 30
0.0
 11
-45.729557
 21
28.115606
 31
0.0
  0
LINE
  5
145
100
AcDbEntity
  8
0
 62
     0
100
AcDbLine
 10
-53.543137
 20
26.070355
 30
0.0
 11
-53.543137
 21
26.070355
 31
0.0
  0
LINE
  5
146
100
AcDbEntity
  8
0
 62
     0
100
AcDbLine
 10
-50.845736
 20
28.140144
 30
0.0
 11
-50.845736
 21
28.140144
 31
0.0
  0
LINE
  5
147
100
AcDbEntity
  8
0
 62
     0
100
AcDbLine
 10
-53.669124
 20
29.924003
 30
0.0
 11
-53.669124
 21
29.924003
 31
0.0
  0
LINE
  5
148
100
AcDbEntity
  8
0
 62
     0
100
AcDbLine
 10
-32.388203
 20
26.501825
 30
0.0
 11
-32.388203
 21
26.501825
 31
0.0
  0
LINE
  5
149
100
AcDbEntity
  8
0
 62
     0
100
AcDbLine
 10
-29.976409
 20
28.35246
 30
0.0
 11
-29.976409
 21
28.35246
 31
0.0
  0
LINE
  5
14A
100
AcDbEntity
  8
0
 62
     0
100
AcDbLine
 10
-27.153021
 20
26.568601
 30
0.0
 11
-27.153021
 21
26.568601
 31
0.0
  0
LINE
  5
14B
100
AcDbEntity
  8
0
 62
     0
100
AcDbLine
 10
-24.574622
 20
28.547076
 30
0.0
 11
-24.574622
 21
28.547076
 31
0.0
  0
LINE
  5
14C
100
AcDbEntity
  8
0
 62
     0
100
AcDbLine
 10
-22.036841
 20
26.544063
 30
0.0
 11
-22.036841
 21
26.544063
 31
0.0
  0
LINE
  5
14D
100
AcDbEntity
  8
0
 62
     0
100
AcDbLine
 10
-44.406244
 20
25.223614
 30
0.0
 11
-44.406244
 21
25.223614
 31
0.0
  0
LINE
  5
14E
100
AcDbEntity
  8
0
 62
     0
100
AcDbLine
 10
-43.365227
 20
25.360666
 30
0.0
 11
-43.365227
 21
25.360666
 31
0.0
  0
LINE
  5
14F
100
AcDbEntity
  8
0
 62
     0
100
AcDbLine
 10
-41.739257
 20
25.574729
 30
0.0
 11
-41.739257
 21
25.574729
 31
0.0
  0
LINE
  5
150
100
AcDbEntity
  8
0
 62
     0
100
AcDbLine
 10
-39.022698
 20
25.932371
 30
0.0
 11
-39.022698
 21
25.932371
 31
0.0
  0
LINE
  5
151
100
AcDbEntity
  8
0
 62
     0
100
AcDbLine
 10
-37.981681
 20
26.069423
 30
0.0
 11
-37.981681
 21
26.069423
 31
0.0
  0
LINE
  5
152
100
AcDbEntity
  8
0
 62
     0
100
AcDbLine
 10
-36.355712
 20
26.283486
 30
0.0
 11
-36.355712
 21
26.283486
 31
0.0
  0
LINE
  5
153
100
AcDbEntity
  8
0
 62
     0
100
AcDbLine
 10
-33.639153
 20
26.641128
 30
0.0
 11
-33.639153
 21
26.641128
 31
0.0
  0
LINE
  5
154
100
AcDbEntity
  8
0
 62
     0
100
AcDbLine
 10
-32.598136
 20
26.778181
 30
0.0
 11
-32.598136
 21
26.778181
 31
0.0
  0
LINE
  5
155
100
AcDbEntity
  8
0
 62
     0
100
AcDbLine
 10
-30.972166
 20
26.992244
 30
0.0
 11
-30.972166
 21
26.992244
 31
0.0
  0
LINE
  5
156
100
AcDbEntity
  8
0
 62
     0
100
AcDbLine
 10
-28.255607
 20
27.349885
 30
0.0
 11
-28.255607
 21
27.349885
 31
0.0
  0
LINE
  5
157
100
AcDbEntity
  8
0
 62
     0
100
AcDbLine
 10
-27.21459
 20
27.486938
 30
0.0
 11
-27.21459
 21
27.486938
 31
0.0
  0
LINE
  5
158
100
AcDbEntity
  8
0
 62
     0
100
AcDbLine
 10
-25.58862
 20
27.701001
 30
0.0
 11
-25.58862
 21
27.701001
 31
0.0
  0
LINE
  5
159
100
AcDbEntity
  8
0
 62
     0
100
AcDbLine
 10
-22.872061
 20
28.058642
 30
0.0
 11
-22.872061
 21
28.058642
 31
0.0
  0
LINE
  5
15A
100
AcDbEntity
  8
0
 62
     0
100
AcDbLine
 10
-21.831044
 20
28.195695
 30
0.0
 11
-21.831044
 21
28.195695
 31
0.0
  0
LINE
  5
15B
100
AcDbEntity
  8
0
 62
     0
100
AcDbLine
 10
-20.205075
 20
28.409758
 30
0.0
 11
-20.205075
 21
28.409758
 31
0.0
  0
LINE
  5
15C
100
AcDbEntity
  8
0
 62
     0
100
AcDbLine
 10
-54.350341
 20
29.09275
 30
0.0
 11
-54.350341
 21
29.09275
 31
0.0
  0
LINE
  5
15D
100
AcDbEntity
  8
0
 62
     0
100
AcDbLine
 10
-51.633782
 20
29.450391
 30
0.0
 11
-51.633782
 21
29.450391
 31
0.0
  0
LINE
  5
15E
100
AcDbEntity
  8
0
 62
     0
100
AcDbLine
 10
-50.592764
 20
29.587444
 30
0.0
 11
-50.592764
 21
29.587444
 31
0.0
  0
LINE
  5
15F
100
AcDbEntity
  8
0
 62
     0
100
AcDbLine
 10
-48.966795
 20
29.801507
 30
0.0
 11
-48.966795
 21
29.801507
 31
0.0
  0
LINE
  5
160
100
AcDbEntity
  8
0
 62
     0
100
AcDbLine
 10
-43.292959
 20
29.992636
 30
0.0
 11
-43.292959
 21
29.992636
 31
0.0
  0
LINE
  5
161
100
AcDbEntity
  8
0
 62
     0
100
AcDbLine
 10
-42.449568
 20
29.455337
 30
0.0
 11
-42.449568
 21
29.455337
 31
0.0
  0
LINE
  5
162
100
AcDbEntity
  8
0
 62
     0
100
AcDbLine
 10
-39.413358
 20
27.521058
 30
0.0
 11
-39.413358
 21
27.521058
 31
0.0
  0
LINE
  5
163
100
AcDbEntity
  8
0
 62
     0
100
AcDbLine
 10
-36.221284
 20
29.466655
 30
0.0
 11
-36.221284
 21
29.466655
 31
0.0
  0
LINE
  5
164
100
AcDbEntity
  8
0
 62
     0
100
AcDbLine
 10
-33.185075
 20
27.532376
 30
0.0
 11
-33.185075
 21
27.532376
 31
0.0
  0
LINE
  5
165
100
AcDbEntity
  8
0
 62
     0
100
AcDbLine
 10
-29.221135
 20
25.007068
 30
0.0
 11
-29.221135
 21
25.007068
 31
0.0
  0
LINE
  5
166
100
AcDbEntity
  8
0
 62
     0
100
AcDbLine
 10
-29.993
 20
29.477973
 30
0.0
 11
-29.993
 21
29.477973
 31
0.0
  0
LINE
  5
167
100
AcDbEntity
  8
0
 62
     0
100
AcDbLine
 10
-26.956791
 20
27.543694
 30
0.0
 11
-26.956791
 21
27.543694
 31
0.0
  0
LINE
  5
168
100
AcDbEntity
  8
0
 62
     0
100
AcDbLine
 10
-22.992851
 20
25.018386
 30
0.0
 11
-22.992851
 21
25.018386
 31
0.0
  0
LINE
  5
169
100
AcDbEntity
  8
0
 62
     0
100
AcDbLine
 10
-23.764716
 20
29.489291
 30
0.0
 11
-23.764716
 21
29.489291
 31
0.0
  0
LINE
  5
16A
100
AcDbEntity
  8
0
 62
     0
100
AcDbLine
 10
-20.728507
 20
27.555012
 30
0.0
 11
-20.728507
 21
27.555012
 31
0.0
  0
LINE
  5
16B
100
AcDbEntity
  8
0
 62
     0
100
AcDbLine
 10
-49.521243
 20
29.981318
 30
0.0
 11
-49.521243
 21
29.981318
 31
0.0
  0
LINE
  5
16C
100
AcDbEntity
  8
0
 62
     0
100
AcDbLine
 10
-48.677851
 20
29.444019
 30
0.0
 11
-48.677851
 21
29.444019
 31
0.0
  0
LINE
  5
16D
100
AcDbEntity
  8
0
 62
     0
100
AcDbLine
 10
-45.641642
 20
27.50974
 30
0.0
 11
-45.641642
 21
27.50974
 31
0.0
  0
LINE
  5
16E
100
AcDbEntity
  8
0
 62
     0
100
AcDbLine
 10
-54.906135
 20
29.4327
 30
0.0
 11
-54.906135
 21
29.4327
 31
0.0
  0
LINE
  5
16F
100
AcDbEntity
  8
0
 62
     0
100
AcDbLine
 10
-51.869926
 20
27.498422
 30
0.0
 11
-51.869926
 21
27.498422
 31
0.0
  0
LINE
  5
170
100
AcDbEntity
  8
0
 62
     0
100
AcDbLine
 10
-34.885457
 20
29.712457
 30
0.0
 11
-34.885457
 21
29.712457
 31
0.0
  0
LINE
  5
171
100
AcDbEntity
  8
0
 62
     0
100
AcDbLine
 10
-33.145483
 20
28.118064
 30
0.0
 11
-33.145483
 21
28.118064
 31
0.0
  0
LINE
  5
172
100
AcDbEntity
  8
0
 62
     0
100
AcDbLine
 10
-31.154834
 20
26.293971
 30
0.0
 11
-31.154834
 21
26.293971
 31
0.0
  0
LINE
  5
173
100
AcDbEntity
  8
0
 62
     0
100
AcDbLine
 10
-30.786195
 20
25.956176
 30
0.0
 11
-30.786195
 21
25.956176
 31
0.0
  0
LINE
  5
174
100
AcDbEntity
  8
0
 62
     0
100
AcDbLine
 10
-27.13323
 20
29.873416
 30
0.0
 11
-27.13323
 21
29.873416
 31
0.0
  0
LINE
  5
175
100
AcDbEntity
  8
0
 62
     0
100
AcDbLine
 10
-25.142581
 20
28.049322
 30
0.0
 11
-25.142581
 21
28.049322
 31
0.0
  0
LINE
  5
176
100
AcDbEntity
  8
0
 62
     0
100
AcDbLine
 10
-24.773942
 20
27.711527
 30
0.0
 11
-24.773942
 21
27.711527
 31
0.0
  0
LINE
  5
177
100
AcDbEntity
  8
0
 62
     0
100
AcDbLine
 10
-23.033968
 20
26.117134
 30
0.0
 11
-23.033968
 21
26.117134
 31
0.0
  0
LINE
  5
178
100
AcDbEntity
  8
0
 62
     0
100
AcDbLine
 10
-41.266349
 20
28.294901
 30
0.0
 11
-41.266349
 21
28.294901
 31
0.0
  0
LINE
  5
179
100
AcDbEntity
  8
0
 62
     0
100
AcDbLine
 10
-40.89771
 20
27.957106
 30
0.0
 11
-40.89771
 21
27.957106
 31
0.0
  0
LINE
  5
17A
100
AcDbEntity
  8
0
 62
     0
100
AcDbLine
 10
-39.157736
 20
26.362713
 30
0.0
 11
-39.157736
 21
26.362713
 31
0.0
  0
LINE
  5
17B
100
AcDbEntity
  8
0
 62
     0
100
AcDbLine
 10
-51.009226
 20
29.958037
 30
0.0
 11
-51.009226
 21
29.958037
 31
0.0
  0
LINE
  5
17C
100
AcDbEntity
  8
0
 62
     0
100
AcDbLine
 10
-49.269251
 20
28.363644
 30
0.0
 11
-49.269251
 21
28.363644
 31
0.0
  0
LINE
  5
17D
100
AcDbEntity
  8
0
 62
     0
100
AcDbLine
 10
-47.278602
 20
26.53955
 30
0.0
 11
-47.278602
 21
26.53955
 31
0.0
  0
LINE
  5
17E
100
AcDbEntity
  8
0
 62
     0
100
AcDbLine
 10
-46.909964
 20
26.201755
 30
0.0
 11
-46.909964
 21
26.201755
 31
0.0
  0
LINE
  5
17F
100
AcDbEntity
  8
0
 62
     0
100
AcDbLine
 10
-55.281504
 20
26.608293
 30
0.0
 11
-55.281504
 21
26.608293
 31
0.0
  0
ENDBLK
  5
181
100
AcDbEntity
  8
0
100
AcDbBlockEnd
  0
BLOCK
  5
188
100
AcDbEntity
  8
0
100
AcDbBlockBegin
  2
65_SP41520
 70
     0
 10
0.0
 20
0.0
 30
0.0
  3
65_SP41520
  1

  0
LINE
  5
13C
100
AcDbEntity
  8
GLAS_MED_FOGNING
100
AcDbLine
 10
-20.0
 20
30.0
 30
0.0
 11
-55.4
 21
30.0
 31
0.0
  0
INSERT
  5
13D
100
AcDbEntity
  8
GLAS_MED_FOGNING
100
AcDbBlockReference
  2
*X21
 10
0.0
 20
0.0
 30
0.0
1001
ACAD
1000
HATCH
1002
{
1070
    16
1000
AR-SAND
1040
2.0
1040
0.0
1002
}
  0
LWPOLYLINE
  5
182
100
AcDbEntity
  8
CENTRUM
100
AcDbPolyline
 90
        4
 70
     0
 43
0.0
 10
0.0
 20
57.5
 10
-20.0
 20
57.5
 10
-55.4
 20
57.5
 10
-65.0
 20
57.5
  0
INSERT
  5
183
100
AcDbEntity
  8
0
100
AcDbBlockReference
  2
GLASV6_18
 10
-65.0
 20
0.0
 30
0.0
  0
LINE
  5
184
100
AcDbEntity
  8
GLAS_MED_FOGNING
100
AcDbLine
 10
-55.4
 20
57.5
 30
0.0
 11
-55.4
 21
49.0
 31
0.0
  0
INSERT
  5
185
100
AcDbEntity
  8
GLAS_MED_FOGNING
100
AcDbBlockReference
  2
SP41520
 10
0.0
 20
0.0
 30
0.0
  0
INSERT
  5
186
100
AcDbEntity
  8
GLAS_MED_FOGNING
100
AcDbBlockReference
  2
GLASH5
 10
5.0
 20
0.0
 30
0.0
  0
LINE
  5
187
100
AcDbEntity
  8
GLAS_MED_FOGNING
100
AcDbLine
 10
-20.0
 20
57.5
 30
0.0
 11
-20.0
 21
49.0
 31
0.0
  0
ENDBLK
  5
189
100
AcDbEntity
  8
0
100
AcDbBlockEnd
  0
BLOCK
  5
134
100
AcDbEntity
  8
0
100
AcDbBlockBegin
  2
*X23
 70
     1
 10
0.0
 20
0.0
 30
0.0
  3
*X23
  1

  0
LINE
  5
FD
100
AcDbEntity
  8
0
 62
     0
100
AcDbLine
 10
-37.789989
 20
26.307209
 30
0.0
 11
-37.789989
 21
26.307209
 31
0.0
  0
LINE
  5
FE
100
AcDbEntity
  8
0
 62
     0
100
AcDbLine
 10
-35.092588
 20
28.376998
 30
0.0
 11
-35.092588
 21
28.376998
 31
0.0
  0
LINE
  5
FF
100
AcDbEntity
  8
0
 62
     0
100
AcDbLine
 10
-42.906168
 20
26.331747
 30
0.0
 11
-42.906168
 21
26.331747
 31
0.0
  0
LINE
  5
100
100
AcDbEntity
  8
0
 62
     0
100
AcDbLine
 10
-40.32777
 20
28.310222
 30
0.0
 11
-40.32777
 21
28.310222
 31
0.0
  0
LINE
  5
101
100
AcDbEntity
  8
0
 62
     0
100
AcDbLine
 10
-48.141351
 20
26.264971
 30
0.0
 11
-48.141351
 21
26.264971
 31
0.0
  0
LINE
  5
102
100
AcDbEntity
  8
0
 62
     0
100
AcDbLine
 10
-45.729557
 20
28.115606
 30
0.0
 11
-45.729557
 21
28.115606
 31
0.0
  0
LINE
  5
103
100
AcDbEntity
  8
0
 62
     0
100
AcDbLine
 10
-53.543137
 20
26.070355
 30
0.0
 11
-53.543137
 21
26.070355
 31
0.0
  0
LINE
  5
104
100
AcDbEntity
  8
0
 62
     0
100
AcDbLine
 10
-50.845736
 20
28.140144
 30
0.0
 11
-50.845736
 21
28.140144
 31
0.0
  0
LINE
  5
105
100
AcDbEntity
  8
0
 62
     0
100
AcDbLine
 10
-53.669124
 20
29.924003
 30
0.0
 11
-53.669124
 21
29.924003
 31
0.0
  0
LINE
  5
106
100
AcDbEntity
  8
0
 62
     0
100
AcDbLine
 10
-32.388203
 20
26.501825
 30
0.0
 11
-32.388203
 21
26.501825
 31
0.0
  0
LINE
  5
107
100
AcDbEntity
  8
0
 62
     0
100
AcDbLine
 10
-29.976409
 20
28.35246
 30
0.0
 11
-29.976409
 21
28.35246
 31
0.0
  0
LINE
  5
108
100
AcDbEntity
  8
0
 62
     0
100
AcDbLine
 10
-27.153021
 20
26.568601
 30
0.0
 11
-27.153021
 21
26.568601
 31
0.0
  0
LINE
  5
109
100
AcDbEntity
  8
0
 62
     0
100
AcDbLine
 10
-44.406244
 20
25.223614
 30
0.0
 11
-44.406244
 21
25.223614
 31
0.0
  0
LINE
  5
10A
100
AcDbEntity
  8
0
 62
     0
100
AcDbLine
 10
-43.365227
 20
25.360666
 30
0.0
 11
-43.365227
 21
25.360666
 31
0.0
  0
LINE
  5
10B
100
AcDbEntity
  8
0
 62
     0
100
AcDbLine
 10
-41.739257
 20
25.574729
 30
0.0
 11
-41.739257
 21
25.574729
 31
0.0
  0
LINE
  5
10C
100
AcDbEntity
  8
0
 62
     0
100
AcDbLine
 10
-39.022698
 20
25.932371
 30
0.0
 11
-39.022698
 21
25.932371
 31
0.0
  0
LINE
  5
10D
100
AcDbEntity
  8
0
 62
     0
100
AcDbLine
 10
-37.981681
 20
26.069423
 30
0.0
 11
-37.981681
 21
26.069423
 31
0.0
  0
LINE
  5
10E
100
AcDbEntity
  8
0
 62
     0
100
AcDbLine
 10
-36.355712
 20
26.283486
 30
0.0
 11
-36.355712
 21
26.283486
 31
0.0
  0
LINE
  5
10F
100
AcDbEntity
  8
0
 62
     0
100
AcDbLine
 10
-33.639153
 20
26.641128
 30
0.0
 11
-33.639153
 21
26.641128
 31
0.0
  0
LINE
  5
110
100
AcDbEntity
  8
0
 62
     0
100
AcDbLine
 10
-32.598136
 20
26.778181
 30
0.0
 11
-32.598136
 21
26.778181
 31
0.0
  0
LINE
  5
111
100
AcDbEntity
  8
0
 62
     0
100
AcDbLine
 10
-30.972166
 20
26.992244
 30
0.0
 11
-30.972166
 21
26.992244
 31
0.0
  0
LINE
  5
112
100
AcDbEntity
  8
0
 62
     0
100
AcDbLine
 10
-28.255607
 20
27.349885
 30
0.0
 11
-28.255607
 21
27.349885
 31
0.0
  0
LINE
  5
113
100
AcDbEntity
  8
0
 62
     0
100
AcDbLine
 10
-27.21459
 20
27.486938
 30
0.0
 11
-27.21459
 21
27.486938
 31
0.0
  0
LINE
  5
114
100
AcDbEntity
  8
0
 62
     0
100
AcDbLine
 10
-25.58862
 20
27.701001
 30
0.0
 11
-25.58862
 21
27.701001
 31
0.0
  0
LINE
  5
115
100
AcDbEntity
  8
0
 62
     0
100
AcDbLine
 10
-54.350341
 20
29.09275
 30
0.0
 11
-54.350341
 21
29.09275
 31
0.0
  0
LINE
  5
116
100
AcDbEntity
  8
0
 62
     0
100
AcDbLine
 10
-51.633782
 20
29.450391
 30
0.0
 11
-51.633782
 21
29.450391
 31
0.0
  0
LINE
  5
117
100
AcDbEntity
  8
0
 62
     0
100
AcDbLine
 10
-50.592764
 20
29.587444
 30
0.0
 11
-50.592764
 21
29.587444
 31
0.0
  0
LINE
  5
118
100
AcDbEntity
  8
0
 62
     0
100
AcDbLine
 10
-48.966795
 20
29.801507
 30
0.0
 11
-48.966795
 21
29.801507
 31
0.0
  0
LINE
  5
119
100
AcDbEntity
  8
0
 62
     0
100
AcDbLine
 10
-49.521243
 20
29.981318
 30
0.0
 11
-49.521243
 21
29.981318
 31
0.0
  0
LINE
  5
11A
100
AcDbEntity
  8
0
 62
     0
100
AcDbLine
 10
-48.677851
 20
29.444019
 30
0.0
 11
-48.677851
 21
29.444019
 31
0.0
  0
LINE
  5
11B
100
AcDbEntity
  8
0
 62
     0
100
AcDbLine
 10
-45.641642
 20
27.50974
 30
0.0
 11
-45.641642
 21
27.50974
 31
0.0
  0
LINE
  5
11C
100
AcDbEntity
  8
0
 62
     0
100
AcDbLine
 10
-43.292959
 20
29.992636
 30
0.0
 11
-43.292959
 21
29.992636
 31
0.0
  0
LINE
  5
11D
100
AcDbEntity
  8
0
 62
     0
100
AcDbLine
 10
-42.449568
 20
29.455337
 30
0.0
 11
-42.449568
 21
29.455337
 31
0.0
  0
LINE
  5
11E
100
AcDbEntity
  8
0
 62
     0
100
AcDbLine
 10
-39.413358
 20
27.521058
 30
0.0
 11
-39.413358
 21
27.521058
 31
0.0
  0
LINE
  5
11F
100
AcDbEntity
  8
0
 62
     0
100
AcDbLine
 10
-36.221284
 20
29.466655
 30
0.0
 11
-36.221284
 21
29.466655
 31
0.0
  0
LINE
  5
120
100
AcDbEntity
  8
0
 62
     0
100
AcDbLine
 10
-33.185075
 20
27.532376
 30
0.0
 11
-33.185075
 21
27.532376
 31
0.0
  0
LINE
  5
121
100
AcDbEntity
  8
0
 62
     0
100
AcDbLine
 10
-29.221135
 20
25.007068
 30
0.0
 11
-29.221135
 21
25.007068
 31
0.0
  0
LINE
  5
122
100
AcDbEntity
  8
0
 62
     0
100
AcDbLine
 10
-29.993
 20
29.477973
 30
0.0
 11
-29.993
 21
29.477973
 31
0.0
  0
LINE
  5
123
100
AcDbEntity
  8
0
 62
     0
100
AcDbLine
 10
-26.956791
 20
27.543694
 30
0.0
 11
-26.956791
 21
27.543694
 31
0.0
  0
LINE
  5
124
100
AcDbEntity
  8
0
 62
     0
100
AcDbLine
 10
-54.906135
 20
29.4327
 30
0.0
 11
-54.906135
 21
29.4327
 31
0.0
  0
LINE
  5
125
100
AcDbEntity
  8
0
 62
     0
100
AcDbLine
 10
-51.869926
 20
27.498422
 30
0.0
 11
-51.869926
 21
27.498422
 31
0.0
  0
LINE
  5
126
100
AcDbEntity
  8
0
 62
     0
100
AcDbLine
 10
-34.885457
 20
29.712457
 30
0.0
 11
-34.885457
 21
29.712457
 31
0.0
  0
LINE
  5
127
100
AcDbEntity
  8
0
 62
     0
100
AcDbLine
 10
-33.145483
 20
28.118064
 30
0.0
 11
-33.145483
 21
28.118064
 31
0.0
  0
LINE
  5
128
100
AcDbEntity
  8
0
 62
     0
100
AcDbLine
 10
-31.154834
 20
26.293971
 30
0.0
 11
-31.154834
 21
26.293971
 31
0.0
  0
LINE
  5
129
100
AcDbEntity
  8
0
 62
     0
100
AcDbLine
 10
-30.786195
 20
25.956176
 30
0.0
 11
-30.786195
 21
25.956176
 31
0.0
  0
LINE
  5
12A
100
AcDbEntity
  8
0
 62
     0
100
AcDbLine
 10
-27.13323
 20
29.873416
 30
0.0
 11
-27.13323
 21
29.873416
 31
0.0
  0
LINE
  5
12B
100
AcDbEntity
  8
0
 62
     0
100
AcDbLine
 10
-25.142581
 20
28.049322
 30
0.0
 11
-25.142581
 21
28.049322
 31
0.0
  0
LINE
  5
12C
100
AcDbEntity
  8
0
 62
     0
100
AcDbLine
 10
-41.266349
 20
28.294901
 30
0.0
 11
-41.266349
 21
28.294901
 31
0.0
  0
LINE
  5
12D
100
AcDbEntity
  8
0
 62
     0
100
AcDbLine
 10
-40.89771
 20
27.957106
 30
0.0
 11
-40.89771
 21
27.957106
 31
0.0
  0
LINE
  5
12E
100
AcDbEntity
  8
0
 62
     0
100
AcDbLine
 10
-39.157736
 20
26.362713
 30
0.0
 11
-39.157736
 21
26.362713
 31
0.0
  0
LINE
  5
12F
100
AcDbEntity
  8
0
 62
     0
100
AcDbLine
 10
-51.009226
 20
29.958037
 30
0.0
 11
-51.009226
 21
29.958037
 31
0.0
  0
LINE
  5
130
100
AcDbEntity
  8
0
 62
     0
100
AcDbLine
 10
-49.269251
 20
28.363644
 30
0.0
 11
-49.269251
 21
28.363644
 31
0.0
  0
LINE
  5
131
100
AcDbEntity
  8
0
 62
     0
100
AcDbLine
 10
-47.278602
 20
26.53955
 30
0.0
 11
-47.278602
 21
26.53955
 31
0.0
  0
LINE
  5
132
100
AcDbEntity
  8
0
 62
     0
100
AcDbLine
 10
-46.909964
 20
26.201755
 30
0.0
 11
-46.909964
 21
26.201755
 31
0.0
  0
LINE
  5
133
100
AcDbEntity
  8
0
 62
     0
100
AcDbLine
 10
-55.281504
 20
26.608293
 30
0.0
 11
-55.281504
 21
26.608293
 31
0.0
  0
ENDBLK
  5
135
100
AcDbEntity
  8
0
100
AcDbBlockEnd
  0
BLOCK
  5
423
100
AcDbEntity
  8
0
100
AcDbBlockBegin
  2
65_SP42020
 70
     0
 10
0.0
 20
0.0
 30
0.0
  3
65_SP42020
  1

  0
LINE
  5
41B
100
AcDbEntity
  8
GLAS_MED_FOGNING
100
AcDbLine
 10
-25.0
 20
30.0
 30
0.0
 11
-55.4
 21
30.0
 31
0.0
  0
INSERT
  5
41C
100
AcDbEntity
  8
GLAS_MED_FOGNING
100
AcDbBlockReference
  2
*X23
 10
0.0
 20
0.0
 30
0.0
1001
ACAD
1000
HATCH
1002
{
1070
    16
1000
AR-SAND
1040
2.0
1040
0.0
1002
}
  0
LWPOLYLINE
  5
41D
100
AcDbEntity
  8
CENTRUM
100
AcDbPolyline
 90
        4
 70
     0
 43
0.0
 10
0.0
 20
57.5
 10
-25.0
 20
57.5
 10
-55.4
 20
57.5
 10
-65.0
 20
57.5
  0
INSERT
  5
41E
100
AcDbEntity
  8
0
100
AcDbBlockReference
  2
GLASV6_18
 10
-65.0
 20
0.0
 30
0.0
  0
LINE
  5
41F
100
AcDbEntity
  8
GLAS_MED_FOGNING
100
AcDbLine
 10
-55.4
 20
57.5
 30
0.0
 11
-55.4
 21
49.0
 31
0.0
  0
INSERT
  5
420
100
AcDbEntity
  8
0
100
AcDbBlockReference
  2
SP42020
 10
0.0
 20
0.0
 30
0.0
  0
INSERT
  5
421
100
AcDbEntity
  8
GLAS_MED_FOGNING
100
AcDbBlockReference
  2
GLASH5
 10
0.0
 20
0.0
 30
0.0
  0
LINE
  5
422
100
AcDbEntity
  8
GLAS_MED_FOGNING
100
AcDbLine
 10
-25.0
 20
57.5
 30
0.0
 11
-25.0
 21
49.0
 31
0.0
  0
ENDBLK
  5
424
100
AcDbEntity
  8
0
100
AcDbBlockEnd
  0
BLOCK
  5
1C8
100
AcDbEntity
  8
0
100
AcDbBlockBegin
  2
*X25
 70
     1
 10
0.0
 20
0.0
 30
0.0
  3
*X25
  1

  0
LINE
  5
19B
100
AcDbEntity
  8
0
 62
     0
100
AcDbLine
 10
-42.906168
 20
26.331747
 30
0.0
 11
-42.906168
 21
26.331747
 31
0.0
  0
LINE
  5
19C
100
AcDbEntity
  8
0
 62
     0
100
AcDbLine
 10
-40.32777
 20
28.310222
 30
0.0
 11
-40.32777
 21
28.310222
 31
0.0
  0
LINE
  5
19D
100
AcDbEntity
  8
0
 62
     0
100
AcDbLine
 10
-48.141351
 20
26.264971
 30
0.0
 11
-48.141351
 21
26.264971
 31
0.0
  0
LINE
  5
19E
100
AcDbEntity
  8
0
 62
     0
100
AcDbLine
 10
-45.729557
 20
28.115606
 30
0.0
 11
-45.729557
 21
28.115606
 31
0.0
  0
LINE
  5
19F
100
AcDbEntity
  8
0
 62
     0
100
AcDbLine
 10
-53.543137
 20
26.070355
 30
0.0
 11
-53.543137
 21
26.070355
 31
0.0
  0
LINE
  5
1A0
100
AcDbEntity
  8
0
 62
     0
100
AcDbLine
 10
-50.845736
 20
28.140144
 30
0.0
 11
-50.845736
 21
28.140144
 31
0.0
  0
LINE
  5
1A1
100
AcDbEntity
  8
0
 62
     0
100
AcDbLine
 10
-53.669124
 20
29.924003
 30
0.0
 11
-53.669124
 21
29.924003
 31
0.0
  0
LINE
  5
1A2
100
AcDbEntity
  8
0
 62
     0
100
AcDbLine
 10
-37.789989
 20
26.307209
 30
0.0
 11
-37.789989
 21
26.307209
 31
0.0
  0
LINE
  5
1A3
100
AcDbEntity
  8
0
 62
     0
100
AcDbLine
 10
-35.092588
 20
28.376998
 30
0.0
 11
-35.092588
 21
28.376998
 31
0.0
  0
LINE
  5
1A4
100
AcDbEntity
  8
0
 62
     0
100
AcDbLine
 10
-32.388203
 20
26.501825
 30
0.0
 11
-32.388203
 21
26.501825
 31
0.0
  0
LINE
  5
1A5
100
AcDbEntity
  8
0
 62
     0
100
AcDbLine
 10
-44.406244
 20
25.223614
 30
0.0
 11
-44.406244
 21
25.223614
 31
0.0
  0
LINE
  5
1A6
100
AcDbEntity
  8
0
 62
     0
100
AcDbLine
 10
-43.365227
 20
25.360666
 30
0.0
 11
-43.365227
 21
25.360666
 31
0.0
  0
LINE
  5
1A7
100
AcDbEntity
  8
0
 62
     0
100
AcDbLine
 10
-41.739257
 20
25.574729
 30
0.0
 11
-41.739257
 21
25.574729
 31
0.0
  0
LINE
  5
1A8
100
AcDbEntity
  8
0
 62
     0
100
AcDbLine
 10
-39.022698
 20
25.932371
 30
0.0
 11
-39.022698
 21
25.932371
 31
0.0
  0
LINE
  5
1A9
100
AcDbEntity
  8
0
 62
     0
100
AcDbLine
 10
-37.981681
 20
26.069423
 30
0.0
 11
-37.981681
 21
26.069423
 31
0.0
  0
LINE
  5
1AA
100
AcDbEntity
  8
0
 62
     0
100
AcDbLine
 10
-36.355712
 20
26.283486
 30
0.0
 11
-36.355712
 21
26.283486
 31
0.0
  0
LINE
  5
1AB
100
AcDbEntity
  8
0
 62
     0
100
AcDbLine
 10
-33.639153
 20
26.641128
 30
0.0
 11
-33.639153
 21
26.641128
 31
0.0
  0
LINE
  5
1AC
100
AcDbEntity
  8
0
 62
     0
100
AcDbLine
 10
-32.598136
 20
26.778181
 30
0.0
 11
-32.598136
 21
26.778181
 31
0.0
  0
LINE
  5
1AD
100
AcDbEntity
  8
0
 62
     0
100
AcDbLine
 10
-30.972166
 20
26.992244
 30
0.0
 11
-30.972166
 21
26.992244
 31
0.0
  0
LINE
  5
1AE
100
AcDbEntity
  8
0
 62
     0
100
AcDbLine
 10
-54.350341
 20
29.09275
 30
0.0
 11
-54.350341
 21
29.09275
 31
0.0
  0
LINE
  5
1AF
100
AcDbEntity
  8
0
 62
     0
100
AcDbLine
 10
-51.633782
 20
29.450391
 30
0.0
 11
-51.633782
 21
29.450391
 31
0.0
  0
LINE
  5
1B0
100
AcDbEntity
  8
0
 62
     0
100
AcDbLine
 10
-50.592764
 20
29.587444
 30
0.0
 11
-50.592764
 21
29.587444
 31
0.0
  0
LINE
  5
1B1
100
AcDbEntity
  8
0
 62
     0
100
AcDbLine
 10
-48.966795
 20
29.801507
 30
0.0
 11
-48.966795
 21
29.801507
 31
0.0
  0
LINE
  5
1B2
100
AcDbEntity
  8
0
 62
     0
100
AcDbLine
 10
-49.521243
 20
29.981318
 30
0.0
 11
-49.521243
 21
29.981318
 31
0.0
  0
LINE
  5
1B3
100
AcDbEntity
  8
0
 62
     0
100
AcDbLine
 10
-48.677851
 20
29.444019
 30
0.0
 11
-48.677851
 21
29.444019
 31
0.0
  0
LINE
  5
1B4
100
AcDbEntity
  8
0
 62
     0
100
AcDbLine
 10
-45.641642
 20
27.50974
 30
0.0
 11
-45.641642
 21
27.50974
 31
0.0
  0
LINE
  5
1B5
100
AcDbEntity
  8
0
 62
     0
100
AcDbLine
 10
-43.292959
 20
29.992636
 30
0.0
 11
-43.292959
 21
29.992636
 31
0.0
  0
LINE
  5
1B6
100
AcDbEntity
  8
0
 62
     0
100
AcDbLine
 10
-42.449568
 20
29.455337
 30
0.0
 11
-42.449568
 21
29.455337
 31
0.0
  0
LINE
  5
1B7
100
AcDbEntity
  8
0
 62
     0
100
AcDbLine
 10
-39.413358
 20
27.521058
 30
0.0
 11
-39.413358
 21
27.521058
 31
0.0
  0
LINE
  5
1B8
100
AcDbEntity
  8
0
 62
     0
100
AcDbLine
 10
-36.221284
 20
29.466655
 30
0.0
 11
-36.221284
 21
29.466655
 31
0.0
  0
LINE
  5
1B9
100
AcDbEntity
  8
0
 62
     0
100
AcDbLine
 10
-33.185075
 20
27.532376
 30
0.0
 11
-33.185075
 21
27.532376
 31
0.0
  0
LINE
  5
1BA
100
AcDbEntity
  8
0
 62
     0
100
AcDbLine
 10
-54.906135
 20
29.4327
 30
0.0
 11
-54.906135
 21
29.4327
 31
0.0
  0
LINE
  5
1BB
100
AcDbEntity
  8
0
 62
     0
100
AcDbLine
 10
-51.869926
 20
27.498422
 30
0.0
 11
-51.869926
 21
27.498422
 31
0.0
  0
LINE
  5
1BC
100
AcDbEntity
  8
0
 62
     0
100
AcDbLine
 10
-41.266349
 20
28.294901
 30
0.0
 11
-41.266349
 21
28.294901
 31
0.0
  0
LINE
  5
1BD
100
AcDbEntity
  8
0
 62
     0
100
AcDbLine
 10
-40.89771
 20
27.957106
 30
0.0
 11
-40.89771
 21
27.957106
 31
0.0
  0
LINE
  5
1BE
100
AcDbEntity
  8
0
 62
     0
100
AcDbLine
 10
-39.157736
 20
26.362713
 30
0.0
 11
-39.157736
 21
26.362713
 31
0.0
  0
LINE
  5
1BF
100
AcDbEntity
  8
0
 62
     0
100
AcDbLine
 10
-34.885457
 20
29.712457
 30
0.0
 11
-34.885457
 21
29.712457
 31
0.0
  0
LINE
  5
1C0
100
AcDbEntity
  8
0
 62
     0
100
AcDbLine
 10
-33.145483
 20
28.118064
 30
0.0
 11
-33.145483
 21
28.118064
 31
0.0
  0
LINE
  5
1C1
100
AcDbEntity
  8
0
 62
     0
100
AcDbLine
 10
-31.154834
 20
26.293971
 30
0.0
 11
-31.154834
 21
26.293971
 31
0.0
  0
LINE
  5
1C2
100
AcDbEntity
  8
0
 62
     0
100
AcDbLine
 10
-30.786195
 20
25.956176
 30
0.0
 11
-30.786195
 21
25.956176
 31
0.0
  0
LINE
  5
1C3
100
AcDbEntity
  8
0
 62
     0
100
AcDbLine
 10
-51.009226
 20
29.958037
 30
0.0
 11
-51.009226
 21
29.958037
 31
0.0
  0
LINE
  5
1C4
100
AcDbEntity
  8
0
 62
     0
100
AcDbLine
 10
-49.269251
 20
28.363644
 30
0.0
 11
-49.269251
 21
28.363644
 31
0.0
  0
LINE
  5
1C5
100
AcDbEntity
  8
0
 62
     0
100
AcDbLine
 10
-47.278602
 20
26.53955
 30
0.0
 11
-47.278602
 21
26.53955
 31
0.0
  0
LINE
  5
1C6
100
AcDbEntity
  8
0
 62
     0
100
AcDbLine
 10
-46.909964
 20
26.201755
 30
0.0
 11
-46.909964
 21
26.201755
 31
0.0
  0
LINE
  5
1C7
100
AcDbEntity
  8
0
 62
     0
100
AcDbLine
 10
-55.281504
 20
26.608293
 30
0.0
 11
-55.281504
 21
26.608293
 31
0.0
  0
ENDBLK
  5
1C9
100
AcDbEntity
  8
0
100
AcDbBlockEnd
  0
BLOCK
  5
3B1
100
AcDbEntity
  8
0
100
AcDbBlockBegin
  2
65_SP42520
 70
     0
 10
0.0
 20
0.0
 30
0.0
  3
65_SP42520
  1

  0
LINE
  5
3A3
100
AcDbEntity
  8
GLAS_MED_FOGNING
100
AcDbLine
 10
-30.0
 20
30.0
 30
0.0
 11
-55.4
 21
30.0
 31
0.0
  0
INSERT
  5
3A4
100
AcDbEntity
  8
GLAS_MED_FOGNING
100
AcDbBlockReference
  2
*X25
 10
0.0
 20
0.0
 30
0.0
1001
ACAD
1000
HATCH
1002
{
1070
    16
1000
AR-SAND
1040
2.0
1040
0.0
1002
}
  0
LWPOLYLINE
  5
3A5
100
AcDbEntity
  8
CENTRUM
100
AcDbPolyline
 90
        4
 70
     0
 43
0.0
 10
0.0
 20
57.5
 10
-30.0
 20
57.5
 10
-55.4
 20
57.5
 10
-65.0
 20
57.5
  0
INSERT
  5
3A6
100
AcDbEntity
  8
0
100
AcDbBlockReference
  2
GLASV6_18
 10
-65.0
 20
0.0
 30
0.0
  0
LINE
  5
3A7
100
AcDbEntity
  8
GLAS_MED_FOGNING
100
AcDbLine
 10
-55.4
 20
57.5
 30
0.0
 11
-55.4
 21
49.0
 31
0.0
  0
INSERT
  5
3A8
100
AcDbEntity
  8
0
100
AcDbBlockReference
  2
SP42520
 10
0.0
 20
0.0
 30
0.0
  0
INSERT
  5
3AF
100
AcDbEntity
  8
GLAS_MED_FOGNING
100
AcDbBlockReference
  2
GLASH5
 10
-5.0
 20
0.0
 30
0.0
  0
LINE
  5
3B0
100
AcDbEntity
  8
GLAS_MED_FOGNING
100
AcDbLine
 10
-30.0
 20
57.5
 30
0.0
 11
-30.0
 21
49.0
 31
0.0
  0
ENDBLK
  5
3B2
100
AcDbEntity
  8
0
100
AcDbBlockEnd
  0
BLOCK
  5
385
100
AcDbEntity
  8
0
100
AcDbBlockBegin
  2
*X27
 70
     1
 10
0.0
 20
0.0
 30
0.0
  3
*X27
  1

  0
LINE
  5
361
100
AcDbEntity
  8
0
 62
     0
100
AcDbLine
 10
-42.906168
 20
26.331747
 30
0.0
 11
-42.906168
 21
26.331747
 31
0.0
  0
LINE
  5
362
100
AcDbEntity
  8
0
 62
     0
100
AcDbLine
 10
-40.32777
 20
28.310222
 30
0.0
 11
-40.32777
 21
28.310222
 31
0.0
  0
LINE
  5
363
100
AcDbEntity
  8
0
 62
     0
100
AcDbLine
 10
-48.141351
 20
26.264971
 30
0.0
 11
-48.141351
 21
26.264971
 31
0.0
  0
LINE
  5
364
100
AcDbEntity
  8
0
 62
     0
100
AcDbLine
 10
-45.729557
 20
28.115606
 30
0.0
 11
-45.729557
 21
28.115606
 31
0.0
  0
LINE
  5
365
100
AcDbEntity
  8
0
 62
     0
100
AcDbLine
 10
-53.543137
 20
26.070355
 30
0.0
 11
-53.543137
 21
26.070355
 31
0.0
  0
LINE
  5
366
100
AcDbEntity
  8
0
 62
     0
100
AcDbLine
 10
-50.845736
 20
28.140144
 30
0.0
 11
-50.845736
 21
28.140144
 31
0.0
  0
LINE
  5
367
100
AcDbEntity
  8
0
 62
     0
100
AcDbLine
 10
-53.669124
 20
29.924003
 30
0.0
 11
-53.669124
 21
29.924003
 31
0.0
  0
LINE
  5
368
100
AcDbEntity
  8
0
 62
     0
100
AcDbLine
 10
-37.789989
 20
26.307209
 30
0.0
 11
-37.789989
 21
26.307209
 31
0.0
  0
LINE
  5
369
100
AcDbEntity
  8
0
 62
     0
100
AcDbLine
 10
-35.092588
 20
28.376998
 30
0.0
 11
-35.092588
 21
28.376998
 31
0.0
  0
LINE
  5
36A
100
AcDbEntity
  8
0
 62
     0
100
AcDbLine
 10
-44.406244
 20
25.223614
 30
0.0
 11
-44.406244
 21
25.223614
 31
0.0
  0
LINE
  5
36B
100
AcDbEntity
  8
0
 62
     0
100
AcDbLine
 10
-43.365227
 20
25.360666
 30
0.0
 11
-43.365227
 21
25.360666
 31
0.0
  0
LINE
  5
36C
100
AcDbEntity
  8
0
 62
     0
100
AcDbLine
 10
-41.739257
 20
25.574729
 30
0.0
 11
-41.739257
 21
25.574729
 31
0.0
  0
LINE
  5
36D
100
AcDbEntity
  8
0
 62
     0
100
AcDbLine
 10
-39.022698
 20
25.932371
 30
0.0
 11
-39.022698
 21
25.932371
 31
0.0
  0
LINE
  5
36E
100
AcDbEntity
  8
0
 62
     0
100
AcDbLine
 10
-37.981681
 20
26.069423
 30
0.0
 11
-37.981681
 21
26.069423
 31
0.0
  0
LINE
  5
36F
100
AcDbEntity
  8
0
 62
     0
100
AcDbLine
 10
-36.355712
 20
26.283486
 30
0.0
 11
-36.355712
 21
26.283486
 31
0.0
  0
LINE
  5
370
100
AcDbEntity
  8
0
 62
     0
100
AcDbLine
 10
-54.350341
 20
29.09275
 30
0.0
 11
-54.350341
 21
29.09275
 31
0.0
  0
LINE
  5
371
100
AcDbEntity
  8
0
 62
     0
100
AcDbLine
 10
-51.633782
 20
29.450391
 30
0.0
 11
-51.633782
 21
29.450391
 31
0.0
  0
LINE
  5
372
100
AcDbEntity
  8
0
 62
     0
100
AcDbLine
 10
-50.592764
 20
29.587444
 30
0.0
 11
-50.592764
 21
29.587444
 31
0.0
  0
LINE
  5
373
100
AcDbEntity
  8
0
 62
     0
100
AcDbLine
 10
-48.966795
 20
29.801507
 30
0.0
 11
-48.966795
 21
29.801507
 31
0.0
  0
LINE
  5
374
100
AcDbEntity
  8
0
 62
     0
100
AcDbLine
 10
-49.521243
 20
29.981318
 30
0.0
 11
-49.521243
 21
29.981318
 31
0.0
  0
LINE
  5
375
100
AcDbEntity
  8
0
 62
     0
100
AcDbLine
 10
-48.677851
 20
29.444019
 30
0.0
 11
-48.677851
 21
29.444019
 31
0.0
  0
LINE
  5
376
100
AcDbEntity
  8
0
 62
     0
100
AcDbLine
 10
-45.641642
 20
27.50974
 30
0.0
 11
-45.641642
 21
27.50974
 31
0.0
  0
LINE
  5
377
100
AcDbEntity
  8
0
 62
     0
100
AcDbLine
 10
-43.292959
 20
29.992636
 30
0.0
 11
-43.292959
 21
29.992636
 31
0.0
  0
LINE
  5
378
100
AcDbEntity
  8
0
 62
     0
100
AcDbLine
 10
-42.449568
 20
29.455337
 30
0.0
 11
-42.449568
 21
29.455337
 31
0.0
  0
LINE
  5
379
100
AcDbEntity
  8
0
 62
     0
100
AcDbLine
 10
-39.413358
 20
27.521058
 30
0.0
 11
-39.413358
 21
27.521058
 31
0.0
  0
LINE
  5
37A
100
AcDbEntity
  8
0
 62
     0
100
AcDbLine
 10
-36.221284
 20
29.466655
 30
0.0
 11
-36.221284
 21
29.466655
 31
0.0
  0
LINE
  5
37B
100
AcDbEntity
  8
0
 62
     0
100
AcDbLine
 10
-54.906135
 20
29.4327
 30
0.0
 11
-54.906135
 21
29.4327
 31
0.0
  0
LINE
  5
37C
100
AcDbEntity
  8
0
 62
     0
100
AcDbLine
 10
-51.869926
 20
27.498422
 30
0.0
 11
-51.869926
 21
27.498422
 31
0.0
  0
LINE
  5
37D
100
AcDbEntity
  8
0
 62
     0
100
AcDbLine
 10
-41.266349
 20
28.294901
 30
0.0
 11
-41.266349
 21
28.294901
 31
0.0
  0
LINE
  5
37E
100
AcDbEntity
  8
0
 62
     0
100
AcDbLine
 10
-40.89771
 20
27.957106
 30
0.0
 11
-40.89771
 21
27.957106
 31
0.0
  0
LINE
  5
37F
100
AcDbEntity
  8
0
 62
     0
100
AcDbLine
 10
-39.157736
 20
26.362713
 30
0.0
 11
-39.157736
 21
26.362713
 31
0.0
  0
LINE
  5
380
100
AcDbEntity
  8
0
 62
     0
100
AcDbLine
 10
-51.009226
 20
29.958037
 30
0.0
 11
-51.009226
 21
29.958037
 31
0.0
  0
LINE
  5
381
100
AcDbEntity
  8
0
 62
     0
100
AcDbLine
 10
-49.269251
 20
28.363644
 30
0.0
 11
-49.269251
 21
28.363644
 31
0.0
  0
LINE
  5
382
100
AcDbEntity
  8
0
 62
     0
100
AcDbLine
 10
-47.278602
 20
26.53955
 30
0.0
 11
-47.278602
 21
26.53955
 31
0.0
  0
LINE
  5
383
100
AcDbEntity
  8
0
 62
     0
100
AcDbLine
 10
-46.909964
 20
26.201755
 30
0.0
 11
-46.909964
 21
26.201755
 31
0.0
  0
LINE
  5
384
100
AcDbEntity
  8
0
 62
     0
100
AcDbLine
 10
-55.281504
 20
26.608293
 30
0.0
 11
-55.281504
 21
26.608293
 31
0.0
  0
ENDBLK
  5
386
100
AcDbEntity
  8
0
100
AcDbBlockEnd
  0
BLOCK
  5
393
100
AcDbEntity
  8
0
100
AcDbBlockBegin
  2
65_SP43020
 70
     0
 10
0.0
 20
0.0
 30
0.0
  3
65_SP43020
  1

  0
LINE
  5
35E
100
AcDbEntity
  8
GLAS_MED_FOGNING
100
AcDbLine
 10
-35.0
 20
30.0
 30
0.0
 11
-55.4
 21
30.0
 31
0.0
  0
INSERT
  5
35F
100
AcDbEntity
  8
GLAS_MED_FOGNING
100
AcDbBlockReference
  2
*X27
 10
0.0
 20
0.0
 30
0.0
1001
ACAD
1000
HATCH
1002
{
1070
    16
1000
AR-SAND
1040
2.0
1040
0.0
1002
}
  0
LWPOLYLINE
  5
387
100
AcDbEntity
  8
CENTRUM
100
AcDbPolyline
 90
        4
 70
     0
 43
0.0
 10
0.0
 20
57.5
 10
-35.0
 20
57.5
 10
-55.4
 20
57.5
 10
-65.0
 20
57.5
  0
INSERT
  5
388
100
AcDbEntity
  8
0
100
AcDbBlockReference
  2
GLASV6_18
 10
-65.0
 20
0.0
 30
0.0
  0
LINE
  5
389
100
AcDbEntity
  8
GLAS_MED_FOGNING
100
AcDbLine
 10
-55.4
 20
57.5
 30
0.0
 11
-55.4
 21
49.0
 31
0.0
  0
INSERT
  5
38A
100
AcDbEntity
  8
0
100
AcDbBlockReference
  2
SP43020
 10
0.0
 20
0.0
 30
0.0
  0
INSERT
  5
391
100
AcDbEntity
  8
GLAS_MED_FOGNING
100
AcDbBlockReference
  2
GLASH5
 10
-10.0
 20
0.0
 30
0.0
  0
LINE
  5
392
100
AcDbEntity
  8
GLAS_MED_FOGNING
100
AcDbLine
 10
-35.0
 20
57.5
 30
0.0
 11
-35.0
 21
49.0
 31
0.0
  0
ENDBLK
  5
394
100
AcDbEntity
  8
0
100
AcDbBlockEnd
  0
BLOCK
  5
40E
100
AcDbEntity
  8
0
100
AcDbBlockBegin
  2
*X29
 70
     1
 10
0.0
 20
0.0
 30
0.0
  3
*X29
  1

  0
LINE
  5
3FB
100
AcDbEntity
  8
0
 62
     0
100
AcDbLine
 10
-48.141351
 20
26.264971
 30
0.0
 11
-48.141351
 21
26.264971
 31
0.0
  0
LINE
  5
3FC
100
AcDbEntity
  8
0
 62
     0
100
AcDbLine
 10
-45.729557
 20
28.115606
 30
0.0
 11
-45.729557
 21
28.115606
 31
0.0
  0
LINE
  5
3FD
100
AcDbEntity
  8
0
 62
     0
100
AcDbLine
 10
-53.543137
 20
26.070355
 30
0.0
 11
-53.543137
 21
26.070355
 31
0.0
  0
LINE
  5
3FE
100
AcDbEntity
  8
0
 62
     0
100
AcDbLine
 10
-50.845736
 20
28.140144
 30
0.0
 11
-50.845736
 21
28.140144
 31
0.0
  0
LINE
  5
3FF
100
AcDbEntity
  8
0
 62
     0
100
AcDbLine
 10
-53.669124
 20
29.924003
 30
0.0
 11
-53.669124
 21
29.924003
 31
0.0
  0
LINE
  5
400
100
AcDbEntity
  8
0
 62
     0
100
AcDbLine
 10
-54.350341
 20
29.09275
 30
0.0
 11
-54.350341
 21
29.09275
 31
0.0
  0
LINE
  5
401
100
AcDbEntity
  8
0
 62
     0
100
AcDbLine
 10
-51.633782
 20
29.450391
 30
0.0
 11
-51.633782
 21
29.450391
 31
0.0
  0
LINE
  5
402
100
AcDbEntity
  8
0
 62
     0
100
AcDbLine
 10
-50.592764
 20
29.587444
 30
0.0
 11
-50.592764
 21
29.587444
 31
0.0
  0
LINE
  5
403
100
AcDbEntity
  8
0
 62
     0
100
AcDbLine
 10
-48.966795
 20
29.801507
 30
0.0
 11
-48.966795
 21
29.801507
 31
0.0
  0
LINE
  5
404
100
AcDbEntity
  8
0
 62
     0
100
AcDbLine
 10
-49.521243
 20
29.981318
 30
0.0
 11
-49.521243
 21
29.981318
 31
0.0
  0
LINE
  5
405
100
AcDbEntity
  8
0
 62
     0
100
AcDbLine
 10
-48.677851
 20
29.444019
 30
0.0
 11
-48.677851
 21
29.444019
 31
0.0
  0
LINE
  5
406
100
AcDbEntity
  8
0
 62
     0
100
AcDbLine
 10
-45.641642
 20
27.50974
 30
0.0
 11
-45.641642
 21
27.50974
 31
0.0
  0
LINE
  5
407
100
AcDbEntity
  8
0
 62
     0
100
AcDbLine
 10
-54.906135
 20
29.4327
 30
0.0
 11
-54.906135
 21
29.4327
 31
0.0
  0
LINE
  5
408
100
AcDbEntity
  8
0
 62
     0
100
AcDbLine
 10
-51.869926
 20
27.498422
 30
0.0
 11
-51.869926
 21
27.498422
 31
0.0
  0
LINE
  5
409
100
AcDbEntity
  8
0
 62
     0
100
AcDbLine
 10
-51.009226
 20
29.958037
 30
0.0
 11
-51.009226
 21
29.958037
 31
0.0
  0
LINE
  5
40A
100
AcDbEntity
  8
0
 62
     0
100
AcDbLine
 10
-49.269251
 20
28.363644
 30
0.0
 11
-49.269251
 21
28.363644
 31
0.0
  0
LINE
  5
40B
100
AcDbEntity
  8
0
 62
     0
100
AcDbLine
 10
-47.278602
 20
26.53955
 30
0.0
 11
-47.278602
 21
26.53955
 31
0.0
  0
LINE
  5
40C
100
AcDbEntity
  8
0
 62
     0
100
AcDbLine
 10
-46.909964
 20
26.201755
 30
0.0
 11
-46.909964
 21
26.201755
 31
0.0
  0
LINE
  5
40D
100
AcDbEntity
  8
0
 62
     0
100
AcDbLine
 10
-55.281504
 20
26.608293
 30
0.0
 11
-55.281504
 21
26.608293
 31
0.0
  0
ENDBLK
  5
40F
100
AcDbEntity
  8
0
100
AcDbBlockEnd
  0
BLOCK
  5
416
100
AcDbEntity
  8
0
100
AcDbBlockBegin
  2
65_SP44020
 70
     0
 10
0.0
 20
0.0
 30
0.0
  3
65_SP44020
  1

  0
LINE
  5
3F8
100
AcDbEntity
  8
GLAS_MED_FOGNING
100
AcDbLine
 10
-45.0
 20
30.0
 30
0.0
 11
-55.4
 21
30.0
 31
0.0
  0
INSERT
  5
3F9
100
AcDbEntity
  8
GLAS_MED_FOGNING
100
AcDbBlockReference
  2
*X29
 10
0.0
 20
0.0
 30
0.0
1001
ACAD
1000
HATCH
1002
{
1070
    16
1000
AR-SAND
1040
2.0
1040
0.0
1002
}
  0
LWPOLYLINE
  5
410
100
AcDbEntity
  8
CENTRUM
100
AcDbPolyline
 90
        4
 70
     0
 43
0.0
 10
0.0
 20
57.5
 10
-45.0
 20
57.5
 10
-55.4
 20
57.5
 10
-65.0
 20
57.5
  0
INSERT
  5
411
100
AcDbEntity
  8
0
100
AcDbBlockReference
  2
GLASV6_18
 10
-65.0
 20
0.0
 30
0.0
  0
LINE
  5
412
100
AcDbEntity
  8
GLAS_MED_FOGNING
100
AcDbLine
 10
-55.4
 20
57.5
 30
0.0
 11
-55.4
 21
49.0
 31
0.0
  0
INSERT
  5
413
100
AcDbEntity
  8
0
100
AcDbBlockReference
  2
SP44020
 10
0.0
 20
0.0
 30
0.0
  0
INSERT
  5
414
100
AcDbEntity
  8
GLAS_MED_FOGNING
100
AcDbBlockReference
  2
GLASH5
 10
-20.0
 20
0.0
 30
0.0
  0
LINE
  5
415
100
AcDbEntity
  8
GLAS_MED_FOGNING
100
AcDbLine
 10
-45.0
 20
57.5
 30
0.0
 11
-45.0
 21
49.0
 31
0.0
  0
ENDBLK
  5
417
100
AcDbEntity
  8
0
100
AcDbBlockEnd
  0
BLOCK
  5
6B
100
AcDbEntity
  8
0
100
AcDbBlockBegin
  2
*X31
 70
     1
 10
0.0
 20
0.0
 30
0.0
  3
*X31
  1

  0
LINE
  5
5B
100
AcDbEntity
  8
0
 62
     0
100
AcDbLine
 10
-59.544374
 20
41.612079
 30
0.0
 11
-59.544374
 21
41.612079
 31
0.0
  0
LINE
  5
5C
100
AcDbEntity
  8
0
 62
     0
100
AcDbLine
 10
-61.273133
 20
30.212238
 30
0.0
 11
-61.273133
 21
30.212238
 31
0.0
  0
LINE
  5
5D
100
AcDbEntity
  8
0
 62
     0
100
AcDbLine
 10
-61.166045
 20
26.936637
 30
0.0
 11
-61.166045
 21
26.936637
 31
0.0
  0
LINE
  5
5E
100
AcDbEntity
  8
0
 62
     0
100
AcDbLine
 10
-59.11602
 20
28.509677
 30
0.0
 11
-59.11602
 21
28.509677
 31
0.0
  0
LINE
  5
5F
100
AcDbEntity
  8
0
 62
     0
100
AcDbLine
 10
-59.008931
 20
25.234076
 30
0.0
 11
-59.008931
 21
25.234076
 31
0.0
  0
LINE
  5
60
100
AcDbEntity
  8
0
 62
     0
100
AcDbLine
 10
-59.184149
 20
27.420706
 30
0.0
 11
-59.184149
 21
27.420706
 31
0.0
  0
LINE
  5
61
100
AcDbEntity
  8
0
 62
     0
100
AcDbLine
 10
-58.299284
 20
27.537201
 30
0.0
 11
-58.299284
 21
27.537201
 31
0.0
  0
LINE
  5
62
100
AcDbEntity
  8
0
 62
     0
100
AcDbLine
 10
-58.173011
 20
42.492775
 30
0.0
 11
-58.173011
 21
42.492775
 31
0.0
  0
LINE
  5
63
100
AcDbEntity
  8
0
 62
     0
100
AcDbLine
 10
-57.456129
 20
42.03607
 30
0.0
 11
-57.456129
 21
42.03607
 31
0.0
  0
LINE
  5
64
100
AcDbEntity
  8
0
 62
     0
100
AcDbLine
 10
-59.348148
 20
29.712233
 30
0.0
 11
-59.348148
 21
29.712233
 31
0.0
  0
LINE
  5
65
100
AcDbEntity
  8
0
 62
     0
100
AcDbLine
 10
-58.631265
 20
29.255528
 30
0.0
 11
-58.631265
 21
29.255528
 31
0.0
  0
LINE
  5
66
100
AcDbEntity
  8
0
 62
     0
100
AcDbLine
 10
-61.344529
 20
27.601771
 30
0.0
 11
-61.344529
 21
27.601771
 31
0.0
  0
LINE
  5
67
100
AcDbEntity
  8
0
 62
     0
100
AcDbLine
 10
-57.97518
 20
25.455259
 30
0.0
 11
-57.97518
 21
25.455259
 31
0.0
  0
LINE
  5
68
100
AcDbEntity
  8
0
 62
     0
100
AcDbLine
 10
-61.093048
 20
41.715654
 30
0.0
 11
-61.093048
 21
41.715654
 31
0.0
  0
LINE
  5
69
100
AcDbEntity
  8
0
 62
     0
100
AcDbLine
 10
-60.779705
 20
41.428528
 30
0.0
 11
-60.779705
 21
41.428528
 31
0.0
  0
LINE
  5
6A
100
AcDbEntity
  8
0
 62
     0
100
AcDbLine
 10
-57.674684
 20
44.758182
 30
0.0
 11
-57.674684
 21
44.758182
 31
0.0
  0
ENDBLK
  5
6C
100
AcDbEntity
  8
0
100
AcDbBlockEnd
  0
BLOCK
  5
9B
100
AcDbEntity
  8
0
100
AcDbBlockBegin
  2
*X32
 70
     1
 10
0.0
 20
0.0
 30
0.0
  3
*X32
  1

  0
LINE
  5
8C
100
AcDbEntity
  8
0
 62
     0
100
AcDbLine
 10
-50.502951
 20
41.834262
 30
0.0
 11
-50.502951
 21
41.834262
 31
0.0
  0
LINE
  5
8D
100
AcDbEntity
  8
0
 62
     0
100
AcDbLine
 10
-52.902831
 20
43.350542
 30
0.0
 11
-52.902831
 21
43.350542
 31
0.0
  0
LINE
  5
8E
100
AcDbEntity
  8
0
 62
     0
100
AcDbLine
 10
-52.474476
 20
30.24814
 30
0.0
 11
-52.474476
 21
30.24814
 31
0.0
  0
LINE
  5
8F
100
AcDbEntity
  8
0
 62
     0
100
AcDbLine
 10
-52.367387
 20
26.97254
 30
0.0
 11
-52.367387
 21
26.97254
 31
0.0
  0
LINE
  5
90
100
AcDbEntity
  8
0
 62
     0
100
AcDbLine
 10
-50.074596
 20
28.73186
 30
0.0
 11
-50.074596
 21
28.73186
 31
0.0
  0
LINE
  5
91
100
AcDbEntity
  8
0
 62
     0
100
AcDbLine
 10
-49.967508
 20
25.45626
 30
0.0
 11
-49.967508
 21
25.45626
 31
0.0
  0
LINE
  5
92
100
AcDbEntity
  8
0
 62
     0
100
AcDbLine
 10
-52.467363
 20
41.509656
 30
0.0
 11
-52.467363
 21
41.509656
 31
0.0
  0
LINE
  5
93
100
AcDbEntity
  8
0
 62
     0
100
AcDbLine
 10
-50.158288
 20
41.813651
 30
0.0
 11
-50.158288
 21
41.813651
 31
0.0
  0
LINE
  5
94
100
AcDbEntity
  8
0
 62
     0
100
AcDbLine
 10
-52.341197
 20
28.321598
 30
0.0
 11
-52.341197
 21
28.321598
 31
0.0
  0
LINE
  5
95
100
AcDbEntity
  8
0
 62
     0
100
AcDbLine
 10
-50.032121
 20
28.625594
 30
0.0
 11
-50.032121
 21
28.625594
 31
0.0
  0
LINE
  5
96
100
AcDbEntity
  8
0
 62
     0
100
AcDbLine
 10
-52.87897
 20
42.502395
 30
0.0
 11
-52.87897
 21
42.502395
 31
0.0
  0
LINE
  5
97
100
AcDbEntity
  8
0
 62
     0
100
AcDbLine
 10
-52.162088
 20
42.045691
 30
0.0
 11
-52.162088
 21
42.045691
 31
0.0
  0
LINE
  5
98
100
AcDbEntity
  8
0
 62
     0
100
AcDbLine
 10
-50.756446
 20
27.621012
 30
0.0
 11
-50.756446
 21
27.621012
 31
0.0
  0
LINE
  5
99
100
AcDbEntity
  8
0
 62
     0
100
AcDbLine
 10
-52.681139
 20
25.46488
 30
0.0
 11
-52.681139
 21
25.46488
 31
0.0
  0
LINE
  5
9A
100
AcDbEntity
  8
0
 62
     0
100
AcDbLine
 10
-51.964256
 20
25.008175
 30
0.0
 11
-51.964256
 21
25.008175
 31
0.0
  0
ENDBLK
  5
9C
100
AcDbEntity
  8
0
100
AcDbBlockEnd
  0
BLOCK
  5
79
100
AcDbEntity
  8
0
100
AcDbBlockBegin
  2
GLASV4_18
 70
     0
 10
0.0
 20
0.0
 30
0.0
  3
GLASV4_18
  1

  0
LINE
  5
58
100
AcDbEntity
  8
GLAS_MED_FOGNING
100
AcDbLine
 10
7.6
 20
47.0
 30
0.0
 11
7.6
 21
30.0
 31
0.0
  0
INSERT
  5
59
100
AcDbEntity
  8
GLAS_MED_FOGNING
100
AcDbBlockReference
  2
*X31
 10
65.0
 20
0.0
 30
0.0
1001
ACAD
1000
HATCH
1002
{
1070
    16
1000
AR-SAND
1040
1.7
1040
0.0
1002
}
  0
LINE
  5
6D
100
AcDbEntity
  8
GLAS_MED_FOGNING
100
AcDbLine
 10
7.6
 20
31.0
 30
0.0
 11
3.6
 21
31.0
 31
0.0
  0
LINE
  5
6E
100
AcDbEntity
  8
GLAS_MED_FOGNING
100
AcDbLine
 10
7.6
 20
35.0
 30
0.0
 11
3.6
 21
35.0
 31
0.0
  0
LINE
  5
6F
100
AcDbEntity
  8
GLAS_MED_FOGNING
100
AcDbLine
 10
7.6
 20
32.0
 30
0.0
 11
3.6
 21
32.0
 31
0.0
  0
LINE
  5
70
100
AcDbEntity
  8
GLAS_MED_FOGNING
100
AcDbLine
 10
7.6
 20
34.0
 30
0.0
 11
3.6
 21
34.0
 31
0.0
  0
LINE
  5
71
100
AcDbEntity
  8
GLAS_MED_FOGNING
100
AcDbLine
 10
7.6
 20
33.0
 30
0.0
 11
3.6
 21
33.0
 31
0.0
  0
LINE
  5
72
100
AcDbEntity
  8
GLAS_MED_FOGNING
100
AcDbLine
 10
7.6
 20
36.0
 30
0.0
 11
3.6
 21
36.0
 31
0.0
  0
LINE
  5
73
100
AcDbEntity
  8
GLAS_MED_FOGNING
100
AcDbLine
 10
7.6
 20
38.0
 30
0.0
 11
3.6
 21
38.0
 31
0.0
  0
LINE
  5
74
100
AcDbEntity
  8
GLAS_MED_FOGNING
100
AcDbLine
 10
7.6
 20
37.0
 30
0.0
 11
3.6
 21
37.0
 31
0.0
  0
LINE
  5
75
100
AcDbEntity
  8
GLAS_MED_FOGNING
100
AcDbLine
 10
7.6
 20
39.0
 30
0.0
 11
3.6
 21
39.0
 31
0.0
  0
ARC
  5
76
100
AcDbEntity
  8
GLAS_MED_FOGNING
100
AcDbCircle
 10
3.6
 20
47.0
 30
0.0
 40
4.0
100
AcDbArc
 50
270.0
 51
0.0
  0
LINE
  5
77
100
AcDbEntity
  8
GLAS_MED_FOGNING
100
AcDbLine
 10
7.6
 20
41.0
 30
0.0
 11
3.6
 21
41.0
 31
0.0
  0
LINE
  5
78
100
AcDbEntity
  8
GLAS_MED_FOGNING
100
AcDbLine
 10
7.6
 20
40.0
 30
0.0
 11
3.6
 21
40.0
 31
0.0
  0
ENDBLK
  5
7A
100
AcDbEntity
  8
0
100
AcDbBlockEnd
  0
BLOCK
  5
A7
100
AcDbEntity
  8
0
100
AcDbBlockBegin
  2
GLASH3
 70
     0
 10
0.0
 20
0.0
 30
0.0
  3
GLASH3
  1

  0
LINE
  5
87
100
AcDbEntity
  8
GLAS_MED_FOGNING
100
AcDbLine
 10
-5.0
 20
41.0
 30
0.0
 11
-8.0
 21
41.0
 31
0.0
  0
ARC
  5
88
100
AcDbEntity
  8
GLAS_MED_FOGNING
100
AcDbCircle
 10
-5.0
 20
46.0
 30
0.0
 40
3.0
100
AcDbArc
 50
180.0
 51
270.0
  0
LINE
  5
89
100
AcDbEntity
  8
GLAS_MED_FOGNING
100
AcDbLine
 10
-5.0
 20
31.0
 30
0.0
 11
-8.0
 21
31.0
 31
0.0
  0
INSERT
  5
8A
100
AcDbEntity
  8
GLAS_MED_FOGNING
100
AcDbBlockReference
  2
*X32
 10
45.0
 20
0.0
 30
0.0
1001
ACAD
1000
HATCH
1002
{
1070
    16
1000
AR-SAND
1040
1.7
1040
0.0
1002
}
  0
LINE
  5
9D
100
AcDbEntity
  8
GLAS_MED_FOGNING
100
AcDbLine
 10
-5.0
 20
38.0
 30
0.0
 11
-8.0
 21
38.0
 31
0.0
  0
LINE
  5
9E
100
AcDbEntity
  8
GLAS_MED_FOGNING
100
AcDbLine
 10
-5.0
 20
39.0
 30
0.0
 11
-8.0
 21
39.0
 31
0.0
  0
LINE
  5
9F
100
AcDbEntity
  8
GLAS_MED_FOGNING
100
AcDbLine
 10
-5.0
 20
40.0
 30
0.0
 11
-8.0
 21
40.0
 31
0.0
  0
LINE
  5
A0
100
AcDbEntity
  8
GLAS_MED_FOGNING
100
AcDbLine
 10
-5.0
 20
32.0
 30
0.0
 11
-8.0
 21
32.0
 31
0.0
  0
LINE
  5
A1
100
AcDbEntity
  8
GLAS_MED_FOGNING
100
AcDbLine
 10
-5.0
 20
33.0
 30
0.0
 11
-8.0
 21
33.0
 31
0.0
  0
LINE
  5
A2
100
AcDbEntity
  8
GLAS_MED_FOGNING
100
AcDbLine
 10
-5.0
 20
34.0
 30
0.0
 11
-8.0
 21
34.0
 31
0.0
  0
LINE
  5
A3
100
AcDbEntity
  8
GLAS_MED_FOGNING
100
AcDbLine
 10
-5.0
 20
35.0
 30
0.0
 11
-8.0
 21
35.0
 31
0.0
  0
LINE
  5
A4
100
AcDbEntity
  8
GLAS_MED_FOGNING
100
AcDbLine
 10
-5.0
 20
36.0
 30
0.0
 11
-8.0
 21
36.0
 31
0.0
  0
LINE
  5
A5
100
AcDbEntity
  8
GLAS_MED_FOGNING
100
AcDbLine
 10
-5.0
 20
37.0
 30
0.0
 11
-8.0
 21
37.0
 31
0.0
  0
LINE
  5
A6
100
AcDbEntity
  8
GLAS_MED_FOGNING
100
AcDbLine
 10
-8.0
 20
47.0
 30
0.0
 11
-8.0
 21
30.0
 31
0.0
  0
ENDBLK
  5
A8
100
AcDbEntity
  8
0
100
AcDbBlockEnd
  0
BLOCK
  5
35A
100
AcDbEntity
  8
0
100
AcDbBlockBegin
  2
65_SP45020DK
 70
     0
 10
0.0
 20
0.0
 30
0.0
  3
65_SP45020DK
  1

  0
INSERT
  5
34C
100
AcDbEntity
  8
0
100
AcDbBlockReference
  2
GLASH3
 10
-45.0
 20
0.0
 30
0.0
  0
LWPOLYLINE
  5
34D
100
AcDbEntity
  8
CENTRUM
100
AcDbPolyline
 90
        4
 70
     0
 43
0.0
 10
0.0
 20
57.5
 10
-53.0
 20
57.5
 10
-57.4
 20
57.5
 10
-65.0
 20
57.5
  0
INSERT
  5
34E
100
AcDbEntity
  8
0
100
AcDbBlockReference
  2
GLASV4_18
 10
-65.0
 20
0.0
 30
0.0
  0
LWPOLYLINE
  5
34F
100
AcDbEntity
  8
GLAS_MED_FOGNING
100
AcDbPolyline
 90
        4
 70
     1
 43
0.0
 10
-57.4
 20
30.0
 10
-57.4
 20
25.0
 10
-53.0
 20
30.0
 10
-53.0
 20
25.0
  0
LINE
  5
350
100
AcDbEntity
  8
GLAS_MED_FOGNING
100
AcDbLine
 10
-53.0
 20
30.0
 30
0.0
 11
-57.4
 21
30.0
 31
0.0
  0
LINE
  5
351
100
AcDbEntity
  8
GLAS_MED_FOGNING
100
AcDbLine
 10
-57.4
 20
57.5
 30
0.0
 11
-57.4
 21
47.0
 31
0.0
  0
LINE
  5
352
100
AcDbEntity
  8
GLAS_MED_FOGNING
100
AcDbLine
 10
-53.0
 20
57.5
 30
0.0
 11
-53.0
 21
47.0
 31
0.0
  0
INSERT
  5
353
100
AcDbEntity
  8
0
100
AcDbBlockReference
  2
SP45020
 10
0.0
 20
0.0
 30
0.0
  0
ENDBLK
  5
35B
100
AcDbEntity
  8
0
100
AcDbBlockEnd
  0
BLOCK
  5
1E2
100
AcDbEntity
  8
0
100
AcDbBlockBegin
  2
65_40SP41520DK
 70
     0
 10
0.0
 20
0.0
 30
0.0
  3
65_40SP41520DK
  1

  0
LINE
  5
1DA
100
AcDbEntity
  8
GLAS_MED_FOGNING
100
AcDbLine
 10
-18.0
 20
30.0
 30
0.0
 11
-57.4
 21
30.0
 31
0.0
  0
LWPOLYLINE
  5
1DB
100
AcDbEntity
  8
GLAS_MED_FOGNING
100
AcDbPolyline
 90
        4
 70
     1
 43
0.0
 10
-57.4
 20
30.0
 10
-57.4
 20
25.0
 10
-18.0
 20
30.0
 10
-18.0
 20
25.0
  0
LWPOLYLINE
  5
1DC
100
AcDbEntity
  8
CENTRUM
100
AcDbPolyline
 90
        4
 70
     0
 43
0.0
 10
0.0
 20
57.5
 10
-18.0
 20
57.5
 10
-57.4
 20
57.5
 10
-65.0
 20
57.5
  0
INSERT
  5
1DD
100
AcDbEntity
  8
0
100
AcDbBlockReference
  2
GLASV4_18
 10
-65.0
 20
0.0
 30
0.0
  0
LINE
  5
1DE
100
AcDbEntity
  8
GLAS_MED_FOGNING
100
AcDbLine
 10
-57.4
 20
57.5
 30
0.0
 11
-57.4
 21
47.0
 31
0.0
  0
INSERT
  5
1DF
100
AcDbEntity
  8
0
100
AcDbBlockReference
  2
SP41520
 10
0.0
 20
0.0
 30
0.0
  0
INSERT
  5
1E0
100
AcDbEntity
  8
0
100
AcDbBlockReference
  2
GLASH3
 10
-10.0
 20
0.0
 30
0.0
  0
LINE
  5
1E1
100
AcDbEntity
  8
GLAS_MED_FOGNING
100
AcDbLine
 10
-18.0
 20
57.5
 30
0.0
 11
-18.0
 21
47.0
 31
0.0
  0
ENDBLK
  5
1E3
100
AcDbEntity
  8
0
100
AcDbBlockEnd
  0
BLOCK
  5
249
100
AcDbEntity
  8
0
100
AcDbBlockBegin
  2
*X37
 70
     1
 10
0.0
 20
0.0
 30
0.0
  3
*X37
  1

  0
LINE
  5
1FF
100
AcDbEntity
  8
0
 62
     0
100
AcDbLine
 10
-37.789989
 20
26.307209
 30
0.0
 11
-37.789989
 21
26.307209
 31
0.0
  0
LINE
  5
200
100
AcDbEntity
  8
0
 62
     0
100
AcDbLine
 10
-35.092588
 20
28.376998
 30
0.0
 11
-35.092588
 21
28.376998
 31
0.0
  0
LINE
  5
201
100
AcDbEntity
  8
0
 62
     0
100
AcDbLine
 10
-42.906168
 20
26.331747
 30
0.0
 11
-42.906168
 21
26.331747
 31
0.0
  0
LINE
  5
202
100
AcDbEntity
  8
0
 62
     0
100
AcDbLine
 10
-40.32777
 20
28.310222
 30
0.0
 11
-40.32777
 21
28.310222
 31
0.0
  0
LINE
  5
203
100
AcDbEntity
  8
0
 62
     0
100
AcDbLine
 10
-48.141351
 20
26.264971
 30
0.0
 11
-48.141351
 21
26.264971
 31
0.0
  0
LINE
  5
204
100
AcDbEntity
  8
0
 62
     0
100
AcDbLine
 10
-45.729557
 20
28.115606
 30
0.0
 11
-45.729557
 21
28.115606
 31
0.0
  0
LINE
  5
205
100
AcDbEntity
  8
0
 62
     0
100
AcDbLine
 10
-53.543137
 20
26.070355
 30
0.0
 11
-53.543137
 21
26.070355
 31
0.0
  0
LINE
  5
206
100
AcDbEntity
  8
0
 62
     0
100
AcDbLine
 10
-50.845736
 20
28.140144
 30
0.0
 11
-50.845736
 21
28.140144
 31
0.0
  0
LINE
  5
207
100
AcDbEntity
  8
0
 62
     0
100
AcDbLine
 10
-56.080918
 20
28.073368
 30
0.0
 11
-56.080918
 21
28.073368
 31
0.0
  0
LINE
  5
208
100
AcDbEntity
  8
0
 62
     0
100
AcDbLine
 10
-53.669124
 20
29.924003
 30
0.0
 11
-53.669124
 21
29.924003
 31
0.0
  0
LINE
  5
209
100
AcDbEntity
  8
0
 62
     0
100
AcDbLine
 10
-32.388203
 20
26.501825
 30
0.0
 11
-32.388203
 21
26.501825
 31
0.0
  0
LINE
  5
20A
100
AcDbEntity
  8
0
 62
     0
100
AcDbLine
 10
-29.976409
 20
28.35246
 30
0.0
 11
-29.976409
 21
28.35246
 31
0.0
  0
LINE
  5
20B
100
AcDbEntity
  8
0
 62
     0
100
AcDbLine
 10
-27.153021
 20
26.568601
 30
0.0
 11
-27.153021
 21
26.568601
 31
0.0
  0
LINE
  5
20C
100
AcDbEntity
  8
0
 62
     0
100
AcDbLine
 10
-24.574622
 20
28.547076
 30
0.0
 11
-24.574622
 21
28.547076
 31
0.0
  0
LINE
  5
20D
100
AcDbEntity
  8
0
 62
     0
100
AcDbLine
 10
-22.036841
 20
26.544063
 30
0.0
 11
-22.036841
 21
26.544063
 31
0.0
  0
LINE
  5
20E
100
AcDbEntity
  8
0
 62
     0
100
AcDbLine
 10
-19.33944
 20
28.613852
 30
0.0
 11
-19.33944
 21
28.613852
 31
0.0
  0
LINE
  5
20F
100
AcDbEntity
  8
0
 62
     0
100
AcDbLine
 10
-44.406244
 20
25.223614
 30
0.0
 11
-44.406244
 21
25.223614
 31
0.0
  0
LINE
  5
210
100
AcDbEntity
  8
0
 62
     0
100
AcDbLine
 10
-43.365227
 20
25.360666
 30
0.0
 11
-43.365227
 21
25.360666
 31
0.0
  0
LINE
  5
211
100
AcDbEntity
  8
0
 62
     0
100
AcDbLine
 10
-41.739257
 20
25.574729
 30
0.0
 11
-41.739257
 21
25.574729
 31
0.0
  0
LINE
  5
212
100
AcDbEntity
  8
0
 62
     0
100
AcDbLine
 10
-39.022698
 20
25.932371
 30
0.0
 11
-39.022698
 21
25.932371
 31
0.0
  0
LINE
  5
213
100
AcDbEntity
  8
0
 62
     0
100
AcDbLine
 10
-37.981681
 20
26.069423
 30
0.0
 11
-37.981681
 21
26.069423
 31
0.0
  0
LINE
  5
214
100
AcDbEntity
  8
0
 62
     0
100
AcDbLine
 10
-36.355712
 20
26.283486
 30
0.0
 11
-36.355712
 21
26.283486
 31
0.0
  0
LINE
  5
215
100
AcDbEntity
  8
0
 62
     0
100
AcDbLine
 10
-33.639153
 20
26.641128
 30
0.0
 11
-33.639153
 21
26.641128
 31
0.0
  0
LINE
  5
216
100
AcDbEntity
  8
0
 62
     0
100
AcDbLine
 10
-32.598136
 20
26.778181
 30
0.0
 11
-32.598136
 21
26.778181
 31
0.0
  0
LINE
  5
217
100
AcDbEntity
  8
0
 62
     0
100
AcDbLine
 10
-30.972166
 20
26.992244
 30
0.0
 11
-30.972166
 21
26.992244
 31
0.0
  0
LINE
  5
218
100
AcDbEntity
  8
0
 62
     0
100
AcDbLine
 10
-28.255607
 20
27.349885
 30
0.0
 11
-28.255607
 21
27.349885
 31
0.0
  0
LINE
  5
219
100
AcDbEntity
  8
0
 62
     0
100
AcDbLine
 10
-27.21459
 20
27.486938
 30
0.0
 11
-27.21459
 21
27.486938
 31
0.0
  0
LINE
  5
21A
100
AcDbEntity
  8
0
 62
     0
100
AcDbLine
 10
-25.58862
 20
27.701001
 30
0.0
 11
-25.58862
 21
27.701001
 31
0.0
  0
LINE
  5
21B
100
AcDbEntity
  8
0
 62
     0
100
AcDbLine
 10
-22.872061
 20
28.058642
 30
0.0
 11
-22.872061
 21
28.058642
 31
0.0
  0
LINE
  5
21C
100
AcDbEntity
  8
0
 62
     0
100
AcDbLine
 10
-21.831044
 20
28.195695
 30
0.0
 11
-21.831044
 21
28.195695
 31
0.0
  0
LINE
  5
21D
100
AcDbEntity
  8
0
 62
     0
100
AcDbLine
 10
-20.205075
 20
28.409758
 30
0.0
 11
-20.205075
 21
28.409758
 31
0.0
  0
LINE
  5
21E
100
AcDbEntity
  8
0
 62
     0
100
AcDbLine
 10
-57.017327
 20
28.741634
 30
0.0
 11
-57.017327
 21
28.741634
 31
0.0
  0
LINE
  5
21F
100
AcDbEntity
  8
0
 62
     0
100
AcDbLine
 10
-55.97631
 20
28.878687
 30
0.0
 11
-55.97631
 21
28.878687
 31
0.0
  0
LINE
  5
220
100
AcDbEntity
  8
0
 62
     0
100
AcDbLine
 10
-54.350341
 20
29.09275
 30
0.0
 11
-54.350341
 21
29.09275
 31
0.0
  0
LINE
  5
221
100
AcDbEntity
  8
0
 62
     0
100
AcDbLine
 10
-51.633782
 20
29.450391
 30
0.0
 11
-51.633782
 21
29.450391
 31
0.0
  0
LINE
  5
222
100
AcDbEntity
  8
0
 62
     0
100
AcDbLine
 10
-50.592764
 20
29.587444
 30
0.0
 11
-50.592764
 21
29.587444
 31
0.0
  0
LINE
  5
223
100
AcDbEntity
  8
0
 62
     0
100
AcDbLine
 10
-48.966795
 20
29.801507
 30
0.0
 11
-48.966795
 21
29.801507
 31
0.0
  0
LINE
  5
224
100
AcDbEntity
  8
0
 62
     0
100
AcDbLine
 10
-43.292959
 20
29.992636
 30
0.0
 11
-43.292959
 21
29.992636
 31
0.0
  0
LINE
  5
225
100
AcDbEntity
  8
0
 62
     0
100
AcDbLine
 10
-42.449568
 20
29.455337
 30
0.0
 11
-42.449568
 21
29.455337
 31
0.0
  0
LINE
  5
226
100
AcDbEntity
  8
0
 62
     0
100
AcDbLine
 10
-39.413358
 20
27.521058
 30
0.0
 11
-39.413358
 21
27.521058
 31
0.0
  0
LINE
  5
227
100
AcDbEntity
  8
0
 62
     0
100
AcDbLine
 10
-36.221284
 20
29.466655
 30
0.0
 11
-36.221284
 21
29.466655
 31
0.0
  0
LINE
  5
228
100
AcDbEntity
  8
0
 62
     0
100
AcDbLine
 10
-33.185075
 20
27.532376
 30
0.0
 11
-33.185075
 21
27.532376
 31
0.0
  0
LINE
  5
229
100
AcDbEntity
  8
0
 62
     0
100
AcDbLine
 10
-29.221135
 20
25.007068
 30
0.0
 11
-29.221135
 21
25.007068
 31
0.0
  0
LINE
  5
22A
100
AcDbEntity
  8
0
 62
     0
100
AcDbLine
 10
-29.993
 20
29.477973
 30
0.0
 11
-29.993
 21
29.477973
 31
0.0
  0
LINE
  5
22B
100
AcDbEntity
  8
0
 62
     0
100
AcDbLine
 10
-26.956791
 20
27.543694
 30
0.0
 11
-26.956791
 21
27.543694
 31
0.0
  0
LINE
  5
22C
100
AcDbEntity
  8
0
 62
     0
100
AcDbLine
 10
-22.992851
 20
25.018386
 30
0.0
 11
-22.992851
 21
25.018386
 31
0.0
  0
LINE
  5
22D
100
AcDbEntity
  8
0
 62
     0
100
AcDbLine
 10
-23.764716
 20
29.489291
 30
0.0
 11
-23.764716
 21
29.489291
 31
0.0
  0
LINE
  5
22E
100
AcDbEntity
  8
0
 62
     0
100
AcDbLine
 10
-20.728507
 20
27.555012
 30
0.0
 11
-20.728507
 21
27.555012
 31
0.0
  0
LINE
  5
22F
100
AcDbEntity
  8
0
 62
     0
100
AcDbLine
 10
-49.521243
 20
29.981318
 30
0.0
 11
-49.521243
 21
29.981318
 31
0.0
  0
LINE
  5
230
100
AcDbEntity
  8
0
 62
     0
100
AcDbLine
 10
-48.677851
 20
29.444019
 30
0.0
 11
-48.677851
 21
29.444019
 31
0.0
  0
LINE
  5
231
100
AcDbEntity
  8
0
 62
     0
100
AcDbLine
 10
-45.641642
 20
27.50974
 30
0.0
 11
-45.641642
 21
27.50974
 31
0.0
  0
LINE
  5
232
100
AcDbEntity
  8
0
 62
     0
100
AcDbLine
 10
-55.749526
 20
29.97
 30
0.0
 11
-55.749526
 21
29.97
 31
0.0
  0
LINE
  5
233
100
AcDbEntity
  8
0
 62
     0
100
AcDbLine
 10
-54.906135
 20
29.4327
 30
0.0
 11
-54.906135
 21
29.4327
 31
0.0
  0
LINE
  5
234
100
AcDbEntity
  8
0
 62
     0
100
AcDbLine
 10
-51.869926
 20
27.498422
 30
0.0
 11
-51.869926
 21
27.498422
 31
0.0
  0
LINE
  5
235
100
AcDbEntity
  8
0
 62
     0
100
AcDbLine
 10
-34.885457
 20
29.712457
 30
0.0
 11
-34.885457
 21
29.712457
 31
0.0
  0
LINE
  5
236
100
AcDbEntity
  8
0
 62
     0
100
AcDbLine
 10
-33.145483
 20
28.118064
 30
0.0
 11
-33.145483
 21
28.118064
 31
0.0
  0
LINE
  5
237
100
AcDbEntity
  8
0
 62
     0
100
AcDbLine
 10
-31.154834
 20
26.293971
 30
0.0
 11
-31.154834
 21
26.293971
 31
0.0
  0
LINE
  5
238
100
AcDbEntity
  8
0
 62
     0
100
AcDbLine
 10
-30.786195
 20
25.956176
 30
0.0
 11
-30.786195
 21
25.956176
 31
0.0
  0
LINE
  5
239
100
AcDbEntity
  8
0
 62
     0
100
AcDbLine
 10
-27.13323
 20
29.873416
 30
0.0
 11
-27.13323
 21
29.873416
 31
0.0
  0
LINE
  5
23A
100
AcDbEntity
  8
0
 62
     0
100
AcDbLine
 10
-25.142581
 20
28.049322
 30
0.0
 11
-25.142581
 21
28.049322
 31
0.0
  0
LINE
  5
23B
100
AcDbEntity
  8
0
 62
     0
100
AcDbLine
 10
-24.773942
 20
27.711527
 30
0.0
 11
-24.773942
 21
27.711527
 31
0.0
  0
LINE
  5
23C
100
AcDbEntity
  8
0
 62
     0
100
AcDbLine
 10
-23.033968
 20
26.117134
 30
0.0
 11
-23.033968
 21
26.117134
 31
0.0
  0
LINE
  5
23D
100
AcDbEntity
  8
0
 62
     0
100
AcDbLine
 10
-19.130328
 20
29.804673
 30
0.0
 11
-19.130328
 21
29.804673
 31
0.0
  0
LINE
  5
23E
100
AcDbEntity
  8
0
 62
     0
100
AcDbLine
 10
-18.761689
 20
29.466878
 30
0.0
 11
-18.761689
 21
29.466878
 31
0.0
  0
LINE
  5
23F
100
AcDbEntity
  8
0
 62
     0
100
AcDbLine
 10
-41.266349
 20
28.294901
 30
0.0
 11
-41.266349
 21
28.294901
 31
0.0
  0
LINE
  5
240
100
AcDbEntity
  8
0
 62
     0
100
AcDbLine
 10
-40.89771
 20
27.957106
 30
0.0
 11
-40.89771
 21
27.957106
 31
0.0
  0
LINE
  5
241
100
AcDbEntity
  8
0
 62
     0
100
AcDbLine
 10
-39.157736
 20
26.362713
 30
0.0
 11
-39.157736
 21
26.362713
 31
0.0
  0
LINE
  5
242
100
AcDbEntity
  8
0
 62
     0
100
AcDbLine
 10
-51.009226
 20
29.958037
 30
0.0
 11
-51.009226
 21
29.958037
 31
0.0
  0
LINE
  5
243
100
AcDbEntity
  8
0
 62
     0
100
AcDbLine
 10
-49.269251
 20
28.363644
 30
0.0
 11
-49.269251
 21
28.363644
 31
0.0
  0
LINE
  5
244
100
AcDbEntity
  8
0
 62
     0
100
AcDbLine
 10
-47.278602
 20
26.53955
 30
0.0
 11
-47.278602
 21
26.53955
 31
0.0
  0
LINE
  5
245
100
AcDbEntity
  8
0
 62
     0
100
AcDbLine
 10
-46.909964
 20
26.201755
 30
0.0
 11
-46.909964
 21
26.201755
 31
0.0
  0
LINE
  5
246
100
AcDbEntity
  8
0
 62
     0
100
AcDbLine
 10
-57.390118
 20
28.540481
 30
0.0
 11
-57.390118
 21
28.540481
 31
0.0
  0
LINE
  5
247
100
AcDbEntity
  8
0
 62
     0
100
AcDbLine
 10
-57.021479
 20
28.202685
 30
0.0
 11
-57.021479
 21
28.202685
 31
0.0
  0
LINE
  5
248
100
AcDbEntity
  8
0
 62
     0
100
AcDbLine
 10
-55.281504
 20
26.608293
 30
0.0
 11
-55.281504
 21
26.608293
 31
0.0
  0
ENDBLK
  5
24A
100
AcDbEntity
  8
0
100
AcDbBlockEnd
  0
BLOCK
  5
251
100
AcDbEntity
  8
0
100
AcDbBlockBegin
  2
65_40SP41520
 70
     0
 10
0.0
 20
0.0
 30
0.0
  3
65_40SP41520
  1

  0
LINE
  5
1FC
100
AcDbEntity
  8
GLAS_MED_FOGNING
100
AcDbLine
 10
-18.0
 20
30.0
 30
0.0
 11
-57.4
 21
30.0
 31
0.0
  0
INSERT
  5
1FD
100
AcDbEntity
  8
GLAS_MED_FOGNING
100
AcDbBlockReference
  2
*X37
 10
0.0
 20
0.0
 30
0.0
1001
ACAD
1000
HATCH
1002
{
1070
    16
1000
AR-SAND
1040
2.0
1040
0.0
1002
}
  0
LWPOLYLINE
  5
24B
100
AcDbEntity
  8
CENTRUM
100
AcDbPolyline
 90
        4
 70
     0
 43
0.0
 10
0.0
 20
57.5
 10
-18.0
 20
57.5
 10
-57.4
 20
57.5
 10
-65.0
 20
57.5
  0
INSERT
  5
24C
100
AcDbEntity
  8
0
100
AcDbBlockReference
  2
GLASV4_18
 10
-65.0
 20
0.0
 30
0.0
  0
LINE
  5
24D
100
AcDbEntity
  8
GLAS_MED_FOGNING
100
AcDbLine
 10
-57.4
 20
57.5
 30
0.0
 11
-57.4
 21
47.0
 31
0.0
  0
INSERT
  5
24E
100
AcDbEntity
  8
0
100
AcDbBlockReference
  2
GLASH3
 10
-10.0
 20
0.0
 30
0.0
  0
INSERT
  5
24F
100
AcDbEntity
  8
0
100
AcDbBlockReference
  2
SP41520
 10
0.0
 20
0.0
 30
0.0
  0
LINE
  5
250
100
AcDbEntity
  8
GLAS_MED_FOGNING
100
AcDbLine
 10
-18.0
 20
57.5
 30
0.0
 11
-18.0
 21
47.0
 31
0.0
  0
ENDBLK
  5
252
100
AcDbEntity
  8
0
100
AcDbBlockEnd
  0
BLOCK
  5
3EC
100
AcDbEntity
  8
0
100
AcDbBlockBegin
  2
*X39
 70
     1
 10
0.0
 20
0.0
 30
0.0
  3
*X39
  1

  0
LINE
  5
3E1
100
AcDbEntity
  8
0
 62
     0
100
AcDbLine
 10
-53.543137
 20
26.070355
 30
0.0
 11
-53.543137
 21
26.070355
 31
0.0
  0
LINE
  5
3E2
100
AcDbEntity
  8
0
 62
     0
100
AcDbLine
 10
-56.080918
 20
28.073368
 30
0.0
 11
-56.080918
 21
28.073368
 31
0.0
  0
LINE
  5
3E3
100
AcDbEntity
  8
0
 62
     0
100
AcDbLine
 10
-53.669124
 20
29.924003
 30
0.0
 11
-53.669124
 21
29.924003
 31
0.0
  0
LINE
  5
3E4
100
AcDbEntity
  8
0
 62
     0
100
AcDbLine
 10
-57.017327
 20
28.741634
 30
0.0
 11
-57.017327
 21
28.741634
 31
0.0
  0
LINE
  5
3E5
100
AcDbEntity
  8
0
 62
     0
100
AcDbLine
 10
-55.97631
 20
28.878687
 30
0.0
 11
-55.97631
 21
28.878687
 31
0.0
  0
LINE
  5
3E6
100
AcDbEntity
  8
0
 62
     0
100
AcDbLine
 10
-54.350341
 20
29.09275
 30
0.0
 11
-54.350341
 21
29.09275
 31
0.0
  0
LINE
  5
3E7
100
AcDbEntity
  8
0
 62
     0
100
AcDbLine
 10
-55.749526
 20
29.97
 30
0.0
 11
-55.749526
 21
29.97
 31
0.0
  0
LINE
  5
3E8
100
AcDbEntity
  8
0
 62
     0
100
AcDbLine
 10
-54.906135
 20
29.4327
 30
0.0
 11
-54.906135
 21
29.4327
 31
0.0
  0
LINE
  5
3E9
100
AcDbEntity
  8
0
 62
     0
100
AcDbLine
 10
-57.390118
 20
28.540481
 30
0.0
 11
-57.390118
 21
28.540481
 31
0.0
  0
LINE
  5
3EA
100
AcDbEntity
  8
0
 62
     0
100
AcDbLine
 10
-57.021479
 20
28.202685
 30
0.0
 11
-57.021479
 21
28.202685
 31
0.0
  0
LINE
  5
3EB
100
AcDbEntity
  8
0
 62
     0
100
AcDbLine
 10
-55.281504
 20
26.608293
 30
0.0
 11
-55.281504
 21
26.608293
 31
0.0
  0
ENDBLK
  5
3ED
100
AcDbEntity
  8
0
100
AcDbBlockEnd
  0
BLOCK
  5
3F3
100
AcDbEntity
  8
0
100
AcDbBlockBegin
  2
65_SP45020
 70
     0
 10
0.0
 20
0.0
 30
0.0
  3
65_SP45020
  1

  0
INSERT
  5
3DD
100
AcDbEntity
  8
0
100
AcDbBlockReference
  2
GLASH3
 10
-45.0
 20
0.0
 30
0.0
  0
LWPOLYLINE
  5
3DE
100
AcDbEntity
  8
CENTRUM
100
AcDbPolyline
 90
        4
 70
     0
 43
0.0
 10
0.0
 20
57.5
 10
-53.0
 20
57.5
 10
-57.4
 20
57.5
 10
-65.0
 20
57.5
  0
INSERT
  5
3DF
100
AcDbEntity
  8
GLAS_MED_FOGNING
100
AcDbBlockReference
  2
*X39
 10
0.0
 20
0.0
 30
0.0
1001
ACAD
1000
HATCH
1002
{
1070
    16
1000
AR-SAND
1040
2.0
1040
0.0
1002
}
  0
INSERT
  5
3EE
100
AcDbEntity
  8
0
100
AcDbBlockReference
  2
GLASV4_18
 10
-65.0
 20
0.0
 30
0.0
  0
LINE
  5
3EF
100
AcDbEntity
  8
GLAS_MED_FOGNING
100
AcDbLine
 10
-53.0
 20
57.5
 30
0.0
 11
-53.0
 21
47.0
 31
0.0
  0
LINE
  5
3F0
100
AcDbEntity
  8
GLAS_MED_FOGNING
100
AcDbLine
 10
-57.4
 20
57.5
 30
0.0
 11
-57.4
 21
47.0
 31
0.0
  0
LINE
  5
3F1
100
AcDbEntity
  8
GLAS_MED_FOGNING
100
AcDbLine
 10
-53.0
 20
30.0
 30
0.0
 11
-57.4
 21
30.0
 31
0.0
  0
INSERT
  5
3F2
100
AcDbEntity
  8
0
100
AcDbBlockReference
  2
SP45020
 10
0.0
 20
0.0
 30
0.0
  0
ENDBLK
  5
3F4
100
AcDbEntity
  8
0
100
AcDbBlockEnd
  0
BLOCK
  5
2FD
100
AcDbEntity
  8
0
100
AcDbBlockBegin
  2
SP40520
 70
     0
 10
0.0
 20
0.0
 30
0.0
  3
SP40520
  1

  0
LWPOLYLINE
  5
2F9
100
AcDbEntity
  8
SPKONTUR
100
AcDbPolyline
 90
       10
 70
     0
 43
0.0
 10
-15.0
 20
27.5
 10
-15.0
 20
26.75
 42
0.414214
 10
-13.25
 20
25.0
 10
-1.75
 20
25.0
 42
0.414214
 10
0.0
 20
26.75
 10
0.0
 20
43.75
 42
0.414214
 10
-1.25
 20
45.0
 10
-1.2501
 20
45.0
 42
0.414214
 10
-2.5
 20
43.7501
 10
-2.5
 20
39.0
  0
LWPOLYLINE
  5
2FA
100
AcDbEntity
  8
STALPROFIL
100
AcDbPolyline
 90
        9
 70
     0
 43
1.25
 10
-14.375
 20
27.5
 10
-14.375
 20
26.75
 42
0.414214
 10
-13.25
 20
25.625
 10
-1.75
 20
25.625
 42
0.414214
 10
-0.625
 20
26.75
 10
-0.625
 20
43.75
 42
0.414214
 10
-1.2501
 20
44.375
 42
0.414214
 10
-1.875
 20
43.7501
 10
-1.875
 20
39.0
  0
LWPOLYLINE
  5
2FB
100
AcDbEntity
  8
GLAS_MED_FOGNING
100
AcDbPolyline
 90
        9
 70
     0
 43
0.0
 10
-26.895347
 20
26.821776
 10
-25.0
 20
25.1
 10
-17.5
 20
25.099814
 42
0.315299
 10
-16.278378
 20
25.955158
 10
-15.496797
 20
28.102371
 42
-0.419684
 10
-15.107042
 20
28.279701
 10
-11.40871
 20
26.461158
 42
0.414233
 10
-9.670299
 20
27.059616
 10
-7.916703
 20
30.654738
  0
LINE
  5
2FC
100
AcDbEntity
  8
CENTRUM
100
AcDbLine
 10
-20.999975
 20
26.099901
 30
0.0
 11
-21.000124
 21
20.099901
 31
0.0
  0
ENDBLK
  5
2FE
100
AcDbEntity
  8
0
100
AcDbBlockEnd
  0
BLOCK
  5
333
100
AcDbEntity
  8
0
100
AcDbBlockBegin
  2
*X42
 70
     1
 10
0.0
 20
0.0
 30
0.0
  3
*X42
  1

  0
LINE
  5
329
100
AcDbEntity
  8
0
 62
     0
100
AcDbLine
 10
-3.964252
 20
40.411648
 30
0.0
 11
-3.964252
 21
40.411648
 31
0.0
  0
LINE
  5
32A
100
AcDbEntity
  8
0
 62
     0
100
AcDbLine
 10
-4.090239
 20
44.265296
 30
0.0
 11
-4.090239
 21
44.265296
 31
0.0
  0
LINE
  5
32B
100
AcDbEntity
  8
0
 62
     0
100
AcDbLine
 10
-3.586292
 20
28.850706
 30
0.0
 11
-3.586292
 21
28.850706
 31
0.0
  0
LINE
  5
32C
100
AcDbEntity
  8
0
 62
     0
100
AcDbLine
 10
-3.984846
 20
40.901794
 30
0.0
 11
-3.984846
 21
40.901794
 31
0.0
  0
LINE
  5
32D
100
AcDbEntity
  8
0
 62
     0
100
AcDbLine
 10
-4.054438
 20
30.53603
 30
0.0
 11
-4.054438
 21
30.53603
 31
0.0
  0
LINE
  5
32E
100
AcDbEntity
  8
0
 62
     0
100
AcDbLine
 10
-1.337879
 20
30.893671
 30
0.0
 11
-1.337879
 21
30.893671
 31
0.0
  0
LINE
  5
32F
100
AcDbEntity
  8
0
 62
     0
100
AcDbLine
 10
-2.925486
 20
40.088272
 30
0.0
 11
-2.925486
 21
40.088272
 31
0.0
  0
LINE
  5
330
100
AcDbEntity
  8
0
 62
     0
100
AcDbLine
 10
-2.043656
 20
27.588967
 30
0.0
 11
-2.043656
 21
27.588967
 31
0.0
  0
LINE
  5
331
100
AcDbEntity
  8
0
 62
     0
100
AcDbLine
 10
-3.006559
 20
29.559094
 30
0.0
 11
-3.006559
 21
29.559094
 31
0.0
  0
LINE
  5
332
100
AcDbEntity
  8
0
 62
     0
100
AcDbLine
 10
-2.63792
 20
29.221299
 30
0.0
 11
-2.63792
 21
29.221299
 31
0.0
  0
ENDBLK
  5
334
100
AcDbEntity
  8
0
100
AcDbBlockEnd
  0
BLOCK
  5
312
100
AcDbEntity
  8
0
100
AcDbBlockBegin
  2
*X43
 70
     1
 10
0.0
 20
0.0
 30
0.0
  3
*X43
  1

  0
LINE
  5
305
100
AcDbEntity
  8
0
 62
     0
100
AcDbLine
 10
-46.107517
 20
39.676548
 30
0.0
 11
-46.107517
 21
39.676548
 31
0.0
  0
LINE
  5
306
100
AcDbEntity
  8
0
 62
     0
100
AcDbLine
 10
-45.729557
 20
28.115606
 30
0.0
 11
-45.729557
 21
28.115606
 31
0.0
  0
LINE
  5
307
100
AcDbEntity
  8
0
 62
     0
100
AcDbLine
 10
-46.250236
 20
30.159149
 30
0.0
 11
-46.250236
 21
30.159149
 31
0.0
  0
LINE
  5
308
100
AcDbEntity
  8
0
 62
     0
100
AcDbLine
 10
-45.209219
 20
30.296201
 30
0.0
 11
-45.209219
 21
30.296201
 31
0.0
  0
LINE
  5
309
100
AcDbEntity
  8
0
 62
     0
100
AcDbLine
 10
-44.554675
 20
40.738976
 30
0.0
 11
-44.554675
 21
40.738976
 31
0.0
  0
LINE
  5
30A
100
AcDbEntity
  8
0
 62
     0
100
AcDbLine
 10
-44.406244
 20
25.223614
 30
0.0
 11
-44.406244
 21
25.223614
 31
0.0
  0
LINE
  5
30B
100
AcDbEntity
  8
0
 62
     0
100
AcDbLine
 10
-43.365227
 20
25.360666
 30
0.0
 11
-43.365227
 21
25.360666
 31
0.0
  0
LINE
  5
30C
100
AcDbEntity
  8
0
 62
     0
100
AcDbLine
 10
-46.523472
 20
40.009045
 30
0.0
 11
-46.523472
 21
40.009045
 31
0.0
  0
LINE
  5
30D
100
AcDbEntity
  8
0
 62
     0
100
AcDbLine
 10
-45.680081
 20
39.471746
 30
0.0
 11
-45.680081
 21
39.471746
 31
0.0
  0
LINE
  5
30E
100
AcDbEntity
  8
0
 62
     0
100
AcDbLine
 10
-44.259128
 20
42.545671
 30
0.0
 11
-44.259128
 21
42.545671
 31
0.0
  0
LINE
  5
30F
100
AcDbEntity
  8
0
 62
     0
100
AcDbLine
 10
-45.641642
 20
27.50974
 30
0.0
 11
-45.641642
 21
27.50974
 31
0.0
  0
LINE
  5
310
100
AcDbEntity
  8
0
 62
     0
100
AcDbLine
 10
-45.443269
 20
39.386909
 30
0.0
 11
-45.443269
 21
39.386909
 31
0.0
  0
LINE
  5
311
100
AcDbEntity
  8
0
 62
     0
100
AcDbLine
 10
-46.909964
 20
26.201755
 30
0.0
 11
-46.909964
 21
26.201755
 31
0.0
  0
ENDBLK
  5
313
100
AcDbEntity
  8
0
100
AcDbBlockEnd
  0
BLOCK
  5
31F
100
AcDbEntity
  8
0
100
AcDbBlockBegin
  2
FYLLNV
 70
     0
 10
0.0
 20
0.0
 30
0.0
  3
FYLLNV
  1

  0
LWPOLYLINE
  5
301
100
AcDbEntity
  8
SPKONTUR
100
AcDbPolyline
 90
        2
 70
     0
 43
0.0
 10
6.0
 20
29.0
 10
6.0
 20
46.001
  0
LWPOLYLINE
  5
302
100
AcDbEntity
  8
STALPROFIL
100
AcDbPolyline
 90
        2
 70
     0
 43
2.0
 10
7.0
 20
29.0
 10
7.0
 20
46.001
  0
INSERT
  5
303
100
AcDbEntity
  8
GLAS_MED_FOGNING
100
AcDbBlockReference
  2
*X43
 10
50.0
 20
0.0
 30
0.0
1001
ACAD
1000
HATCH
1002
{
1070
    16
1000
AR-SAND
1040
2.0
1040
0.0
1002
}
  0
ARC
  5
314
100
AcDbEntity
  8
GLAS_MED_FOGNING
100
AcDbCircle
 10
12.0
 20
29.0
 30
0.0
 40
6.0
100
AcDbArc
 50
180.0
 51
221.810315
  0
LINE
  5
315
100
AcDbEntity
  8
GLAS_MED_FOGNING
100
AcDbLine
 10
3.0
 20
35.0
 30
0.0
 11
6.0
 21
35.0
 31
0.0
  0
LINE
  5
316
100
AcDbEntity
  8
GLAS_MED_FOGNING
100
AcDbLine
 10
3.0
 20
38.0
 30
0.0
 11
6.0
 21
38.0
 31
0.0
  0
LINE
  5
317
100
AcDbEntity
  8
GLAS_MED_FOGNING
100
AcDbLine
 10
3.0
 20
37.0
 30
0.0
 11
6.0
 21
37.0
 31
0.0
  0
LINE
  5
318
100
AcDbEntity
  8
GLAS_MED_FOGNING
100
AcDbLine
 10
3.0
 20
36.0
 30
0.0
 11
6.0
 21
36.0
 31
0.0
  0
LINE
  5
319
100
AcDbEntity
  8
GLAS_MED_FOGNING
100
AcDbLine
 10
3.0
 20
39.0
 30
0.0
 11
6.0
 21
39.0
 31
0.0
  0
LINE
  5
31A
100
AcDbEntity
  8
GLAS_MED_FOGNING
100
AcDbLine
 10
3.0
 20
34.0
 30
0.0
 11
6.0
 21
34.0
 31
0.0
  0
LINE
  5
31B
100
AcDbEntity
  8
GLAS_MED_FOGNING
100
AcDbLine
 10
3.0
 20
31.0
 30
0.0
 11
6.0
 21
31.0
 31
0.0
  0
LINE
  5
31C
100
AcDbEntity
  8
GLAS_MED_FOGNING
100
AcDbLine
 10
3.0
 20
33.0
 30
0.0
 11
6.0
 21
33.0
 31
0.0
  0
LINE
  5
31D
100
AcDbEntity
  8
GLAS_MED_FOGNING
100
AcDbLine
 10
3.0
 20
32.0
 30
0.0
 11
6.0
 21
32.0
 31
0.0
  0
ARC
  5
31E
100
AcDbEntity
  8
GLAS_MED_FOGNING
100
AcDbCircle
 10
3.0
 20
46.001
 30
0.0
 40
3.0
100
AcDbArc
 50
270.0
 51
0.0
  0
ENDBLK
  5
320
100
AcDbEntity
  8
0
100
AcDbBlockEnd
  0
BLOCK
  5
340
100
AcDbEntity
  8
0
100
AcDbBlockBegin
  2
FYLLNH
 70
     0
 10
0.0
 20
0.0
 30
0.0
  3
FYLLNH
  1

  0
LWPOLYLINE
  5
325
100
AcDbEntity
  8
SPKONTUR
100
AcDbPolyline
 90
        2
 70
     0
 43
0.0
 10
-4.25
 20
29.0
 10
-4.25
 20
46.001
  0
LWPOLYLINE
  5
326
100
AcDbEntity
  8
STALPROFIL
100
AcDbPolyline
 90
        2
 70
     0
 43
2.0
 10
-5.25
 20
29.0
 10
-5.25
 20
46.001
  0
INSERT
  5
327
100
AcDbEntity
  8
GLAS_MED_FOGNING
100
AcDbBlockReference
  2
*X42
 10
0.0
 20
0.0
 30
0.0
1001
ACAD
1000
HATCH
1002
{
1070
    16
1000
AR-SAND
1040
2.0
1040
0.0
1002
}
  0
ARC
  5
335
100
AcDbEntity
  8
GLAS_MED_FOGNING
100
AcDbCircle
 10
-10.25
 20
29.0
 30
0.0
 40
6.0
100
AcDbArc
 50
332.720387
 51
0.0
  0
LINE
  5
336
100
AcDbEntity
  8
GLAS_MED_FOGNING
100
AcDbLine
 10
-1.25
 20
31.0
 30
0.0
 11
-4.25
 21
31.0
 31
0.0
  0
LINE
  5
337
100
AcDbEntity
  8
GLAS_MED_FOGNING
100
AcDbLine
 10
-1.25
 20
33.0
 30
0.0
 11
-4.25
 21
33.0
 31
0.0
  0
LINE
  5
338
100
AcDbEntity
  8
GLAS_MED_FOGNING
100
AcDbLine
 10
-1.25
 20
32.0
 30
0.0
 11
-4.25
 21
32.0
 31
0.0
  0
LINE
  5
339
100
AcDbEntity
  8
GLAS_MED_FOGNING
100
AcDbLine
 10
-1.25
 20
34.0
 30
0.0
 11
-4.25
 21
34.0
 31
0.0
  0
LINE
  5
33A
100
AcDbEntity
  8
GLAS_MED_FOGNING
100
AcDbLine
 10
-1.25
 20
39.0
 30
0.0
 11
-4.25
 21
39.0
 31
0.0
  0
LINE
  5
33B
100
AcDbEntity
  8
GLAS_MED_FOGNING
100
AcDbLine
 10
-1.25
 20
38.0
 30
0.0
 11
-4.25
 21
38.0
 31
0.0
  0
LINE
  5
33C
100
AcDbEntity
  8
GLAS_MED_FOGNING
100
AcDbLine
 10
-1.25
 20
37.0
 30
0.0
 11
-4.25
 21
37.0
 31
0.0
  0
LINE
  5
33D
100
AcDbEntity
  8
GLAS_MED_FOGNING
100
AcDbLine
 10
-1.25
 20
36.0
 30
0.0
 11
-4.25
 21
36.0
 31
0.0
  0
LINE
  5
33E
100
AcDbEntity
  8
GLAS_MED_FOGNING
100
AcDbLine
 10
-1.25
 20
35.0
 30
0.0
 11
-4.25
 21
35.0
 31
0.0
  0
ARC
  5
33F
100
AcDbEntity
  8
GLAS_MED_FOGNING
100
AcDbCircle
 10
-2.5
 20
45.5001
 30
0.0
 40
1.75
100
AcDbArc
 50
180.0
 51
270.0
  0
ENDBLK
  5
341
100
AcDbEntity
  8
0
100
AcDbBlockEnd
  0
BLOCK
  5
344
100
AcDbEntity
  8
0
100
AcDbBlockBegin
  2
65_SP40520FYLLN
 70
     0
 10
0.0
 20
0.0
 30
0.0
  3
65_SP40520FYLLN
  1

  0
LWPOLYLINE
  5
2F4
100
AcDbEntity
  8
ISOLERING
100
AcDbPolyline
 90
       14
 70
     0
 43
0.0
 10
-9.518759
 20
30.805791
 42
0.107028
 10
-11.203417
 20
30.974219
 10
-51.446583
 20
28.025781
 42
-1.120577
 10
-51.446583
 20
35.974219
 10
-11.203417
 20
33.025781
 42
1.120577
 10
-11.203417
 20
40.974219
 10
-51.446583
 20
38.025781
 42
-1.120577
 10
-51.446583
 20
45.974219
 10
-11.203417
 20
43.025781
 42
1.120577
 10
-11.203417
 20
50.974219
 10
-51.446583
 20
48.025781
 42
-1.120577
 10
-51.446583
 20
55.974219
 10
-11.203417
 20
53.025781
 42
0.486056
 10
-6.781373
 20
57.5
  0
LWPOLYLINE
  5
2F6
100
AcDbEntity
  8
CENTRUM
100
AcDbPolyline
 90
        6
 70
     0
 43
0.0
 10
0.0
 20
57.5
 10
-4.25
 20
57.5
 10
-6.25
 20
57.5
 10
-56.4
 20
57.5
 10
-58.4
 20
57.5
 10
-64.4
 20
57.5
  0
INSERT
  5
2F7
100
AcDbEntity
  8
0
100
AcDbBlockReference
  2
SP40520
 10
0.0
 20
0.0
 30
0.0
  0
INSERT
  5
2FF
100
AcDbEntity
  8
0
100
AcDbBlockReference
  2
FYLLNV
 10
-64.4
 20
0.0
 30
0.0
  0
LWPOLYLINE
  5
321
100
AcDbEntity
  8
SPKONTUR
100
AcDbPolyline
 90
        2
 70
     0
 43
0.0
 10
-58.4
 20
46.001
 10
-58.4
 20
57.5
  0
LWPOLYLINE
  5
322
100
AcDbEntity
  8
STALPROFIL
100
AcDbPolyline
 90
        2
 70
     0
 43
2.0
 10
-57.4
 20
46.001
 10
-57.4
 20
57.5
  0
INSERT
  5
323
100
AcDbEntity
  8
0
100
AcDbBlockReference
  2
FYLLNH
 10
0.0
 20
0.0
 30
0.0
  0
LWPOLYLINE
  5
342
100
AcDbEntity
  8
SPKONTUR
100
AcDbPolyline
 90
        2
 70
     0
 43
0.0
 10
-4.25
 20
46.001
 10
-4.25
 20
57.5
  0
LWPOLYLINE
  5
343
100
AcDbEntity
  8
STALPROFIL
100
AcDbPolyline
 90
        2
 70
     0
 43
2.0
 10
-5.25
 20
46.001
 10
-5.25
 20
57.5
  0
ENDBLK
  5
345
100
AcDbEntity
  8
0
100
AcDbBlockEnd
  0
BLOCK
  5
1D3
100
AcDbEntity
  8
0
100
AcDbBlockBegin
  2
-
 70
     0
 10
0.0
 20
0.0
 30
0.0
  3
-
  1

  0
LWPOLYLINE
  5
1D0
100
AcDbEntity
  8
STALPROFIL
100
AcDbPolyline
 90
       14
 70
     0
 43
1.25
 10
-1.592449
 20
29.838238
 10
-2.372969
 20
26.925296
 42
0.398381
 10
-1.0
 20
25.625
 10
-2.0
 20
25.625
 42
0.414214
 10
-0.625
 20
27.0
 10
-0.625
 20
43.0
 42
0.414214
 10
-2.0
 20
44.375
 10
-23.0
 20
44.375
 42
0.414214
 10
-24.375
 20
43.0
 10
-24.375
 20
27.0
 42
0.414214
 10
-23.0
 20
25.625
 10
-13.0
 20
25.625
 42
0.398381
 10
-11.627031
 20
26.925296
 10
-12.407551
 20
29.838238
  0
LWPOLYLINE
  5
1D1
100
AcDbEntity
  8
SPKONTUR
100
AcDbPolyline
 90
       14
 70
     0
 43
0.0
 10
-2.196152
 20
30.0
 10
-3.0
 20
27.0
 42
0.414214
 10
-1.0
 20
25.0
 10
-2.0
 20
25.0
 42
0.414214
 10
0.0
 20
27.0
 10
0.0
 20
43.0
 42
0.414214
 10
-2.0
 20
45.0
 10
-23.0
 20
45.0
 42
0.414214
 10
-25.0
 20
43.0
 10
-25.0
 20
27.0
 42
0.414214
 10
-23.0
 20
25.0
 10
-13.0
 20
25.0
 42
0.414214
 10
-11.0
 20
27.0
 10
-11.803848
 20
30.0
  0
INSERT
  5
1D2
100
AcDbEntity
  8
0
100
AcDbBlockReference
  2
SP40020
 10
6.0
 20
0.0
 30
0.0
  0
ENDBLK
  5
1D4
100
AcDbEntity
  8
0
100
AcDbBlockEnd
  0
BLOCK
  5
1D6
100
AcDbEntity
  8
0
100
AcDbBlockBegin
  2
SP42520_2
 70
     0
 10
0.0
 20
0.0
 30
0.0
  3
SP42520_2
  1

  0
LWPOLYLINE
  5
198
100
AcDbEntity
  8
CENTRUM
100
AcDbPolyline
 90
        4
 70
     0
 43
0.0
 10
0.0
 20
57.5
 10
-30.0
 20
57.5
 10
-55.4
 20
57.5
 10
-65.0
 20
57.5
  0
INSERT
  5
199
100
AcDbEntity
  8
GLAS_MED_FOGNING
100
AcDbBlockReference
  2
*X25
 10
0.0
 20
0.0
 30
0.0
1001
ACAD
1000
HATCH
1002
{
1070
    16
1000
AR-SAND
1040
2.0
1040
0.0
1002
}
  0
LINE
  5
1CA
100
AcDbEntity
  8
GLAS_MED_FOGNING
100
AcDbLine
 10
-30.0
 20
30.0
 30
0.0
 11
-55.4
 21
30.0
 31
0.0
  0
LINE
  5
1CB
100
AcDbEntity
  8
GLAS_MED_FOGNING
100
AcDbLine
 10
-55.4
 20
57.5
 30
0.0
 11
-55.4
 21
49.0
 31
0.0
  0
INSERT
  5
1CC
100
AcDbEntity
  8
0
100
AcDbBlockReference
  2
GLASV6_18
 10
-65.0
 20
0.0
 30
0.0
  0
LINE
  5
1CD
100
AcDbEntity
  8
GLAS_MED_FOGNING
100
AcDbLine
 10
-30.0
 20
57.5
 30
0.0
 11
-30.0
 21
49.0
 31
0.0
  0
INSERT
  5
1CE
100
AcDbEntity
  8
GLAS_MED_FOGNING
100
AcDbBlockReference
  2
-
 10
0.0
 20
0.0
 30
0.0
  0
INSERT
  5
1D5
100
AcDbEntity
  8
GLAS_MED_FOGNING
100
AcDbBlockReference
  2
GLASH5
 10
-5.0
 20
0.0
 30
0.0
  0
ENDBLK
  5
1D7
100
AcDbEntity
  8
0
100
AcDbBlockEnd
  0
BLOCK
  5
1F5
100
AcDbEntity
  8
0
100
AcDbBlockBegin
  2
SP42520-2_DK
 70
     0
 10
0.0
 20
0.0
 30
0.0
  3
SP42520-2_DK
  1

  0
LINE
  5
1E8
100
AcDbEntity
  8
GLAS_MED_FOGNING
100
AcDbLine
 10
-30.0
 20
57.5
 30
0.0
 11
-30.0
 21
49.0
 31
0.0
  0
LINE
  5
1E9
100
AcDbEntity
  8
GLAS_MED_FOGNING
100
AcDbLine
 10
-55.4
 20
57.5
 30
0.0
 11
-55.4
 21
49.0
 31
0.0
  0
LINE
  5
1EA
100
AcDbEntity
  8
GLAS_MED_FOGNING
100
AcDbLine
 10
-55.0
 20
25.0
 30
0.0
 11
-30.0
 21
30.0
 31
0.0
  0
LINE
  5
1EB
100
AcDbEntity
  8
GLAS_MED_FOGNING
100
AcDbLine
 10
-30.0
 20
25.0
 30
0.0
 11
-55.0
 21
30.0
 31
0.0
  0
LINE
  5
1EC
100
AcDbEntity
  8
GLAS_MED_FOGNING
100
AcDbLine
 10
-55.0
 20
30.0
 30
0.0
 11
-30.0
 21
30.0
 31
0.0
  0
LINE
  5
1ED
100
AcDbEntity
  8
GLAS_MED_FOGNING
100
AcDbLine
 10
-30.0
 20
25.0
 30
0.0
 11
-55.0
 21
25.0
 31
0.0
  0
LINE
  5
1EE
100
AcDbEntity
  8
GLAS_MED_FOGNING
100
AcDbLine
 10
-30.0
 20
30.0
 30
0.0
 11
-55.4
 21
30.0
 31
0.0
  0
INSERT
  5
1EF
100
AcDbEntity
  8
0
100
AcDbBlockReference
  2
GLASV6_18
 10
-65.0
 20
0.0
 30
0.0
  0
LINE
  5
1F0
100
AcDbEntity
  8
GLAS_MED_FOGNING
100
AcDbLine
 10
-55.0
 20
25.0
 30
0.0
 11
-55.0
 21
30.0
 31
0.0
  0
INSERT
  5
1F1
100
AcDbEntity
  8
GLAS_MED_FOGNING
100
AcDbBlockReference
  2
GLASH5
 10
-5.0
 20
0.0
 30
0.0
  0
INSERT
  5
1F2
100
AcDbEntity
  8
GLAS_MED_FOGNING
100
AcDbBlockReference
  2
-
 10
0.0
 20
0.0
 30
0.0
  0
LINE
  5
1F3
100
AcDbEntity
  8
GLAS_MED_FOGNING
100
AcDbLine
 10
-30.0
 20
30.0
 30
0.0
 11
-30.0
 21
25.0
 31
0.0
  0
LWPOLYLINE
  5
1F4
100
AcDbEntity
  8
CENTRUM
100
AcDbPolyline
 90
        4
 70
     0
 43
0.0
 10
0.0
 20
57.5
 10
-30.0
 20
57.5
 10
-55.4
 20
57.5
 10
-65.0
 20
57.5
  0
ENDBLK
  5
1F6
100
AcDbEntity
  8
0
100
AcDbBlockEnd
  0
BLOCK
  5
531
100
AcDbEntity
  8
0
100
AcDbBlockBegin
  2
*X50
 70
     1
 10
0.0
 20
0.0
 30
0.0
  3
*X50
  1

  0
LINE
  5
47D
100
AcDbEntity
  8
0
 62
     0
100
AcDbLine
 10
133.6
 20
110.418239
 30
0.0
 11
133.75
 21
110.418239
 31
0.0
  0
LINE
  5
47E
100
AcDbEntity
  8
0
 62
     0
100
AcDbLine
 10
135.0
 20
110.418239
 30
0.0
 11
135.625
 21
110.418239
 31
0.0
  0
LINE
  5
47F
100
AcDbEntity
  8
0
 62
     0
100
AcDbLine
 10
136.875
 20
110.418239
 30
0.0
 11
137.5
 21
110.418239
 31
0.0
  0
LINE
  5
480
100
AcDbEntity
  8
0
 62
     0
100
AcDbLine
 10
138.75
 20
110.418239
 30
0.0
 11
139.0
 21
110.418239
 31
0.0
  0
LINE
  5
481
100
AcDbEntity
  8
0
 62
     0
100
AcDbLine
 10
170.625
 20
110.418239
 30
0.0
 11
171.25
 21
110.418239
 31
0.0
  0
LINE
  5
482
100
AcDbEntity
  8
0
 62
     0
100
AcDbLine
 10
172.5
 20
110.418239
 30
0.0
 11
173.125
 21
110.418239
 31
0.0
  0
LINE
  5
483
100
AcDbEntity
  8
0
 62
     0
100
AcDbLine
 10
174.375
 20
110.418239
 30
0.0
 11
175.0
 21
110.418239
 31
0.0
  0
LINE
  5
484
100
AcDbEntity
  8
0
 62
     0
100
AcDbLine
 10
133.6
 20
111.500771
 30
0.0
 11
133.75
 21
111.500771
 31
0.0
  0
LINE
  5
485
100
AcDbEntity
  8
0
 62
     0
100
AcDbLine
 10
135.0
 20
111.500771
 30
0.0
 11
135.625
 21
111.500771
 31
0.0
  0
LINE
  5
486
100
AcDbEntity
  8
0
 62
     0
100
AcDbLine
 10
136.875
 20
111.500771
 30
0.0
 11
137.5
 21
111.500771
 31
0.0
  0
LINE
  5
487
100
AcDbEntity
  8
0
 62
     0
100
AcDbLine
 10
138.75
 20
111.500771
 30
0.0
 11
139.0
 21
111.500771
 31
0.0
  0
LINE
  5
488
100
AcDbEntity
  8
0
 62
     0
100
AcDbLine
 10
170.625
 20
111.500771
 30
0.0
 11
171.25
 21
111.500771
 31
0.0
  0
LINE
  5
489
100
AcDbEntity
  8
0
 62
     0
100
AcDbLine
 10
172.5
 20
111.500771
 30
0.0
 11
173.125
 21
111.500771
 31
0.0
  0
LINE
  5
48A
100
AcDbEntity
  8
0
 62
     0
100
AcDbLine
 10
174.375
 20
111.500771
 30
0.0
 11
175.0
 21
111.500771
 31
0.0
  0
LINE
  5
48B
100
AcDbEntity
  8
0
 62
     0
100
AcDbLine
 10
133.6
 20
112.583303
 30
0.0
 11
133.75
 21
112.583303
 31
0.0
  0
LINE
  5
48C
100
AcDbEntity
  8
0
 62
     0
100
AcDbLine
 10
135.0
 20
112.583303
 30
0.0
 11
135.625
 21
112.583303
 31
0.0
  0
LINE
  5
48D
100
AcDbEntity
  8
0
 62
     0
100
AcDbLine
 10
136.875
 20
112.583303
 30
0.0
 11
137.5
 21
112.583303
 31
0.0
  0
LINE
  5
48E
100
AcDbEntity
  8
0
 62
     0
100
AcDbLine
 10
138.75
 20
112.583303
 30
0.0
 11
139.0
 21
112.583303
 31
0.0
  0
LINE
  5
48F
100
AcDbEntity
  8
0
 62
     0
100
AcDbLine
 10
170.625
 20
112.583303
 30
0.0
 11
171.25
 21
112.583303
 31
0.0
  0
LINE
  5
490
100
AcDbEntity
  8
0
 62
     0
100
AcDbLine
 10
172.5
 20
112.583303
 30
0.0
 11
173.125
 21
112.583303
 31
0.0
  0
LINE
  5
491
100
AcDbEntity
  8
0
 62
     0
100
AcDbLine
 10
174.375
 20
112.583303
 30
0.0
 11
175.0
 21
112.583303
 31
0.0
  0
LINE
  5
492
100
AcDbEntity
  8
0
 62
     0
100
AcDbLine
 10
133.6
 20
113.665834
 30
0.0
 11
133.75
 21
113.665834
 31
0.0
  0
LINE
  5
493
100
AcDbEntity
  8
0
 62
     0
100
AcDbLine
 10
135.0
 20
113.665834
 30
0.0
 11
135.625
 21
113.665834
 31
0.0
  0
LINE
  5
494
100
AcDbEntity
  8
0
 62
     0
100
AcDbLine
 10
136.875
 20
113.665834
 30
0.0
 11
137.5
 21
113.665834
 31
0.0
  0
LINE
  5
495
100
AcDbEntity
  8
0
 62
     0
100
AcDbLine
 10
138.75
 20
113.665834
 30
0.0
 11
139.0
 21
113.665834
 31
0.0
  0
LINE
  5
496
100
AcDbEntity
  8
0
 62
     0
100
AcDbLine
 10
170.625
 20
113.665834
 30
0.0
 11
171.25
 21
113.665834
 31
0.0
  0
LINE
  5
497
100
AcDbEntity
  8
0
 62
     0
100
AcDbLine
 10
172.5
 20
113.665834
 30
0.0
 11
173.125
 21
113.665834
 31
0.0
  0
LINE
  5
498
100
AcDbEntity
  8
0
 62
     0
100
AcDbLine
 10
174.375
 20
113.665834
 30
0.0
 11
175.0
 21
113.665834
 31
0.0
  0
LINE
  5
499
100
AcDbEntity
  8
0
 62
     0
100
AcDbLine
 10
133.6
 20
114.748366
 30
0.0
 11
133.75
 21
114.748366
 31
0.0
  0
LINE
  5
49A
100
AcDbEntity
  8
0
 62
     0
100
AcDbLine
 10
135.0
 20
114.748366
 30
0.0
 11
135.625
 21
114.748366
 31
0.0
  0
LINE
  5
49B
100
AcDbEntity
  8
0
 62
     0
100
AcDbLine
 10
136.875
 20
114.748366
 30
0.0
 11
137.5
 21
114.748366
 31
0.0
  0
LINE
  5
49C
100
AcDbEntity
  8
0
 62
     0
100
AcDbLine
 10
138.75
 20
114.748366
 30
0.0
 11
139.0
 21
114.748366
 31
0.0
  0
LINE
  5
49D
100
AcDbEntity
  8
0
 62
     0
100
AcDbLine
 10
170.625
 20
114.748366
 30
0.0
 11
171.25
 21
114.748366
 31
0.0
  0
LINE
  5
49E
100
AcDbEntity
  8
0
 62
     0
100
AcDbLine
 10
172.5
 20
114.748366
 30
0.0
 11
173.125
 21
114.748366
 31
0.0
  0
LINE
  5
49F
100
AcDbEntity
  8
0
 62
     0
100
AcDbLine
 10
174.375
 20
114.748366
 30
0.0
 11
175.0
 21
114.748366
 31
0.0
  0
LINE
  5
4A0
100
AcDbEntity
  8
0
 62
     0
100
AcDbLine
 10
133.6
 20
115.830898
 30
0.0
 11
133.75
 21
115.830898
 31
0.0
  0
LINE
  5
4A1
100
AcDbEntity
  8
0
 62
     0
100
AcDbLine
 10
135.0
 20
115.830898
 30
0.0
 11
135.625
 21
115.830898
 31
0.0
  0
LINE
  5
4A2
100
AcDbEntity
  8
0
 62
     0
100
AcDbLine
 10
136.875
 20
115.830898
 30
0.0
 11
137.5
 21
115.830898
 31
0.0
  0
LINE
  5
4A3
100
AcDbEntity
  8
0
 62
     0
100
AcDbLine
 10
138.75
 20
115.830898
 30
0.0
 11
139.0
 21
115.830898
 31
0.0
  0
LINE
  5
4A4
100
AcDbEntity
  8
0
 62
     0
100
AcDbLine
 10
170.625
 20
115.830898
 30
0.0
 11
171.25
 21
115.830898
 31
0.0
  0
LINE
  5
4A5
100
AcDbEntity
  8
0
 62
     0
100
AcDbLine
 10
172.5
 20
115.830898
 30
0.0
 11
173.125
 21
115.830898
 31
0.0
  0
LINE
  5
4A6
100
AcDbEntity
  8
0
 62
     0
100
AcDbLine
 10
174.375
 20
115.830898
 30
0.0
 11
175.0
 21
115.830898
 31
0.0
  0
LINE
  5
4A7
100
AcDbEntity
  8
0
 62
     0
100
AcDbLine
 10
133.6
 20
109.335707
 30
0.0
 11
133.75
 21
109.335707
 31
0.0
  0
LINE
  5
4A8
100
AcDbEntity
  8
0
 62
     0
100
AcDbLine
 10
135.0
 20
109.335707
 30
0.0
 11
135.625
 21
109.335707
 31
0.0
  0
LINE
  5
4A9
100
AcDbEntity
  8
0
 62
     0
100
AcDbLine
 10
136.875
 20
109.335707
 30
0.0
 11
137.5
 21
109.335707
 31
0.0
  0
LINE
  5
4AA
100
AcDbEntity
  8
0
 62
     0
100
AcDbLine
 10
138.75
 20
109.335707
 30
0.0
 11
139.0
 21
109.335707
 31
0.0
  0
LINE
  5
4AB
100
AcDbEntity
  8
0
 62
     0
100
AcDbLine
 10
170.625
 20
109.335707
 30
0.0
 11
171.25
 21
109.335707
 31
0.0
  0
LINE
  5
4AC
100
AcDbEntity
  8
0
 62
     0
100
AcDbLine
 10
172.5
 20
109.335707
 30
0.0
 11
173.125
 21
109.335707
 31
0.0
  0
LINE
  5
4AD
100
AcDbEntity
  8
0
 62
     0
100
AcDbLine
 10
174.375
 20
109.335707
 30
0.0
 11
175.0
 21
109.335707
 31
0.0
  0
LINE
  5
4AE
100
AcDbEntity
  8
0
 62
     0
100
AcDbLine
 10
133.6
 20
108.253176
 30
0.0
 11
133.75
 21
108.253176
 31
0.0
  0
LINE
  5
4AF
100
AcDbEntity
  8
0
 62
     0
100
AcDbLine
 10
135.0
 20
108.253176
 30
0.0
 11
135.625
 21
108.253176
 31
0.0
  0
LINE
  5
4B0
100
AcDbEntity
  8
0
 62
     0
100
AcDbLine
 10
136.875
 20
108.253176
 30
0.0
 11
137.5
 21
108.253176
 31
0.0
  0
LINE
  5
4B1
100
AcDbEntity
  8
0
 62
     0
100
AcDbLine
 10
138.75
 20
108.253176
 30
0.0
 11
139.0
 21
108.253176
 31
0.0
  0
LINE
  5
4B2
100
AcDbEntity
  8
0
 62
     0
100
AcDbLine
 10
170.625
 20
108.253176
 30
0.0
 11
171.25
 21
108.253176
 31
0.0
  0
LINE
  5
4B3
100
AcDbEntity
  8
0
 62
     0
100
AcDbLine
 10
172.5
 20
108.253176
 30
0.0
 11
173.125
 21
108.253176
 31
0.0
  0
LINE
  5
4B4
100
AcDbEntity
  8
0
 62
     0
100
AcDbLine
 10
174.375
 20
108.253176
 30
0.0
 11
175.0
 21
108.253176
 31
0.0
  0
LINE
  5
4B5
100
AcDbEntity
  8
0
 62
     0
100
AcDbLine
 10
133.6
 20
107.170644
 30
0.0
 11
133.75
 21
107.170644
 31
0.0
  0
LINE
  5
4B6
100
AcDbEntity
  8
0
 62
     0
100
AcDbLine
 10
135.0
 20
107.170644
 30
0.0
 11
135.625
 21
107.170644
 31
0.0
  0
LINE
  5
4B7
100
AcDbEntity
  8
0
 62
     0
100
AcDbLine
 10
136.875
 20
107.170644
 30
0.0
 11
137.5
 21
107.170644
 31
0.0
  0
LINE
  5
4B8
100
AcDbEntity
  8
0
 62
     0
100
AcDbLine
 10
138.75
 20
107.170644
 30
0.0
 11
139.0
 21
107.170644
 31
0.0
  0
LINE
  5
4B9
100
AcDbEntity
  8
0
 62
     0
100
AcDbLine
 10
170.625
 20
107.170644
 30
0.0
 11
171.25
 21
107.170644
 31
0.0
  0
LINE
  5
4BA
100
AcDbEntity
  8
0
 62
     0
100
AcDbLine
 10
172.5
 20
107.170644
 30
0.0
 11
173.125
 21
107.170644
 31
0.0
  0
LINE
  5
4BB
100
AcDbEntity
  8
0
 62
     0
100
AcDbLine
 10
174.375
 20
107.170644
 30
0.0
 11
175.0
 21
107.170644
 31
0.0
  0
LINE
  5
4BC
100
AcDbEntity
  8
0
 62
     0
100
AcDbLine
 10
133.6
 20
106.088112
 30
0.0
 11
133.75
 21
106.088112
 31
0.0
  0
LINE
  5
4BD
100
AcDbEntity
  8
0
 62
     0
100
AcDbLine
 10
135.0
 20
106.088112
 30
0.0
 11
135.625
 21
106.088112
 31
0.0
  0
LINE
  5
4BE
100
AcDbEntity
  8
0
 62
     0
100
AcDbLine
 10
136.875
 20
106.088112
 30
0.0
 11
137.5
 21
106.088112
 31
0.0
  0
LINE
  5
4BF
100
AcDbEntity
  8
0
 62
     0
100
AcDbLine
 10
138.75
 20
106.088112
 30
0.0
 11
139.0
 21
106.088112
 31
0.0
  0
LINE
  5
4C0
100
AcDbEntity
  8
0
 62
     0
100
AcDbLine
 10
170.625
 20
106.088112
 30
0.0
 11
171.25
 21
106.088112
 31
0.0
  0
LINE
  5
4C1
100
AcDbEntity
  8
0
 62
     0
100
AcDbLine
 10
172.5
 20
106.088112
 30
0.0
 11
173.125
 21
106.088112
 31
0.0
  0
LINE
  5
4C2
100
AcDbEntity
  8
0
 62
     0
100
AcDbLine
 10
174.375
 20
106.088112
 30
0.0
 11
175.0
 21
106.088112
 31
0.0
  0
LINE
  5
4C3
100
AcDbEntity
  8
0
 62
     0
100
AcDbLine
 10
138.75
 20
114.748366
 30
0.0
 11
138.4375
 21
115.289632
 31
0.0
  0
LINE
  5
4C4
100
AcDbEntity
  8
0
 62
     0
100
AcDbLine
 10
138.75
 20
112.583303
 30
0.0
 11
138.4375
 21
113.124568
 31
0.0
  0
LINE
  5
4C5
100
AcDbEntity
  8
0
 62
     0
100
AcDbLine
 10
137.8125
 20
114.2071
 30
0.0
 11
137.5
 21
114.748366
 31
0.0
  0
LINE
  5
4C6
100
AcDbEntity
  8
0
 62
     0
100
AcDbLine
 10
136.875
 20
115.830898
 30
0.0
 11
136.777946
 21
115.999
 31
0.0
  0
LINE
  5
4C7
100
AcDbEntity
  8
0
 62
     0
100
AcDbLine
 10
138.75
 20
110.418239
 30
0.0
 11
138.4375
 21
110.959505
 31
0.0
  0
LINE
  5
4C8
100
AcDbEntity
  8
0
 62
     0
100
AcDbLine
 10
137.8125
 20
112.042037
 30
0.0
 11
137.5
 21
112.583303
 31
0.0
  0
LINE
  5
4C9
100
AcDbEntity
  8
0
 62
     0
100
AcDbLine
 10
136.875
 20
113.665834
 30
0.0
 11
136.5625
 21
114.2071
 31
0.0
  0
LINE
  5
4CA
100
AcDbEntity
  8
0
 62
     0
100
AcDbLine
 10
135.9375
 20
115.289632
 30
0.0
 11
135.625
 21
115.830898
 31
0.0
  0
LINE
  5
4CB
100
AcDbEntity
  8
0
 62
     0
100
AcDbLine
 10
138.75
 20
108.253175
 30
0.0
 11
138.4375
 21
108.794441
 31
0.0
  0
LINE
  5
4CC
100
AcDbEntity
  8
0
 62
     0
100
AcDbLine
 10
137.8125
 20
109.876973
 30
0.0
 11
137.5
 21
110.418239
 31
0.0
  0
LINE
  5
4CD
100
AcDbEntity
  8
0
 62
     0
100
AcDbLine
 10
136.875
 20
111.500771
 30
0.0
 11
136.5625
 21
112.042037
 31
0.0
  0
LINE
  5
4CE
100
AcDbEntity
  8
0
 62
     0
100
AcDbLine
 10
135.9375
 20
113.124568
 30
0.0
 11
135.625
 21
113.665834
 31
0.0
  0
LINE
  5
4CF
100
AcDbEntity
  8
0
 62
     0
100
AcDbLine
 10
135.0
 20
114.748366
 30
0.0
 11
134.6875
 21
115.289632
 31
0.0
  0
LINE
  5
4D0
100
AcDbEntity
  8
0
 62
     0
100
AcDbLine
 10
138.75
 20
106.088112
 30
0.0
 11
138.4375
 21
106.629378
 31
0.0
  0
LINE
  5
4D1
100
AcDbEntity
  8
0
 62
     0
100
AcDbLine
 10
137.8125
 20
107.71191
 30
0.0
 11
137.5
 21
108.253175
 31
0.0
  0
LINE
  5
4D2
100
AcDbEntity
  8
0
 62
     0
100
AcDbLine
 10
136.875
 20
109.335707
 30
0.0
 11
136.5625
 21
109.876973
 31
0.0
  0
LINE
  5
4D3
100
AcDbEntity
  8
0
 62
     0
100
AcDbLine
 10
135.9375
 20
110.959505
 30
0.0
 11
135.625
 21
111.500771
 31
0.0
  0
LINE
  5
4D4
100
AcDbEntity
  8
0
 62
     0
100
AcDbLine
 10
135.0
 20
112.583303
 30
0.0
 11
134.6875
 21
113.124568
 31
0.0
  0
LINE
  5
4D5
100
AcDbEntity
  8
0
 62
     0
100
AcDbLine
 10
134.0625
 20
114.2071
 30
0.0
 11
133.75
 21
114.748366
 31
0.0
  0
LINE
  5
4D6
100
AcDbEntity
  8
0
 62
     0
100
AcDbLine
 10
137.551449
 20
105.999
 30
0.0
 11
137.5
 21
106.088112
 31
0.0
  0
LINE
  5
4D7
100
AcDbEntity
  8
0
 62
     0
100
AcDbLine
 10
136.875
 20
107.170644
 30
0.0
 11
136.5625
 21
107.71191
 31
0.0
  0
LINE
  5
4D8
100
AcDbEntity
  8
0
 62
     0
100
AcDbLine
 10
135.9375
 20
108.794441
 30
0.0
 11
135.625
 21
109.335707
 31
0.0
  0
LINE
  5
4D9
100
AcDbEntity
  8
0
 62
     0
100
AcDbLine
 10
135.0
 20
110.418239
 30
0.0
 11
134.6875
 21
110.959505
 31
0.0
  0
LINE
  5
4DA
100
AcDbEntity
  8
0
 62
     0
100
AcDbLine
 10
134.0625
 20
112.042037
 30
0.0
 11
133.75
 21
112.583303
 31
0.0
  0
LINE
  5
4DB
100
AcDbEntity
  8
0
 62
     0
100
AcDbLine
 10
135.9375
 20
106.629378
 30
0.0
 11
135.625
 21
107.170644
 31
0.0
  0
LINE
  5
4DC
100
AcDbEntity
  8
0
 62
     0
100
AcDbLine
 10
135.0
 20
108.253175
 30
0.0
 11
134.6875
 21
108.794441
 31
0.0
  0
LINE
  5
4DD
100
AcDbEntity
  8
0
 62
     0
100
AcDbLine
 10
134.0625
 20
109.876973
 30
0.0
 11
133.75
 21
110.418239
 31
0.0
  0
LINE
  5
4DE
100
AcDbEntity
  8
0
 62
     0
100
AcDbLine
 10
135.0
 20
106.088112
 30
0.0
 11
134.6875
 21
106.629378
 31
0.0
  0
LINE
  5
4DF
100
AcDbEntity
  8
0
 62
     0
100
AcDbLine
 10
134.0625
 20
107.71191
 30
0.0
 11
133.75
 21
108.253175
 31
0.0
  0
LINE
  5
4E0
100
AcDbEntity
  8
0
 62
     0
100
AcDbLine
 10
133.801449
 20
105.999
 30
0.0
 11
133.75
 21
106.088112
 31
0.0
  0
LINE
  5
4E1
100
AcDbEntity
  8
0
 62
     0
100
AcDbLine
 10
171.301449
 20
105.999
 30
0.0
 11
171.25
 21
106.088112
 31
0.0
  0
LINE
  5
4E2
100
AcDbEntity
  8
0
 62
     0
100
AcDbLine
 10
170.625
 20
107.170644
 30
0.0
 11
170.3125
 21
107.71191
 31
0.0
  0
LINE
  5
4E3
100
AcDbEntity
  8
0
 62
     0
100
AcDbLine
 10
172.5
 20
106.088112
 30
0.0
 11
172.1875
 21
106.629378
 31
0.0
  0
LINE
  5
4E4
100
AcDbEntity
  8
0
 62
     0
100
AcDbLine
 10
171.5625
 20
107.71191
 30
0.0
 11
171.25
 21
108.253175
 31
0.0
  0
LINE
  5
4E5
100
AcDbEntity
  8
0
 62
     0
100
AcDbLine
 10
170.625
 20
109.335707
 30
0.0
 11
170.3125
 21
109.876973
 31
0.0
  0
LINE
  5
4E6
100
AcDbEntity
  8
0
 62
     0
100
AcDbLine
 10
173.4375
 20
106.629378
 30
0.0
 11
173.125
 21
107.170644
 31
0.0
  0
LINE
  5
4E7
100
AcDbEntity
  8
0
 62
     0
100
AcDbLine
 10
172.5
 20
108.253175
 30
0.0
 11
172.1875
 21
108.794441
 31
0.0
  0
LINE
  5
4E8
100
AcDbEntity
  8
0
 62
     0
100
AcDbLine
 10
171.5625
 20
109.876973
 30
0.0
 11
171.25
 21
110.418239
 31
0.0
  0
LINE
  5
4E9
100
AcDbEntity
  8
0
 62
     0
100
AcDbLine
 10
170.625
 20
111.500771
 30
0.0
 11
170.3125
 21
112.042037
 31
0.0
  0
LINE
  5
4EA
100
AcDbEntity
  8
0
 62
     0
100
AcDbLine
 10
174.375
 20
107.170644
 30
0.0
 11
174.0625
 21
107.71191
 31
0.0
  0
LINE
  5
4EB
100
AcDbEntity
  8
0
 62
     0
100
AcDbLine
 10
173.4375
 20
108.794441
 30
0.0
 11
173.125
 21
109.335707
 31
0.0
  0
LINE
  5
4EC
100
AcDbEntity
  8
0
 62
     0
100
AcDbLine
 10
172.5
 20
110.418239
 30
0.0
 11
172.1875
 21
110.959505
 31
0.0
  0
LINE
  5
4ED
100
AcDbEntity
  8
0
 62
     0
100
AcDbLine
 10
171.5625
 20
112.042037
 30
0.0
 11
171.25
 21
112.583303
 31
0.0
  0
LINE
  5
4EE
100
AcDbEntity
  8
0
 62
     0
100
AcDbLine
 10
170.625
 20
113.665834
 30
0.0
 11
170.3125
 21
114.2071
 31
0.0
  0
LINE
  5
4EF
100
AcDbEntity
  8
0
 62
     0
100
AcDbLine
 10
174.375
 20
109.335707
 30
0.0
 11
174.0625
 21
109.876973
 31
0.0
  0
LINE
  5
4F0
100
AcDbEntity
  8
0
 62
     0
100
AcDbLine
 10
173.4375
 20
110.959505
 30
0.0
 11
173.125
 21
111.500771
 31
0.0
  0
LINE
  5
4F1
100
AcDbEntity
  8
0
 62
     0
100
AcDbLine
 10
172.5
 20
112.583303
 30
0.0
 11
172.1875
 21
113.124568
 31
0.0
  0
LINE
  5
4F2
100
AcDbEntity
  8
0
 62
     0
100
AcDbLine
 10
171.5625
 20
114.2071
 30
0.0
 11
171.25
 21
114.748366
 31
0.0
  0
LINE
  5
4F3
100
AcDbEntity
  8
0
 62
     0
100
AcDbLine
 10
170.625
 20
115.830898
 30
0.0
 11
170.527946
 21
115.999
 31
0.0
  0
LINE
  5
4F4
100
AcDbEntity
  8
0
 62
     0
100
AcDbLine
 10
174.375
 20
111.500771
 30
0.0
 11
174.0625
 21
112.042037
 31
0.0
  0
LINE
  5
4F5
100
AcDbEntity
  8
0
 62
     0
100
AcDbLine
 10
173.4375
 20
113.124568
 30
0.0
 11
173.125
 21
113.665834
 31
0.0
  0
LINE
  5
4F6
100
AcDbEntity
  8
0
 62
     0
100
AcDbLine
 10
172.5
 20
114.748366
 30
0.0
 11
172.1875
 21
115.289632
 31
0.0
  0
LINE
  5
4F7
100
AcDbEntity
  8
0
 62
     0
100
AcDbLine
 10
174.375
 20
113.665834
 30
0.0
 11
174.0625
 21
114.2071
 31
0.0
  0
LINE
  5
4F8
100
AcDbEntity
  8
0
 62
     0
100
AcDbLine
 10
173.4375
 20
115.289632
 30
0.0
 11
173.125
 21
115.830898
 31
0.0
  0
LINE
  5
4F9
100
AcDbEntity
  8
0
 62
     0
100
AcDbLine
 10
174.375
 20
115.830898
 30
0.0
 11
174.277946
 21
115.999
 31
0.0
  0
LINE
  5
4FA
100
AcDbEntity
  8
0
 62
     0
100
AcDbLine
 10
138.4375
 20
106.629378
 30
0.0
 11
138.75
 21
107.170644
 31
0.0
  0
LINE
  5
4FB
100
AcDbEntity
  8
0
 62
     0
100
AcDbLine
 10
136.823551
 20
105.999
 30
0.0
 11
136.875
 21
106.088112
 31
0.0
  0
LINE
  5
4FC
100
AcDbEntity
  8
0
 62
     0
100
AcDbLine
 10
137.5
 20
107.170644
 30
0.0
 11
137.8125
 21
107.71191
 31
0.0
  0
LINE
  5
4FD
100
AcDbEntity
  8
0
 62
     0
100
AcDbLine
 10
138.4375
 20
108.794441
 30
0.0
 11
138.75
 21
109.335707
 31
0.0
  0
LINE
  5
4FE
100
AcDbEntity
  8
0
 62
     0
100
AcDbLine
 10
135.625
 20
106.088112
 30
0.0
 11
135.9375
 21
106.629378
 31
0.0
  0
LINE
  5
4FF
100
AcDbEntity
  8
0
 62
     0
100
AcDbLine
 10
136.5625
 20
107.71191
 30
0.0
 11
136.875
 21
108.253175
 31
0.0
  0
LINE
  5
500
100
AcDbEntity
  8
0
 62
     0
100
AcDbLine
 10
137.5
 20
109.335707
 30
0.0
 11
137.8125
 21
109.876973
 31
0.0
  0
LINE
  5
501
100
AcDbEntity
  8
0
 62
     0
100
AcDbLine
 10
138.4375
 20
110.959505
 30
0.0
 11
138.75
 21
111.500771
 31
0.0
  0
LINE
  5
502
100
AcDbEntity
  8
0
 62
     0
100
AcDbLine
 10
134.6875
 20
106.629378
 30
0.0
 11
135.0
 21
107.170644
 31
0.0
  0
LINE
  5
503
100
AcDbEntity
  8
0
 62
     0
100
AcDbLine
 10
135.625
 20
108.253175
 30
0.0
 11
135.9375
 21
108.794441
 31
0.0
  0
LINE
  5
504
100
AcDbEntity
  8
0
 62
     0
100
AcDbLine
 10
136.5625
 20
109.876973
 30
0.0
 11
136.875
 21
110.418239
 31
0.0
  0
LINE
  5
505
100
AcDbEntity
  8
0
 62
     0
100
AcDbLine
 10
137.5
 20
111.500771
 30
0.0
 11
137.8125
 21
112.042037
 31
0.0
  0
LINE
  5
506
100
AcDbEntity
  8
0
 62
     0
100
AcDbLine
 10
138.4375
 20
113.124568
 30
0.0
 11
138.75
 21
113.665834
 31
0.0
  0
LINE
  5
507
100
AcDbEntity
  8
0
 62
     0
100
AcDbLine
 10
133.75
 20
107.170644
 30
0.0
 11
134.0625
 21
107.71191
 31
0.0
  0
LINE
  5
508
100
AcDbEntity
  8
0
 62
     0
100
AcDbLine
 10
134.6875
 20
108.794441
 30
0.0
 11
135.0
 21
109.335707
 31
0.0
  0
LINE
  5
509
100
AcDbEntity
  8
0
 62
     0
100
AcDbLine
 10
135.625
 20
110.418239
 30
0.0
 11
135.9375
 21
110.959505
 31
0.0
  0
LINE
  5
50A
100
AcDbEntity
  8
0
 62
     0
100
AcDbLine
 10
136.5625
 20
112.042037
 30
0.0
 11
136.875
 21
112.583302
 31
0.0
  0
LINE
  5
50B
100
AcDbEntity
  8
0
 62
     0
100
AcDbLine
 10
137.5
 20
113.665834
 30
0.0
 11
137.8125
 21
114.2071
 31
0.0
  0
LINE
  5
50C
100
AcDbEntity
  8
0
 62
     0
100
AcDbLine
 10
138.4375
 20
115.289632
 30
0.0
 11
138.75
 21
115.830898
 31
0.0
  0
LINE
  5
50D
100
AcDbEntity
  8
0
 62
     0
100
AcDbLine
 10
133.75
 20
109.335707
 30
0.0
 11
134.0625
 21
109.876973
 31
0.0
  0
LINE
  5
50E
100
AcDbEntity
  8
0
 62
     0
100
AcDbLine
 10
134.6875
 20
110.959505
 30
0.0
 11
135.0
 21
111.500771
 31
0.0
  0
LINE
  5
50F
100
AcDbEntity
  8
0
 62
     0
100
AcDbLine
 10
135.625
 20
112.583302
 30
0.0
 11
135.9375
 21
113.124568
 31
0.0
  0
LINE
  5
510
100
AcDbEntity
  8
0
 62
     0
100
AcDbLine
 10
136.5625
 20
114.2071
 30
0.0
 11
136.875
 21
114.748366
 31
0.0
  0
LINE
  5
511
100
AcDbEntity
  8
0
 62
     0
100
AcDbLine
 10
137.5
 20
115.830898
 30
0.0
 11
137.597054
 21
115.999
 31
0.0
  0
LINE
  5
512
100
AcDbEntity
  8
0
 62
     0
100
AcDbLine
 10
133.75
 20
111.500771
 30
0.0
 11
134.0625
 21
112.042037
 31
0.0
  0
LINE
  5
513
100
AcDbEntity
  8
0
 62
     0
100
AcDbLine
 10
134.6875
 20
113.124568
 30
0.0
 11
135.0
 21
113.665834
 31
0.0
  0
LINE
  5
514
100
AcDbEntity
  8
0
 62
     0
100
AcDbLine
 10
135.625
 20
114.748366
 30
0.0
 11
135.9375
 21
115.289632
 31
0.0
  0
LINE
  5
515
100
AcDbEntity
  8
0
 62
     0
100
AcDbLine
 10
133.75
 20
113.665834
 30
0.0
 11
134.0625
 21
114.2071
 31
0.0
  0
LINE
  5
516
100
AcDbEntity
  8
0
 62
     0
100
AcDbLine
 10
134.6875
 20
115.289632
 30
0.0
 11
135.0
 21
115.830898
 31
0.0
  0
LINE
  5
517
100
AcDbEntity
  8
0
 62
     0
100
AcDbLine
 10
133.75
 20
115.830898
 30
0.0
 11
133.847054
 21
115.999
 31
0.0
  0
LINE
  5
518
100
AcDbEntity
  8
0
 62
     0
100
AcDbLine
 10
170.3125
 20
114.2071
 30
0.0
 11
170.625
 21
114.748366
 31
0.0
  0
LINE
  5
519
100
AcDbEntity
  8
0
 62
     0
100
AcDbLine
 10
171.25
 20
115.830898
 30
0.0
 11
171.347054
 21
115.999
 31
0.0
  0
LINE
  5
51A
100
AcDbEntity
  8
0
 62
     0
100
AcDbLine
 10
170.3125
 20
112.042037
 30
0.0
 11
170.625
 21
112.583302
 31
0.0
  0
LINE
  5
51B
100
AcDbEntity
  8
0
 62
     0
100
AcDbLine
 10
171.25
 20
113.665834
 30
0.0
 11
171.5625
 21
114.2071
 31
0.0
  0
LINE
  5
51C
100
AcDbEntity
  8
0
 62
     0
100
AcDbLine
 10
172.1875
 20
115.289632
 30
0.0
 11
172.5
 21
115.830898
 31
0.0
  0
LINE
  5
51D
100
AcDbEntity
  8
0
 62
     0
100
AcDbLine
 10
170.3125
 20
109.876973
 30
0.0
 11
170.625
 21
110.418239
 31
0.0
  0
LINE
  5
51E
100
AcDbEntity
  8
0
 62
     0
100
AcDbLine
 10
171.25
 20
111.500771
 30
0.0
 11
171.5625
 21
112.042037
 31
0.0
  0
LINE
  5
51F
100
AcDbEntity
  8
0
 62
     0
100
AcDbLine
 10
172.1875
 20
113.124568
 30
0.0
 11
172.5
 21
113.665834
 31
0.0
  0
LINE
  5
520
100
AcDbEntity
  8
0
 62
     0
100
AcDbLine
 10
173.125
 20
114.748366
 30
0.0
 11
173.4375
 21
115.289632
 31
0.0
  0
LINE
  5
521
100
AcDbEntity
  8
0
 62
     0
100
AcDbLine
 10
170.3125
 20
107.71191
 30
0.0
 11
170.625
 21
108.253175
 31
0.0
  0
LINE
  5
522
100
AcDbEntity
  8
0
 62
     0
100
AcDbLine
 10
171.25
 20
109.335707
 30
0.0
 11
171.5625
 21
109.876973
 31
0.0
  0
LINE
  5
523
100
AcDbEntity
  8
0
 62
     0
100
AcDbLine
 10
172.1875
 20
110.959505
 30
0.0
 11
172.5
 21
111.500771
 31
0.0
  0
LINE
  5
524
100
AcDbEntity
  8
0
 62
     0
100
AcDbLine
 10
173.125
 20
112.583302
 30
0.0
 11
173.4375
 21
113.124568
 31
0.0
  0
LINE
  5
525
100
AcDbEntity
  8
0
 62
     0
100
AcDbLine
 10
174.0625
 20
114.2071
 30
0.0
 11
174.375
 21
114.748366
 31
0.0
  0
LINE
  5
526
100
AcDbEntity
  8
0
 62
     0
100
AcDbLine
 10
170.573551
 20
105.999
 30
0.0
 11
170.625
 21
106.088112
 31
0.0
  0
LINE
  5
527
100
AcDbEntity
  8
0
 62
     0
100
AcDbLine
 10
171.25
 20
107.170644
 30
0.0
 11
171.5625
 21
107.71191
 31
0.0
  0
LINE
  5
528
100
AcDbEntity
  8
0
 62
     0
100
AcDbLine
 10
172.1875
 20
108.794441
 30
0.0
 11
172.5
 21
109.335707
 31
0.0
  0
LINE
  5
529
100
AcDbEntity
  8
0
 62
     0
100
AcDbLine
 10
173.125
 20
110.418239
 30
0.0
 11
173.4375
 21
110.959505
 31
0.0
  0
LINE
  5
52A
100
AcDbEntity
  8
0
 62
     0
100
AcDbLine
 10
174.0625
 20
112.042037
 30
0.0
 11
174.375
 21
112.583302
 31
0.0
  0
LINE
  5
52B
100
AcDbEntity
  8
0
 62
     0
100
AcDbLine
 10
172.1875
 20
106.629378
 30
0.0
 11
172.5
 21
107.170644
 31
0.0
  0
LINE
  5
52C
100
AcDbEntity
  8
0
 62
     0
100
AcDbLine
 10
173.125
 20
108.253175
 30
0.0
 11
173.4375
 21
108.794441
 31
0.0
  0
LINE
  5
52D
100
AcDbEntity
  8
0
 62
     0
100
AcDbLine
 10
174.0625
 20
109.876973
 30
0.0
 11
174.375
 21
110.418239
 31
0.0
  0
LINE
  5
52E
100
AcDbEntity
  8
0
 62
     0
100
AcDbLine
 10
173.125
 20
106.088112
 30
0.0
 11
173.4375
 21
106.629378
 31
0.0
  0
LINE
  5
52F
100
AcDbEntity
  8
0
 62
     0
100
AcDbLine
 10
174.0625
 20
107.71191
 30
0.0
 11
174.375
 21
108.253175
 31
0.0
  0
LINE
  5
530
100
AcDbEntity
  8
0
 62
     0
100
AcDbLine
 10
174.323551
 20
105.999
 30
0.0
 11
174.375
 21
106.088112
 31
0.0
  0
ENDBLK
  5
532
100
AcDbEntity
  8
0
100
AcDbBlockEnd
  0
BLOCK
  5
631
100
AcDbEntity
  8
0
100
AcDbBlockBegin
  2
*X51
 70
     1
 10
0.0
 20
0.0
 30
0.0
  3
*X51
  1

  0
LINE
  5
5DC
100
AcDbEntity
  8
0
 62
     0
100
AcDbLine
 10
1299.375
 20
1016.497318
 30
0.0
 11
1300.0
 21
1016.497318
 31
0.0
  0
LINE
  5
5DD
100
AcDbEntity
  8
0
 62
     0
100
AcDbLine
 10
1301.25
 20
1016.497318
 30
0.0
 11
1301.875
 21
1016.497318
 31
0.0
  0
LINE
  5
5DE
100
AcDbEntity
  8
0
 62
     0
100
AcDbLine
 10
1303.125
 20
1016.497318
 30
0.0
 11
1303.75
 21
1016.497318
 31
0.0
  0
LINE
  5
5DF
100
AcDbEntity
  8
0
 62
     0
100
AcDbLine
 10
1305.0
 20
1016.497318
 30
0.0
 11
1305.625
 21
1016.497318
 31
0.0
  0
LINE
  5
5E0
100
AcDbEntity
  8
0
 62
     0
100
AcDbLine
 10
1306.875
 20
1016.497318
 30
0.0
 11
1307.5
 21
1016.497318
 31
0.0
  0
LINE
  5
5E1
100
AcDbEntity
  8
0
 62
     0
100
AcDbLine
 10
1308.75
 20
1016.497318
 30
0.0
 11
1309.001002
 21
1016.497318
 31
0.0
  0
LINE
  5
5E2
100
AcDbEntity
  8
0
 62
     0
100
AcDbLine
 10
1299.375
 20
1017.57985
 30
0.0
 11
1300.0
 21
1017.57985
 31
0.0
  0
LINE
  5
5E3
100
AcDbEntity
  8
0
 62
     0
100
AcDbLine
 10
1301.25
 20
1017.57985
 30
0.0
 11
1301.875
 21
1017.57985
 31
0.0
  0
LINE
  5
5E4
100
AcDbEntity
  8
0
 62
     0
100
AcDbLine
 10
1303.125
 20
1017.57985
 30
0.0
 11
1303.75
 21
1017.57985
 31
0.0
  0
LINE
  5
5E5
100
AcDbEntity
  8
0
 62
     0
100
AcDbLine
 10
1305.0
 20
1017.57985
 30
0.0
 11
1305.625
 21
1017.57985
 31
0.0
  0
LINE
  5
5E6
100
AcDbEntity
  8
0
 62
     0
100
AcDbLine
 10
1306.875
 20
1017.57985
 30
0.0
 11
1307.5
 21
1017.57985
 31
0.0
  0
LINE
  5
5E7
100
AcDbEntity
  8
0
 62
     0
100
AcDbLine
 10
1308.75
 20
1017.57985
 30
0.0
 11
1309.001002
 21
1017.57985
 31
0.0
  0
LINE
  5
5E8
100
AcDbEntity
  8
0
 62
     0
100
AcDbLine
 10
1299.375
 20
1018.662381
 30
0.0
 11
1300.0
 21
1018.662381
 31
0.0
  0
LINE
  5
5E9
100
AcDbEntity
  8
0
 62
     0
100
AcDbLine
 10
1301.25
 20
1018.662381
 30
0.0
 11
1301.875
 21
1018.662381
 31
0.0
  0
LINE
  5
5EA
100
AcDbEntity
  8
0
 62
     0
100
AcDbLine
 10
1303.125
 20
1018.662381
 30
0.0
 11
1303.75
 21
1018.662381
 31
0.0
  0
LINE
  5
5EB
100
AcDbEntity
  8
0
 62
     0
100
AcDbLine
 10
1305.0
 20
1018.662381
 30
0.0
 11
1305.625
 21
1018.662381
 31
0.0
  0
LINE
  5
5EC
100
AcDbEntity
  8
0
 62
     0
100
AcDbLine
 10
1306.875
 20
1018.662381
 30
0.0
 11
1307.5
 21
1018.662381
 31
0.0
  0
LINE
  5
5ED
100
AcDbEntity
  8
0
 62
     0
100
AcDbLine
 10
1308.75
 20
1018.662381
 30
0.0
 11
1309.001002
 21
1018.662381
 31
0.0
  0
LINE
  5
5EE
100
AcDbEntity
  8
0
 62
     0
100
AcDbLine
 10
1299.375
 20
1019.744913
 30
0.0
 11
1300.0
 21
1019.744913
 31
0.0
  0
LINE
  5
5EF
100
AcDbEntity
  8
0
 62
     0
100
AcDbLine
 10
1301.25
 20
1019.744913
 30
0.0
 11
1301.875
 21
1019.744913
 31
0.0
  0
LINE
  5
5F0
100
AcDbEntity
  8
0
 62
     0
100
AcDbLine
 10
1303.125
 20
1019.744913
 30
0.0
 11
1303.75
 21
1019.744913
 31
0.0
  0
LINE
  5
5F1
100
AcDbEntity
  8
0
 62
     0
100
AcDbLine
 10
1305.0
 20
1019.744913
 30
0.0
 11
1305.625
 21
1019.744913
 31
0.0
  0
LINE
  5
5F2
100
AcDbEntity
  8
0
 62
     0
100
AcDbLine
 10
1306.875
 20
1019.744913
 30
0.0
 11
1307.5
 21
1019.744913
 31
0.0
  0
LINE
  5
5F3
100
AcDbEntity
  8
0
 62
     0
100
AcDbLine
 10
1308.75
 20
1019.744913
 30
0.0
 11
1309.001002
 21
1019.744913
 31
0.0
  0
LINE
  5
5F4
100
AcDbEntity
  8
0
 62
     0
100
AcDbLine
 10
1299.375
 20
1015.414786
 30
0.0
 11
1300.0
 21
1015.414786
 31
0.0
  0
LINE
  5
5F5
100
AcDbEntity
  8
0
 62
     0
100
AcDbLine
 10
1301.25
 20
1015.414786
 30
0.0
 11
1301.875
 21
1015.414786
 31
0.0
  0
LINE
  5
5F6
100
AcDbEntity
  8
0
 62
     0
100
AcDbLine
 10
1303.125
 20
1015.414786
 30
0.0
 11
1303.75
 21
1015.414786
 31
0.0
  0
LINE
  5
5F7
100
AcDbEntity
  8
0
 62
     0
100
AcDbLine
 10
1305.0
 20
1015.414786
 30
0.0
 11
1305.625
 21
1015.414786
 31
0.0
  0
LINE
  5
5F8
100
AcDbEntity
  8
0
 62
     0
100
AcDbLine
 10
1306.875
 20
1015.414786
 30
0.0
 11
1307.5
 21
1015.414786
 31
0.0
  0
LINE
  5
5F9
100
AcDbEntity
  8
0
 62
     0
100
AcDbLine
 10
1308.75
 20
1015.414786
 30
0.0
 11
1309.001002
 21
1015.414786
 31
0.0
  0
LINE
  5
5FA
100
AcDbEntity
  8
0
 62
     0
100
AcDbLine
 10
1305.0
 20
1015.414786
 30
0.0
 11
1304.6875
 21
1015.956052
 31
0.0
  0
LINE
  5
5FB
100
AcDbEntity
  8
0
 62
     0
100
AcDbLine
 10
1304.0625
 20
1017.038584
 30
0.0
 11
1303.75
 21
1017.57985
 31
0.0
  0
LINE
  5
5FC
100
AcDbEntity
  8
0
 62
     0
100
AcDbLine
 10
1303.125
 20
1018.662381
 30
0.0
 11
1302.8125
 21
1019.203647
 31
0.0
  0
LINE
  5
5FD
100
AcDbEntity
  8
0
 62
     0
100
AcDbLine
 10
1303.989477
 20
1015.0
 30
0.0
 11
1303.75
 21
1015.414786
 31
0.0
  0
LINE
  5
5FE
100
AcDbEntity
  8
0
 62
     0
100
AcDbLine
 10
1303.125
 20
1016.497318
 30
0.0
 11
1302.8125
 21
1017.038584
 31
0.0
  0
LINE
  5
5FF
100
AcDbEntity
  8
0
 62
     0
100
AcDbLine
 10
1302.1875
 20
1018.121116
 30
0.0
 11
1301.875
 21
1018.662381
 31
0.0
  0
LINE
  5
600
100
AcDbEntity
  8
0
 62
     0
100
AcDbLine
 10
1301.25
 20
1019.744913
 30
0.0
 11
1301.102726
 21
1020.0
 31
0.0
  0
LINE
  5
601
100
AcDbEntity
  8
0
 62
     0
100
AcDbLine
 10
1302.1875
 20
1015.956052
 30
0.0
 11
1301.875
 21
1016.497318
 31
0.0
  0
LINE
  5
602
100
AcDbEntity
  8
0
 62
     0
100
AcDbLine
 10
1301.25
 20
1017.57985
 30
0.0
 11
1300.9375
 21
1018.121116
 31
0.0
  0
LINE
  5
603
100
AcDbEntity
  8
0
 62
     0
100
AcDbLine
 10
1300.3125
 20
1019.203647
 30
0.0
 11
1300.0
 21
1019.744913
 31
0.0
  0
LINE
  5
604
100
AcDbEntity
  8
0
 62
     0
100
AcDbLine
 10
1301.25
 20
1015.414786
 30
0.0
 11
1300.9375
 21
1015.956052
 31
0.0
  0
LINE
  5
605
100
AcDbEntity
  8
0
 62
     0
100
AcDbLine
 10
1300.3125
 20
1017.038584
 30
0.0
 11
1300.0
 21
1017.57985
 31
0.0
  0
LINE
  5
606
100
AcDbEntity
  8
0
 62
     0
100
AcDbLine
 10
1299.375
 20
1018.662381
 30
0.0
 11
1299.0625
 21
1019.203647
 31
0.0
  0
LINE
  5
607
100
AcDbEntity
  8
0
 62
     0
100
AcDbLine
 10
1300.239477
 20
1015.0
 30
0.0
 11
1300.0
 21
1015.414786
 31
0.0
  0
LINE
  5
608
100
AcDbEntity
  8
0
 62
     0
100
AcDbLine
 10
1299.375
 20
1016.497318
 30
0.0
 11
1299.0625
 21
1017.038584
 31
0.0
  0
LINE
  5
609
100
AcDbEntity
  8
0
 62
     0
100
AcDbLine
 10
1305.9375
 20
1015.956052
 30
0.0
 11
1305.625
 21
1016.497318
 31
0.0
  0
LINE
  5
60A
100
AcDbEntity
  8
0
 62
     0
100
AcDbLine
 10
1305.0
 20
1017.57985
 30
0.0
 11
1304.6875
 21
1018.121116
 31
0.0
  0
LINE
  5
60B
100
AcDbEntity
  8
0
 62
     0
100
AcDbLine
 10
1304.0625
 20
1019.203647
 30
0.0
 11
1303.75
 21
1019.744913
 31
0.0
  0
LINE
  5
60C
100
AcDbEntity
  8
0
 62
     0
100
AcDbLine
 10
1307.739477
 20
1015.0
 30
0.0
 11
1307.5
 21
1015.414786
 31
0.0
  0
LINE
  5
60D
100
AcDbEntity
  8
0
 62
     0
100
AcDbLine
 10
1306.875
 20
1016.497318
 30
0.0
 11
1306.5625
 21
1017.038584
 31
0.0
  0
LINE
  5
60E
100
AcDbEntity
  8
0
 62
     0
100
AcDbLine
 10
1305.9375
 20
1018.121116
 30
0.0
 11
1305.625
 21
1018.662381
 31
0.0
  0
LINE
  5
60F
100
AcDbEntity
  8
0
 62
     0
100
AcDbLine
 10
1305.0
 20
1019.744913
 30
0.0
 11
1304.852726
 21
1020.0
 31
0.0
  0
LINE
  5
610
100
AcDbEntity
  8
0
 62
     0
100
AcDbLine
 10
1308.75
 20
1015.414786
 30
0.0
 11
1308.4375
 21
1015.956052
 31
0.0
  0
LINE
  5
611
100
AcDbEntity
  8
0
 62
     0
100
AcDbLine
 10
1307.8125
 20
1017.038584
 30
0.0
 11
1307.5
 21
1017.57985
 31
0.0
  0
LINE
  5
612
100
AcDbEntity
  8
0
 62
     0
100
AcDbLine
 10
1306.875
 20
1018.662381
 30
0.0
 11
1306.5625
 21
1019.203647
 31
0.0
  0
LINE
  5
613
100
AcDbEntity
  8
0
 62
     0
100
AcDbLine
 10
1308.75
 20
1017.57985
 30
0.0
 11
1308.4375
 21
1018.121116
 31
0.0
  0
LINE
  5
614
100
AcDbEntity
  8
0
 62
     0
100
AcDbLine
 10
1307.8125
 20
1019.203647
 30
0.0
 11
1307.5
 21
1019.744913
 31
0.0
  0
LINE
  5
615
100
AcDbEntity
  8
0
 62
     0
100
AcDbLine
 10
1308.75
 20
1019.744913
 30
0.0
 11
1308.602726
 21
1020.0
 31
0.0
  0
LINE
  5
616
100
AcDbEntity
  8
0
 62
     0
100
AcDbLine
 10
1301.875
 20
1015.414786
 30
0.0
 11
1302.1875
 21
1015.956052
 31
0.0
  0
LINE
  5
617
100
AcDbEntity
  8
0
 62
     0
100
AcDbLine
 10
1302.8125
 20
1017.038583
 30
0.0
 11
1303.125
 21
1017.579849
 31
0.0
  0
LINE
  5
618
100
AcDbEntity
  8
0
 62
     0
100
AcDbLine
 10
1303.75
 20
1018.662381
 30
0.0
 11
1304.0625
 21
1019.203647
 31
0.0
  0
LINE
  5
619
100
AcDbEntity
  8
0
 62
     0
100
AcDbLine
 10
1300.9375
 20
1015.956052
 30
0.0
 11
1301.25
 21
1016.497318
 31
0.0
  0
LINE
  5
61A
100
AcDbEntity
  8
0
 62
     0
100
AcDbLine
 10
1301.875
 20
1017.579849
 30
0.0
 11
1302.1875
 21
1018.121115
 31
0.0
  0
LINE
  5
61B
100
AcDbEntity
  8
0
 62
     0
100
AcDbLine
 10
1302.8125
 20
1019.203647
 30
0.0
 11
1303.125
 21
1019.744913
 31
0.0
  0
LINE
  5
61C
100
AcDbEntity
  8
0
 62
     0
100
AcDbLine
 10
1299.135523
 20
1015.0
 30
0.0
 11
1299.375
 21
1015.414786
 31
0.0
  0
LINE
  5
61D
100
AcDbEntity
  8
0
 62
     0
100
AcDbLine
 10
1300.0
 20
1016.497318
 30
0.0
 11
1300.3125
 21
1017.038583
 31
0.0
  0
LINE
  5
61E
100
AcDbEntity
  8
0
 62
     0
100
AcDbLine
 10
1300.9375
 20
1018.121115
 30
0.0
 11
1301.25
 21
1018.662381
 31
0.0
  0
LINE
  5
61F
100
AcDbEntity
  8
0
 62
     0
100
AcDbLine
 10
1301.875
 20
1019.744913
 30
0.0
 11
1302.022275
 21
1020.0
 31
0.0
  0
LINE
  5
620
100
AcDbEntity
  8
0
 62
     0
100
AcDbLine
 10
1299.0625
 20
1017.038583
 30
0.0
 11
1299.375
 21
1017.579849
 31
0.0
  0
LINE
  5
621
100
AcDbEntity
  8
0
 62
     0
100
AcDbLine
 10
1300.0
 20
1018.662381
 30
0.0
 11
1300.3125
 21
1019.203647
 31
0.0
  0
LINE
  5
622
100
AcDbEntity
  8
0
 62
     0
100
AcDbLine
 10
1299.0625
 20
1019.203647
 30
0.0
 11
1299.375
 21
1019.744913
 31
0.0
  0
LINE
  5
623
100
AcDbEntity
  8
0
 62
     0
100
AcDbLine
 10
1302.885523
 20
1015.0
 30
0.0
 11
1303.125
 21
1015.414786
 31
0.0
  0
LINE
  5
624
100
AcDbEntity
  8
0
 62
     0
100
AcDbLine
 10
1303.75
 20
1016.497318
 30
0.0
 11
1304.0625
 21
1017.038583
 31
0.0
  0
LINE
  5
625
100
AcDbEntity
  8
0
 62
     0
100
AcDbLine
 10
1304.6875
 20
1018.121115
 30
0.0
 11
1305.0
 21
1018.662381
 31
0.0
  0
LINE
  5
626
100
AcDbEntity
  8
0
 62
     0
100
AcDbLine
 10
1305.625
 20
1019.744913
 30
0.0
 11
1305.772275
 21
1020.0
 31
0.0
  0
LINE
  5
627
100
AcDbEntity
  8
0
 62
     0
100
AcDbLine
 10
1304.6875
 20
1015.956052
 30
0.0
 11
1305.0
 21
1016.497318
 31
0.0
  0
LINE
  5
628
100
AcDbEntity
  8
0
 62
     0
100
AcDbLine
 10
1305.625
 20
1017.579849
 30
0.0
 11
1305.9375
 21
1018.121115
 31
0.0
  0
LINE
  5
629
100
AcDbEntity
  8
0
 62
     0
100
AcDbLine
 10
1306.5625
 20
1019.203647
 30
0.0
 11
1306.875
 21
1019.744913
 31
0.0
  0
LINE
  5
62A
100
AcDbEntity
  8
0
 62
     0
100
AcDbLine
 10
1305.625
 20
1015.414786
 30
0.0
 11
1305.9375
 21
1015.956052
 31
0.0
  0
LINE
  5
62B
100
AcDbEntity
  8
0
 62
     0
100
AcDbLine
 10
1306.5625
 20
1017.038583
 30
0.0
 11
1306.875
 21
1017.579849
 31
0.0
  0
LINE
  5
62C
100
AcDbEntity
  8
0
 62
     0
100
AcDbLine
 10
1307.5
 20
1018.662381
 30
0.0
 11
1307.8125
 21
1019.203647
 31
0.0
  0
LINE
  5
62D
100
AcDbEntity
  8
0
 62
     0
100
AcDbLine
 10
1306.635523
 20
1015.0
 30
0.0
 11
1306.875
 21
1015.414786
 31
0.0
  0
LINE
  5
62E
100
AcDbEntity
  8
0
 62
     0
100
AcDbLine
 10
1307.5
 20
1016.497318
 30
0.0
 11
1307.8125
 21
1017.038583
 31
0.0
  0
LINE
  5
62F
100
AcDbEntity
  8
0
 62
     0
100
AcDbLine
 10
1308.4375
 20
1018.121115
 30
0.0
 11
1308.75
 21
1018.662381
 31
0.0
  0
LINE
  5
630
100
AcDbEntity
  8
0
 62
     0
100
AcDbLine
 10
1308.4375
 20
1015.956052
 30
0.0
 11
1308.75
 21
1016.497318
 31
0.0
  0
ENDBLK
  5
632
100
AcDbEntity
  8
0
100
AcDbBlockEnd
  0
BLOCK
  5
68F
100
AcDbEntity
  8
0
100
AcDbBlockBegin
  2
*X52
 70
     1
 10
0.0
 20
0.0
 30
0.0
  3
*X52
  1

  0
LINE
  5
634
100
AcDbEntity
  8
0
 62
     0
100
AcDbLine
 10
1299.375
 20
986.186429
 30
0.0
 11
1300.0
 21
986.186429
 31
0.0
  0
LINE
  5
635
100
AcDbEntity
  8
0
 62
     0
100
AcDbLine
 10
1301.25
 20
986.186429
 30
0.0
 11
1301.875
 21
986.186429
 31
0.0
  0
LINE
  5
636
100
AcDbEntity
  8
0
 62
     0
100
AcDbLine
 10
1303.125
 20
986.186429
 30
0.0
 11
1303.75
 21
986.186429
 31
0.0
  0
LINE
  5
637
100
AcDbEntity
  8
0
 62
     0
100
AcDbLine
 10
1305.0
 20
986.186429
 30
0.0
 11
1305.625
 21
986.186429
 31
0.0
  0
LINE
  5
638
100
AcDbEntity
  8
0
 62
     0
100
AcDbLine
 10
1306.875
 20
986.186429
 30
0.0
 11
1307.5
 21
986.186429
 31
0.0
  0
LINE
  5
639
100
AcDbEntity
  8
0
 62
     0
100
AcDbLine
 10
1308.75
 20
986.186429
 30
0.0
 11
1309.001002
 21
986.186429
 31
0.0
  0
LINE
  5
63A
100
AcDbEntity
  8
0
 62
     0
100
AcDbLine
 10
1299.375
 20
987.268961
 30
0.0
 11
1300.0
 21
987.268961
 31
0.0
  0
LINE
  5
63B
100
AcDbEntity
  8
0
 62
     0
100
AcDbLine
 10
1301.25
 20
987.268961
 30
0.0
 11
1301.875
 21
987.268961
 31
0.0
  0
LINE
  5
63C
100
AcDbEntity
  8
0
 62
     0
100
AcDbLine
 10
1303.125
 20
987.268961
 30
0.0
 11
1303.75
 21
987.268961
 31
0.0
  0
LINE
  5
63D
100
AcDbEntity
  8
0
 62
     0
100
AcDbLine
 10
1305.0
 20
987.268961
 30
0.0
 11
1305.625
 21
987.268961
 31
0.0
  0
LINE
  5
63E
100
AcDbEntity
  8
0
 62
     0
100
AcDbLine
 10
1306.875
 20
987.268961
 30
0.0
 11
1307.5
 21
987.268961
 31
0.0
  0
LINE
  5
63F
100
AcDbEntity
  8
0
 62
     0
100
AcDbLine
 10
1308.75
 20
987.268961
 30
0.0
 11
1309.001002
 21
987.268961
 31
0.0
  0
LINE
  5
640
100
AcDbEntity
  8
0
 62
     0
100
AcDbLine
 10
1299.375
 20
988.351492
 30
0.0
 11
1300.0
 21
988.351492
 31
0.0
  0
LINE
  5
641
100
AcDbEntity
  8
0
 62
     0
100
AcDbLine
 10
1301.25
 20
988.351492
 30
0.0
 11
1301.875
 21
988.351492
 31
0.0
  0
LINE
  5
642
100
AcDbEntity
  8
0
 62
     0
100
AcDbLine
 10
1303.125
 20
988.351492
 30
0.0
 11
1303.75
 21
988.351492
 31
0.0
  0
LINE
  5
643
100
AcDbEntity
  8
0
 62
     0
100
AcDbLine
 10
1305.0
 20
988.351492
 30
0.0
 11
1305.625
 21
988.351492
 31
0.0
  0
LINE
  5
644
100
AcDbEntity
  8
0
 62
     0
100
AcDbLine
 10
1306.875
 20
988.351492
 30
0.0
 11
1307.5
 21
988.351492
 31
0.0
  0
LINE
  5
645
100
AcDbEntity
  8
0
 62
     0
100
AcDbLine
 10
1308.75
 20
988.351492
 30
0.0
 11
1309.001002
 21
988.351492
 31
0.0
  0
LINE
  5
646
100
AcDbEntity
  8
0
 62
     0
100
AcDbLine
 10
1299.375
 20
985.103897
 30
0.0
 11
1300.0
 21
985.103897
 31
0.0
  0
LINE
  5
647
100
AcDbEntity
  8
0
 62
     0
100
AcDbLine
 10
1301.25
 20
985.103897
 30
0.0
 11
1301.875
 21
985.103897
 31
0.0
  0
LINE
  5
648
100
AcDbEntity
  8
0
 62
     0
100
AcDbLine
 10
1303.125
 20
985.103897
 30
0.0
 11
1303.75
 21
985.103897
 31
0.0
  0
LINE
  5
649
100
AcDbEntity
  8
0
 62
     0
100
AcDbLine
 10
1305.0
 20
985.103897
 30
0.0
 11
1305.625
 21
985.103897
 31
0.0
  0
LINE
  5
64A
100
AcDbEntity
  8
0
 62
     0
100
AcDbLine
 10
1306.875
 20
985.103897
 30
0.0
 11
1307.5
 21
985.103897
 31
0.0
  0
LINE
  5
64B
100
AcDbEntity
  8
0
 62
     0
100
AcDbLine
 10
1308.75
 20
985.103897
 30
0.0
 11
1309.001002
 21
985.103897
 31
0.0
  0
LINE
  5
64C
100
AcDbEntity
  8
0
 62
     0
100
AcDbLine
 10
1299.375
 20
984.021365
 30
0.0
 11
1300.0
 21
984.021365
 31
0.0
  0
LINE
  5
64D
100
AcDbEntity
  8
0
 62
     0
100
AcDbLine
 10
1301.25
 20
984.021365
 30
0.0
 11
1301.875
 21
984.021365
 31
0.0
  0
LINE
  5
64E
100
AcDbEntity
  8
0
 62
     0
100
AcDbLine
 10
1303.125
 20
984.021365
 30
0.0
 11
1303.75
 21
984.021365
 31
0.0
  0
LINE
  5
64F
100
AcDbEntity
  8
0
 62
     0
100
AcDbLine
 10
1305.0
 20
984.021365
 30
0.0
 11
1305.625
 21
984.021365
 31
0.0
  0
LINE
  5
650
100
AcDbEntity
  8
0
 62
     0
100
AcDbLine
 10
1306.875
 20
984.021365
 30
0.0
 11
1307.5
 21
984.021365
 31
0.0
  0
LINE
  5
651
100
AcDbEntity
  8
0
 62
     0
100
AcDbLine
 10
1308.75
 20
984.021365
 30
0.0
 11
1309.001002
 21
984.021365
 31
0.0
  0
LINE
  5
652
100
AcDbEntity
  8
0
 62
     0
100
AcDbLine
 10
1304.0625
 20
984.562631
 30
0.0
 11
1303.75
 21
985.103897
 31
0.0
  0
LINE
  5
653
100
AcDbEntity
  8
0
 62
     0
100
AcDbLine
 10
1303.125
 20
986.186429
 30
0.0
 11
1302.8125
 21
986.727695
 31
0.0
  0
LINE
  5
654
100
AcDbEntity
  8
0
 62
     0
100
AcDbLine
 10
1302.1875
 20
987.810226
 30
0.0
 11
1301.875
 21
988.351492
 31
0.0
  0
LINE
  5
655
100
AcDbEntity
  8
0
 62
     0
100
AcDbLine
 10
1303.125
 20
984.021365
 30
0.0
 11
1302.8125
 21
984.562631
 31
0.0
  0
LINE
  5
656
100
AcDbEntity
  8
0
 62
     0
100
AcDbLine
 10
1302.1875
 20
985.645163
 30
0.0
 11
1301.875
 21
986.186429
 31
0.0
  0
LINE
  5
657
100
AcDbEntity
  8
0
 62
     0
100
AcDbLine
 10
1301.25
 20
987.268961
 30
0.0
 11
1300.9375
 21
987.810226
 31
0.0
  0
LINE
  5
658
100
AcDbEntity
  8
0
 62
     0
100
AcDbLine
 10
1300.3125
 20
988.892758
 30
0.0
 11
1300.250584
 21
989.0
 31
0.0
  0
LINE
  5
659
100
AcDbEntity
  8
0
 62
     0
100
AcDbLine
 10
1302.118276
 20
983.6
 30
0.0
 11
1301.875
 21
984.021365
 31
0.0
  0
LINE
  5
65A
100
AcDbEntity
  8
0
 62
     0
100
AcDbLine
 10
1301.25
 20
985.103897
 30
0.0
 11
1300.9375
 21
985.645163
 31
0.0
  0
LINE
  5
65B
100
AcDbEntity
  8
0
 62
     0
100
AcDbLine
 10
1300.3125
 20
986.727695
 30
0.0
 11
1300.0
 21
987.268961
 31
0.0
  0
LINE
  5
65C
100
AcDbEntity
  8
0
 62
     0
100
AcDbLine
 10
1299.375
 20
988.351492
 30
0.0
 11
1299.0625
 21
988.892758
 31
0.0
  0
LINE
  5
65D
100
AcDbEntity
  8
0
 62
     0
100
AcDbLine
 10
1300.3125
 20
984.562631
 30
0.0
 11
1300.0
 21
985.103897
 31
0.0
  0
LINE
  5
65E
100
AcDbEntity
  8
0
 62
     0
100
AcDbLine
 10
1299.375
 20
986.186429
 30
0.0
 11
1299.0625
 21
986.727695
 31
0.0
  0
LINE
  5
65F
100
AcDbEntity
  8
0
 62
     0
100
AcDbLine
 10
1299.375
 20
984.021365
 30
0.0
 11
1299.0625
 21
984.562631
 31
0.0
  0
LINE
  5
660
100
AcDbEntity
  8
0
 62
     0
100
AcDbLine
 10
1305.868276
 20
983.6
 30
0.0
 11
1305.625
 21
984.021365
 31
0.0
  0
LINE
  5
661
100
AcDbEntity
  8
0
 62
     0
100
AcDbLine
 10
1305.0
 20
985.103897
 30
0.0
 11
1304.6875
 21
985.645163
 31
0.0
  0
LINE
  5
662
100
AcDbEntity
  8
0
 62
     0
100
AcDbLine
 10
1304.0625
 20
986.727695
 30
0.0
 11
1303.75
 21
987.268961
 31
0.0
  0
LINE
  5
663
100
AcDbEntity
  8
0
 62
     0
100
AcDbLine
 10
1303.125
 20
988.351492
 30
0.0
 11
1302.8125
 21
988.892758
 31
0.0
  0
LINE
  5
664
100
AcDbEntity
  8
0
 62
     0
100
AcDbLine
 10
1306.875
 20
984.021365
 30
0.0
 11
1306.5625
 21
984.562631
 31
0.0
  0
LINE
  5
665
100
AcDbEntity
  8
0
 62
     0
100
AcDbLine
 10
1305.9375
 20
985.645163
 30
0.0
 11
1305.625
 21
986.186429
 31
0.0
  0
LINE
  5
666
100
AcDbEntity
  8
0
 62
     0
100
AcDbLine
 10
1305.0
 20
987.268961
 30
0.0
 11
1304.6875
 21
987.810226
 31
0.0
  0
LINE
  5
667
100
AcDbEntity
  8
0
 62
     0
100
AcDbLine
 10
1304.0625
 20
988.892758
 30
0.0
 11
1304.000584
 21
989.0
 31
0.0
  0
LINE
  5
668
100
AcDbEntity
  8
0
 62
     0
100
AcDbLine
 10
1307.8125
 20
984.562631
 30
0.0
 11
1307.5
 21
985.103897
 31
0.0
  0
LINE
  5
669
100
AcDbEntity
  8
0
 62
     0
100
AcDbLine
 10
1306.875
 20
986.186429
 30
0.0
 11
1306.5625
 21
986.727695
 31
0.0
  0
LINE
  5
66A
100
AcDbEntity
  8
0
 62
     0
100
AcDbLine
 10
1305.9375
 20
987.810226
 30
0.0
 11
1305.625
 21
988.351492
 31
0.0
  0
LINE
  5
66B
100
AcDbEntity
  8
0
 62
     0
100
AcDbLine
 10
1308.75
 20
985.103897
 30
0.0
 11
1308.4375
 21
985.645163
 31
0.0
  0
LINE
  5
66C
100
AcDbEntity
  8
0
 62
     0
100
AcDbLine
 10
1307.8125
 20
986.727695
 30
0.0
 11
1307.5
 21
987.268961
 31
0.0
  0
LINE
  5
66D
100
AcDbEntity
  8
0
 62
     0
100
AcDbLine
 10
1306.875
 20
988.351492
 30
0.0
 11
1306.5625
 21
988.892758
 31
0.0
  0
LINE
  5
66E
100
AcDbEntity
  8
0
 62
     0
100
AcDbLine
 10
1308.75
 20
987.268961
 30
0.0
 11
1308.4375
 21
987.810226
 31
0.0
  0
LINE
  5
66F
100
AcDbEntity
  8
0
 62
     0
100
AcDbLine
 10
1307.8125
 20
988.892758
 30
0.0
 11
1307.750584
 21
989.0
 31
0.0
  0
LINE
  5
670
100
AcDbEntity
  8
0
 62
     0
100
AcDbLine
 10
1302.8125
 20
984.562631
 30
0.0
 11
1303.125
 21
985.103897
 31
0.0
  0
LINE
  5
671
100
AcDbEntity
  8
0
 62
     0
100
AcDbLine
 10
1303.75
 20
986.186428
 30
0.0
 11
1304.0625
 21
986.727694
 31
0.0
  0
LINE
  5
672
100
AcDbEntity
  8
0
 62
     0
100
AcDbLine
 10
1304.6875
 20
987.810226
 30
0.0
 11
1305.0
 21
988.351492
 31
0.0
  0
LINE
  5
673
100
AcDbEntity
  8
0
 62
     0
100
AcDbLine
 10
1301.006725
 20
983.6
 30
0.0
 11
1301.25
 21
984.021365
 31
0.0
  0
LINE
  5
674
100
AcDbEntity
  8
0
 62
     0
100
AcDbLine
 10
1301.875
 20
985.103897
 30
0.0
 11
1302.1875
 21
985.645163
 31
0.0
  0
LINE
  5
675
100
AcDbEntity
  8
0
 62
     0
100
AcDbLine
 10
1302.8125
 20
986.727694
 30
0.0
 11
1303.125
 21
987.26896
 31
0.0
  0
LINE
  5
676
100
AcDbEntity
  8
0
 62
     0
100
AcDbLine
 10
1303.75
 20
988.351492
 30
0.0
 11
1304.0625
 21
988.892758
 31
0.0
  0
LINE
  5
677
100
AcDbEntity
  8
0
 62
     0
100
AcDbLine
 10
1300.0
 20
984.021365
 30
0.0
 11
1300.3125
 21
984.562631
 31
0.0
  0
LINE
  5
678
100
AcDbEntity
  8
0
 62
     0
100
AcDbLine
 10
1300.9375
 20
985.645163
 30
0.0
 11
1301.25
 21
986.186428
 31
0.0
  0
LINE
  5
679
100
AcDbEntity
  8
0
 62
     0
100
AcDbLine
 10
1301.875
 20
987.26896
 30
0.0
 11
1302.1875
 21
987.810226
 31
0.0
  0
LINE
  5
67A
100
AcDbEntity
  8
0
 62
     0
100
AcDbLine
 10
1302.8125
 20
988.892758
 30
0.0
 11
1302.874416
 21
989.0
 31
0.0
  0
LINE
  5
67B
100
AcDbEntity
  8
0
 62
     0
100
AcDbLine
 10
1299.0625
 20
984.562631
 30
0.0
 11
1299.375
 21
985.103897
 31
0.0
  0
LINE
  5
67C
100
AcDbEntity
  8
0
 62
     0
100
AcDbLine
 10
1300.0
 20
986.186428
 30
0.0
 11
1300.3125
 21
986.727694
 31
0.0
  0
LINE
  5
67D
100
AcDbEntity
  8
0
 62
     0
100
AcDbLine
 10
1300.9375
 20
987.810226
 30
0.0
 11
1301.25
 21
988.351492
 31
0.0
  0
LINE
  5
67E
100
AcDbEntity
  8
0
 62
     0
100
AcDbLine
 10
1299.0625
 20
986.727694
 30
0.0
 11
1299.375
 21
987.26896
 31
0.0
  0
LINE
  5
67F
100
AcDbEntity
  8
0
 62
     0
100
AcDbLine
 10
1300.0
 20
988.351492
 30
0.0
 11
1300.3125
 21
988.892758
 31
0.0
  0
LINE
  5
680
100
AcDbEntity
  8
0
 62
     0
100
AcDbLine
 10
1299.0625
 20
988.892758
 30
0.0
 11
1299.124416
 21
989.0
 31
0.0
  0
LINE
  5
681
100
AcDbEntity
  8
0
 62
     0
100
AcDbLine
 10
1303.75
 20
984.021365
 30
0.0
 11
1304.0625
 21
984.562631
 31
0.0
  0
LINE
  5
682
100
AcDbEntity
  8
0
 62
     0
100
AcDbLine
 10
1304.6875
 20
985.645163
 30
0.0
 11
1305.0
 21
986.186428
 31
0.0
  0
LINE
  5
683
100
AcDbEntity
  8
0
 62
     0
100
AcDbLine
 10
1305.625
 20
987.26896
 30
0.0
 11
1305.9375
 21
987.810226
 31
0.0
  0
LINE
  5
684
100
AcDbEntity
  8
0
 62
     0
100
AcDbLine
 10
1306.5625
 20
988.892758
 30
0.0
 11
1306.624416
 21
989.0
 31
0.0
  0
LINE
  5
685
100
AcDbEntity
  8
0
 62
     0
100
AcDbLine
 10
1304.756725
 20
983.6
 30
0.0
 11
1305.0
 21
984.021365
 31
0.0
  0
LINE
  5
686
100
AcDbEntity
  8
0
 62
     0
100
AcDbLine
 10
1305.625
 20
985.103897
 30
0.0
 11
1305.9375
 21
985.645163
 31
0.0
  0
LINE
  5
687
100
AcDbEntity
  8
0
 62
     0
100
AcDbLine
 10
1306.5625
 20
986.727694
 30
0.0
 11
1306.875
 21
987.26896
 31
0.0
  0
LINE
  5
688
100
AcDbEntity
  8
0
 62
     0
100
AcDbLine
 10
1307.5
 20
988.351492
 30
0.0
 11
1307.8125
 21
988.892758
 31
0.0
  0
LINE
  5
689
100
AcDbEntity
  8
0
 62
     0
100
AcDbLine
 10
1306.5625
 20
984.562631
 30
0.0
 11
1306.875
 21
985.103897
 31
0.0
  0
LINE
  5
68A
100
AcDbEntity
  8
0
 62
     0
100
AcDbLine
 10
1307.5
 20
986.186428
 30
0.0
 11
1307.8125
 21
986.727694
 31
0.0
  0
LINE
  5
68B
100
AcDbEntity
  8
0
 62
     0
100
AcDbLine
 10
1308.4375
 20
987.810226
 30
0.0
 11
1308.75
 21
988.351492
 31
0.0
  0
LINE
  5
68C
100
AcDbEntity
  8
0
 62
     0
100
AcDbLine
 10
1307.5
 20
984.021365
 30
0.0
 11
1307.8125
 21
984.562631
 31
0.0
  0
LINE
  5
68D
100
AcDbEntity
  8
0
 62
     0
100
AcDbLine
 10
1308.4375
 20
985.645163
 30
0.0
 11
1308.75
 21
986.186428
 31
0.0
  0
LINE
  5
68E
100
AcDbEntity
  8
0
 62
     0
100
AcDbLine
 10
1308.506725
 20
983.6
 30
0.0
 11
1308.75
 21
984.021365
 31
0.0
  0
ENDBLK
  5
690
100
AcDbEntity
  8
0
100
AcDbBlockEnd
  0
BLOCK
  5
6B3
100
AcDbEntity
  8
0
100
AcDbBlockBegin
  2
GLAS26-5DK
 70
     0
 10
0.0
 20
0.0
 30
0.0
  3
GLAS26-5DK
  1

  0
LINE
  5
692
100
AcDbEntity
  8
GLAS_MED_FOGNING
100
AcDbLine
 10
-30.0
 20
62.499998
 30
0.0
 11
-30.0
 21
29.999998
 31
0.0
  0
LINE
  5
693
100
AcDbEntity
  8
GLAS_MED_FOGNING
100
AcDbLine
 10
-31.0
 20
62.499998
 30
0.0
 11
-31.0
 21
29.999998
 31
0.0
  0
LINE
  5
694
100
AcDbEntity
  8
GLAS_MED_FOGNING
100
AcDbLine
 10
-32.0
 20
62.499998
 30
0.0
 11
-32.0
 21
29.999998
 31
0.0
  0
LINE
  5
695
100
AcDbEntity
  8
GLAS_MED_FOGNING
100
AcDbLine
 10
-43.5
 20
62.499998
 30
0.0
 11
-43.5
 21
29.999998
 31
0.0
  0
LINE
  5
696
100
AcDbEntity
  8
GLAS_MED_FOGNING
100
AcDbLine
 10
-42.5
 20
62.499998
 30
0.0
 11
-42.5
 21
29.999998
 31
0.0
  0
LINE
  5
697
100
AcDbEntity
  8
GLAS_MED_FOGNING
100
AcDbLine
 10
-44.5
 20
62.499998
 30
0.0
 11
-44.5
 21
29.999998
 31
0.0
  0
LINE
  5
698
100
AcDbEntity
  8
GLAS_MED_FOGNING
100
AcDbLine
 10
-56.0
 20
62.499998
 30
0.0
 11
-56.0
 21
29.999998
 31
0.0
  0
LINE
  5
699
100
AcDbEntity
  8
GLAS_MED_FOGNING
100
AcDbLine
 10
-55.0
 20
62.499998
 30
0.0
 11
-55.0
 21
29.999998
 31
0.0
  0
LINE
  5
69A
100
AcDbEntity
  8
GLAS_MED_FOGNING
100
AcDbLine
 10
-54.0
 20
62.499998
 30
0.0
 11
-54.0
 21
29.999998
 31
0.0
  0
INSERT
  5
69B
100
AcDbEntity
  8
GLAS_MED_FOGNING
100
AcDbBlockReference
  2
*X52
 10
-1045.0
 20
1340.0
 30
0.0
 50
270.0
1001
ACAD
1000
HATCH
1002
{
1070
    16
1000
HEX
1040
5.0
1040
0.0
1002
}
  0
LINE
  5
69C
100
AcDbEntity
  8
GLAS_MED_FOGNING
100
AcDbLine
 10
-56.0
 20
40.998998
 30
0.0
 11
-61.4
 21
40.998998
 31
0.0
  0
LINE
  5
69D
100
AcDbEntity
  8
GLAS_MED_FOGNING
100
AcDbLine
 10
-56.0
 20
30.998998
 30
0.0
 11
-61.4
 21
30.998998
 31
0.0
  0
LINE
  5
69E
100
AcDbEntity
  8
GLAS_MED_FOGNING
100
AcDbLine
 10
-61.4
 20
40.998998
 30
0.0
 11
-61.4
 21
30.998998
 31
0.0
  0
LINE
  5
69F
100
AcDbEntity
  8
GLAS_MED_FOGNING
100
AcDbLine
 10
-42.5
 20
37.848933
 30
0.0
 11
-32.0
 21
29.999998
 31
0.0
  0
LINE
  5
6A0
100
AcDbEntity
  8
GLAS_MED_FOGNING
100
AcDbLine
 10
-32.0
 20
37.848933
 30
0.0
 11
-42.5
 21
29.999998
 31
0.0
  0
LINE
  5
6A1
100
AcDbEntity
  8
GLAS_MED_FOGNING
100
AcDbLine
 10
-54.0
 20
37.848933
 30
0.0
 11
-44.5
 21
29.999998
 31
0.0
  0
LINE
  5
6A2
100
AcDbEntity
  8
GLAS_MED_FOGNING
100
AcDbLine
 10
-44.5
 20
37.848933
 30
0.0
 11
-54.0
 21
29.999998
 31
0.0
  0
LINE
  5
6A3
100
AcDbEntity
  8
GLAS_MED_FOGNING
100
AcDbLine
 10
-56.0
 20
29.999998
 30
0.0
 11
-56.0
 21
30.999998
 31
0.0
  0
LINE
  5
6A4
100
AcDbEntity
  8
GLAS_MED_FOGNING
100
AcDbLine
 10
-30.0
 20
29.999998
 30
0.0
 11
-30.0
 21
30.998998
 31
0.0
  0
LINE
  5
6A5
100
AcDbEntity
  8
GLAS_MED_FOGNING
100
AcDbLine
 10
-30.0
 20
25.0
 30
0.0
 11
-56.0
 21
29.999998
 31
0.0
  0
LINE
  5
6A6
100
AcDbEntity
  8
GLAS_MED_FOGNING
100
AcDbLine
 10
-56.0
 20
25.0
 30
0.0
 11
-30.0
 21
30.0
 31
0.0
  0
LINE
  5
6A7
100
AcDbEntity
  8
GLAS_MED_FOGNING
100
AcDbLine
 10
-30.0
 20
29.999998
 30
0.0
 11
-56.0
 21
29.999998
 31
0.0
  0
LINE
  5
6A8
100
AcDbEntity
  8
GLAS_MED_FOGNING
100
AcDbLine
 10
-56.0
 20
29.999998
 30
0.0
 11
-56.0
 21
25.0
 31
0.0
  0
LINE
  5
6A9
100
AcDbEntity
  8
GLAS_MED_FOGNING
100
AcDbLine
 10
-30.0
 20
25.0
 30
0.0
 11
-30.0
 21
30.0
 31
0.0
  0
LINE
  5
6AA
100
AcDbEntity
  8
GLAS_MED_FOGNING
100
AcDbLine
 10
-42.5
 20
37.848933
 30
0.0
 11
-32.0
 21
37.848933
 31
0.0
  0
LINE
  5
6AB
100
AcDbEntity
  8
GLAS_MED_FOGNING
100
AcDbLine
 10
-54.0
 20
37.848933
 30
0.0
 11
-44.5
 21
37.848933
 31
0.0
  0
LINE
  5
6AC
100
AcDbEntity
  8
GLAS_MED_FOGNING
100
AcDbLine
 10
-30.0
 20
40.998998
 30
0.0
 11
-30.0
 21
30.998998
 31
0.0
  0
LINE
  5
6AD
100
AcDbEntity
  8
GLAS_MED_FOGNING
100
AcDbLine
 10
-25.0
 20
40.998998
 30
0.0
 11
-25.0
 21
30.998998
 31
0.0
  0
INSERT
  5
6AE
100
AcDbEntity
  8
GLAS_MED_FOGNING
100
AcDbBlockReference
  2
*X51
 10
-1045.0
 20
1340.0
 30
0.0
 50
270.0
1001
ACAD
1000
HATCH
1002
{
1070
    16
1000
HEX
1040
5.0
1040
0.0
1002
}
  0
LINE
  5
6AF
100
AcDbEntity
  8
GLAS_MED_FOGNING
100
AcDbLine
 10
-25.0
 20
40.998998
 30
0.0
 11
-30.0
 21
40.998998
 31
0.0
  0
LINE
  5
6B0
100
AcDbEntity
  8
GLAS_MED_FOGNING
100
AcDbLine
 10
-25.0
 20
30.998998
 30
0.0
 11
-30.0
 21
30.998998
 31
0.0
  0
LINE
  5
6B1
100
AcDbEntity
  8
CENTRUM
100
AcDbLine
 10
0.0
 20
62.499998
 30
0.0
 11
-65.0
 21
62.499998
 31
0.0
  0
LINE
  5
6B2
100
AcDbEntity
  8
GLAS_MED_FOGNING
100
AcDbLine
 10
-56.0
 20
25.0
 30
0.0
 11
-30.0
 21
25.0
 31
0.0
  0
ENDBLK
  5
6B4
100
AcDbEntity
  8
0
100
AcDbBlockEnd
  0
BLOCK
  5
6D3
100
AcDbEntity
  8
0
100
AcDbBlockBegin
  2
65_SP42520TRI
 70
     0
 10
0.0
 20
0.0
 30
0.0
  3
65_SP42520TRI
  1

  0
LINE
  5
6B6
100
AcDbEntity
  8
GLAS_MED_FOGNING
100
AcDbLine
 10
-30.0
 20
62.499998
 30
0.0
 11
-30.0
 21
29.999998
 31
0.0
  0
LINE
  5
6B7
100
AcDbEntity
  8
GLAS_MED_FOGNING
100
AcDbLine
 10
-31.0
 20
62.499998
 30
0.0
 11
-31.0
 21
29.999998
 31
0.0
  0
LINE
  5
6B8
100
AcDbEntity
  8
GLAS_MED_FOGNING
100
AcDbLine
 10
-32.0
 20
62.499998
 30
0.0
 11
-32.0
 21
29.999998
 31
0.0
  0
LINE
  5
6B9
100
AcDbEntity
  8
GLAS_MED_FOGNING
100
AcDbLine
 10
-43.5
 20
62.499998
 30
0.0
 11
-43.5
 21
29.999998
 31
0.0
  0
LINE
  5
6BA
100
AcDbEntity
  8
GLAS_MED_FOGNING
100
AcDbLine
 10
-42.5
 20
62.499998
 30
0.0
 11
-42.5
 21
29.999998
 31
0.0
  0
LINE
  5
6BB
100
AcDbEntity
  8
GLAS_MED_FOGNING
100
AcDbLine
 10
-44.5
 20
62.499998
 30
0.0
 11
-44.5
 21
29.999998
 31
0.0
  0
LINE
  5
6BC
100
AcDbEntity
  8
GLAS_MED_FOGNING
100
AcDbLine
 10
-56.0
 20
62.499998
 30
0.0
 11
-56.0
 21
29.999998
 31
0.0
  0
LINE
  5
6BD
100
AcDbEntity
  8
GLAS_MED_FOGNING
100
AcDbLine
 10
-55.0
 20
62.499998
 30
0.0
 11
-55.0
 21
29.999998
 31
0.0
  0
LINE
  5
6BE
100
AcDbEntity
  8
GLAS_MED_FOGNING
100
AcDbLine
 10
-54.0
 20
62.499998
 30
0.0
 11
-54.0
 21
29.999998
 31
0.0
  0
INSERT
  5
6BF
100
AcDbEntity
  8
GLAS_MED_FOGNING
100
AcDbBlockReference
  2
*X52
 10
-1045.0
 20
1340.0
 30
0.0
 50
270.0
1001
ACAD
1000
HATCH
1002
{
1070
    16
1000
HEX
1040
5.0
1040
0.0
1002
}
  0
LINE
  5
6C0
100
AcDbEntity
  8
GLAS_MED_FOGNING
100
AcDbLine
 10
-56.0
 20
40.998998
 30
0.0
 11
-61.4
 21
40.998998
 31
0.0
  0
LINE
  5
6C1
100
AcDbEntity
  8
GLAS_MED_FOGNING
100
AcDbLine
 10
-61.4
 20
40.998998
 30
0.0
 11
-61.4
 21
30.998998
 31
0.0
  0
INSERT
  5
6C2
100
AcDbEntity
  8
TEXT
100
AcDbBlockReference
  2
SP42520
 10
0.0
 20
0.0
 30
0.0
  0
LINE
  5
6C3
100
AcDbEntity
  8
GLAS_MED_FOGNING
100
AcDbLine
 10
-54.0
 20
37.848933
 30
0.0
 11
-44.5
 21
29.999998
 31
0.0
  0
LINE
  5
6C4
100
AcDbEntity
  8
GLAS_MED_FOGNING
100
AcDbLine
 10
-44.5
 20
37.848933
 30
0.0
 11
-54.0
 21
29.999998
 31
0.0
  0
LINE
  5
6C5
100
AcDbEntity
  8
GLAS_MED_FOGNING
100
AcDbLine
 10
-42.5
 20
37.848933
 30
0.0
 11
-32.0
 21
29.999998
 31
0.0
  0
LINE
  5
6C6
100
AcDbEntity
  8
GLAS_MED_FOGNING
100
AcDbLine
 10
-32.0
 20
37.848933
 30
0.0
 11
-42.5
 21
29.999998
 31
0.0
  0
LINE
  5
6C7
100
AcDbEntity
  8
GLAS_MED_FOGNING
100
AcDbLine
 10
-42.5
 20
37.848933
 30
0.0
 11
-32.0
 21
37.848933
 31
0.0
  0
LINE
  5
6C8
100
AcDbEntity
  8
GLAS_MED_FOGNING
100
AcDbLine
 10
-54.0
 20
37.848933
 30
0.0
 11
-44.5
 21
37.848933
 31
0.0
  0
LINE
  5
6C9
100
AcDbEntity
  8
GLAS_MED_FOGNING
100
AcDbLine
 10
-30.0
 20
40.998998
 30
0.0
 11
-30.0
 21
30.998998
 31
0.0
  0
LINE
  5
6CA
100
AcDbEntity
  8
GLAS_MED_FOGNING
100
AcDbLine
 10
-25.0
 20
40.998998
 30
0.0
 11
-25.0
 21
30.998998
 31
0.0
  0
INSERT
  5
6CB
100
AcDbEntity
  8
GLAS_MED_FOGNING
100
AcDbBlockReference
  2
*X51
 10
-1045.0
 20
1340.0
 30
0.0
 50
270.0
1001
ACAD
1000
HATCH
1002
{
1070
    16
1000
HEX
1040
5.0
1040
0.0
1002
}
  0
LINE
  5
6CC
100
AcDbEntity
  8
GLAS_MED_FOGNING
100
AcDbLine
 10
-25.0
 20
40.998998
 30
0.0
 11
-30.0
 21
40.998998
 31
0.0
  0
LINE
  5
6CD
100
AcDbEntity
  8
CENTRUM
100
AcDbLine
 10
0.0
 20
62.499998
 30
0.0
 11
-65.0
 21
62.499998
 31
0.0
  0
LINE
  5
6CE
100
AcDbEntity
  8
GLAS_MED_FOGNING
100
AcDbLine
 10
-56.0
 20
30.998998
 30
0.0
 11
-61.4
 21
30.998998
 31
0.0
  0
LINE
  5
6CF
100
AcDbEntity
  8
GLAS_MED_FOGNING
100
AcDbLine
 10
-30.0
 20
29.999998
 30
0.0
 11
-30.0
 21
30.998998
 31
0.0
  0
LINE
  5
6D0
100
AcDbEntity
  8
GLAS_MED_FOGNING
100
AcDbLine
 10
-56.0
 20
29.999998
 30
0.0
 11
-56.0
 21
30.999998
 31
0.0
  0
LINE
  5
6D1
100
AcDbEntity
  8
GLAS_MED_FOGNING
100
AcDbLine
 10
-30.0
 20
29.999998
 30
0.0
 11
-56.0
 21
29.999998
 31
0.0
  0
LINE
  5
6D2
100
AcDbEntity
  8
GLAS_MED_FOGNING
100
AcDbLine
 10
-25.0
 20
30.998998
 30
0.0
 11
-30.0
 21
30.998998
 31
0.0
  0
ENDBLK
  5
6D4
100
AcDbEntity
  8
0
100
AcDbBlockEnd
  0
BLOCK
  5
6DA
100
AcDbEntity
  8
0
100
AcDbBlockBegin
  2
65_SP42520DKTRI
 70
     0
 10
0.0
 20
0.0
 30
0.0
  3
65_SP42520DKTRI
  1

  0
INSERT
  5
6D6
100
AcDbEntity
  8
GLAS_MED_FOGNING
100
AcDbBlockReference
  2
SP42520
 10
0.0
 20
0.0
 30
0.0
  0
INSERT
  5
6D7
100
AcDbEntity
  8
GLAS_MED_FOGNING
100
AcDbBlockReference
  2
GLAS26-5DK
 10
0.0
 20
0.0
 30
0.0
  0
TEXT
  5
6D8
100
AcDbEntity
  8
TEXT
100
AcDbText
 10
-42.90943
 20
7.249315
 30
0.0
 40
5.0
  1
%%UDISTANSKLOSS
 41
0.8
  7
ROMANS
 72
     1
 11
-22.066573
 21
7.249315
 31
0.0
100
AcDbText
  0
LINE
  5
6D9
100
AcDbEntity
  8
TEXT
100
AcDbLine
 10
-43.407373
 20
6.239706
 30
0.0
 11
-50.202989
 21
24.912553
 31
0.0
  0
ENDBLK
  5
6DB
100
AcDbEntity
  8
0
100
AcDbBlockEnd
  0
BLOCK
  5
6E0
100
AcDbEntity
  8
0
100
AcDbBlockBegin
  2
SP41020
 70
     0
 10
0.0
 20
0.0
 30
0.0
  3
SP41020
  1

  0
LWPOLYLINE
  5
6DD
100
AcDbEntity
  8
STALPROFIL
100
AcDbPolyline
 90
       10
 70
     0
 43
1.25
 10
-9.375
 20
27.5
 10
-9.375
 20
26.75
 42
0.414214
 10
-8.25
 20
25.625
 10
-1.75
 20
25.625
 42
0.414214
 10
-0.625
 20
26.75
 10
-0.625
 20
43.25
 42
0.414214
 10
-1.75
 20
44.375
 10
-8.25
 20
44.375
 42
0.414214
 10
-9.375
 20
43.25
 10
-9.375
 20
29.5
  0
LWPOLYLINE
  5
6DE
100
AcDbEntity
  8
SPKONTUR
100
AcDbPolyline
 90
       10
 70
     0
 43
0.0
 10
-10.0
 20
27.5
 10
-10.0
 20
26.75
 42
0.414214
 10
-8.25
 20
25.0
 10
-1.75
 20
25.0
 42
0.414214
 10
0.0
 20
26.75
 10
0.0
 20
43.25
 42
0.414214
 10
-1.75
 20
45.0
 10
-8.25
 20
45.0
 42
0.414214
 10
-10.0
 20
43.25
 10
-10.0
 20
29.5
  0
INSERT
  5
6DF
100
AcDbEntity
  8
GLAS_MED_FOGNING
100
AcDbBlockReference
  2
SP41000
 10
0.0
 20
0.0
 30
0.0
  0
ENDBLK
  5
6E1
100
AcDbEntity
  8
0
100
AcDbBlockEnd
  0
BLOCK
  5
6F8
100
AcDbEntity
  8
0
100
AcDbBlockBegin
  2
*X57
 70
     1
 10
0.0
 20
0.0
 30
0.0
  3
*X57
  1

  0
LINE
  5
6F0
100
AcDbEntity
  8
0
 62
     0
100
AcDbLine
 10
-43.410115
 20
41.746337
 30
0.0
 11
-43.410115
 21
41.746337
 31
0.0
  0
LINE
  5
6F1
100
AcDbEntity
  8
0
 62
     0
100
AcDbLine
 10
-41.887688
 20
41.090091
 30
0.0
 11
-41.887688
 21
41.090091
 31
0.0
  0
LINE
  5
6F2
100
AcDbEntity
  8
0
 62
     0
100
AcDbLine
 10
-41.015121
 20
46.383268
 30
0.0
 11
-41.015121
 21
46.383268
 31
0.0
  0
LINE
  5
6F3
100
AcDbEntity
  8
0
 62
     0
100
AcDbLine
 10
-44.259128
 20
42.545671
 30
0.0
 11
-44.259128
 21
42.545671
 31
0.0
  0
LINE
  5
6F4
100
AcDbEntity
  8
0
 62
     0
100
AcDbLine
 10
-41.910445
 20
45.028568
 30
0.0
 11
-41.910445
 21
45.028568
 31
0.0
  0
LINE
  5
6F5
100
AcDbEntity
  8
0
 62
     0
100
AcDbLine
 10
-41.067054
 20
44.491268
 30
0.0
 11
-41.067054
 21
44.491268
 31
0.0
  0
LINE
  5
6F6
100
AcDbEntity
  8
0
 62
     0
100
AcDbLine
 10
-41.539629
 20
43.074448
 30
0.0
 11
-41.539629
 21
43.074448
 31
0.0
  0
LINE
  5
6F7
100
AcDbEntity
  8
0
 62
     0
100
AcDbLine
 10
-41.17099
 20
42.736653
 30
0.0
 11
-41.17099
 21
42.736653
 31
0.0
  0
ENDBLK
  5
6F9
100
AcDbEntity
  8
0
100
AcDbBlockEnd
  0
BLOCK
  5
703
100
AcDbEntity
  8
0
100
AcDbBlockBegin
  2
*X58
 70
     1
 10
0.0
 20
0.0
 30
0.0
  3
*X58
  1

  0
LINE
  5
6FB
100
AcDbEntity
  8
0
 62
     0
100
AcDbLine
 10
-32.89215
 20
41.916415
 30
0.0
 11
-32.89215
 21
41.916415
 31
0.0
  0
LINE
  5
6FC
100
AcDbEntity
  8
0
 62
     0
100
AcDbLine
 10
-33.787584
 20
42.15649
 30
0.0
 11
-33.787584
 21
42.15649
 31
0.0
  0
LINE
  5
6FD
100
AcDbEntity
  8
0
 62
     0
100
AcDbLine
 10
-32.746566
 20
42.293542
 30
0.0
 11
-32.746566
 21
42.293542
 31
0.0
  0
LINE
  5
6FE
100
AcDbEntity
  8
0
 62
     0
100
AcDbLine
 10
-31.120597
 20
42.507605
 30
0.0
 11
-31.120597
 21
42.507605
 31
0.0
  0
LINE
  5
6FF
100
AcDbEntity
  8
0
 62
     0
100
AcDbLine
 10
-34.83877
 20
44.502586
 30
0.0
 11
-34.83877
 21
44.502586
 31
0.0
  0
LINE
  5
700
100
AcDbEntity
  8
0
 62
     0
100
AcDbLine
 10
-31.802561
 20
42.568308
 30
0.0
 11
-31.802561
 21
42.568308
 31
0.0
  0
LINE
  5
701
100
AcDbEntity
  8
0
 62
     0
100
AcDbLine
 10
-33.418762
 20
42.897611
 30
0.0
 11
-33.418762
 21
42.897611
 31
0.0
  0
LINE
  5
702
100
AcDbEntity
  8
0
 62
     0
100
AcDbLine
 10
-31.428114
 20
41.073518
 30
0.0
 11
-31.428114
 21
41.073518
 31
0.0
  0
ENDBLK
  5
704
100
AcDbEntity
  8
0
100
AcDbBlockEnd
  0
BLOCK
  5
733
100
AcDbEntity
  8
0
100
AcDbBlockBegin
  2
*X59
 70
     1
 10
0.0
 20
0.0
 30
0.0
  3
*X59
  1

  0
LINE
  5
706
100
AcDbEntity
  8
0
 62
     0
100
AcDbLine
 10
-32.388203
 20
26.501825
 30
0.0
 11
-32.388203
 21
26.501825
 31
0.0
  0
LINE
  5
707
100
AcDbEntity
  8
0
 62
     0
100
AcDbLine
 10
-29.976409
 20
28.35246
 30
0.0
 11
-29.976409
 21
28.35246
 31
0.0
  0
LINE
  5
708
100
AcDbEntity
  8
0
 62
     0
100
AcDbLine
 10
-27.279007
 20
30.422249
 30
0.0
 11
-27.279007
 21
30.422249
 31
0.0
  0
LINE
  5
709
100
AcDbEntity
  8
0
 62
     0
100
AcDbLine
 10
-37.789989
 20
26.307209
 30
0.0
 11
-37.789989
 21
26.307209
 31
0.0
  0
LINE
  5
70A
100
AcDbEntity
  8
0
 62
     0
100
AcDbLine
 10
-35.092588
 20
28.376998
 30
0.0
 11
-35.092588
 21
28.376998
 31
0.0
  0
LINE
  5
70B
100
AcDbEntity
  8
0
 62
     0
100
AcDbLine
 10
-42.906168
 20
26.331747
 30
0.0
 11
-42.906168
 21
26.331747
 31
0.0
  0
LINE
  5
70C
100
AcDbEntity
  8
0
 62
     0
100
AcDbLine
 10
-40.32777
 20
28.310222
 30
0.0
 11
-40.32777
 21
28.310222
 31
0.0
  0
LINE
  5
70D
100
AcDbEntity
  8
0
 62
     0
100
AcDbLine
 10
-45.729557
 20
28.115606
 30
0.0
 11
-45.729557
 21
28.115606
 31
0.0
  0
LINE
  5
70E
100
AcDbEntity
  8
0
 62
     0
100
AcDbLine
 10
-43.032155
 20
30.185395
 30
0.0
 11
-43.032155
 21
30.185395
 31
0.0
  0
LINE
  5
70F
100
AcDbEntity
  8
0
 62
     0
100
AcDbLine
 10
-27.153021
 20
26.568601
 30
0.0
 11
-27.153021
 21
26.568601
 31
0.0
  0
LINE
  5
710
100
AcDbEntity
  8
0
 62
     0
100
AcDbLine
 10
-44.406244
 20
25.223614
 30
0.0
 11
-44.406244
 21
25.223614
 31
0.0
  0
LINE
  5
711
100
AcDbEntity
  8
0
 62
     0
100
AcDbLine
 10
-43.365227
 20
25.360666
 30
0.0
 11
-43.365227
 21
25.360666
 31
0.0
  0
LINE
  5
712
100
AcDbEntity
  8
0
 62
     0
100
AcDbLine
 10
-41.739257
 20
25.574729
 30
0.0
 11
-41.739257
 21
25.574729
 31
0.0
  0
LINE
  5
713
100
AcDbEntity
  8
0
 62
     0
100
AcDbLine
 10
-39.022698
 20
25.932371
 30
0.0
 11
-39.022698
 21
25.932371
 31
0.0
  0
LINE
  5
714
100
AcDbEntity
  8
0
 62
     0
100
AcDbLine
 10
-37.981681
 20
26.069423
 30
0.0
 11
-37.981681
 21
26.069423
 31
0.0
  0
LINE
  5
715
100
AcDbEntity
  8
0
 62
     0
100
AcDbLine
 10
-36.355712
 20
26.283486
 30
0.0
 11
-36.355712
 21
26.283486
 31
0.0
  0
LINE
  5
716
100
AcDbEntity
  8
0
 62
     0
100
AcDbLine
 10
-33.639153
 20
26.641128
 30
0.0
 11
-33.639153
 21
26.641128
 31
0.0
  0
LINE
  5
717
100
AcDbEntity
  8
0
 62
     0
100
AcDbLine
 10
-32.598136
 20
26.778181
 30
0.0
 11
-32.598136
 21
26.778181
 31
0.0
  0
LINE
  5
718
100
AcDbEntity
  8
0
 62
     0
100
AcDbLine
 10
-30.972166
 20
26.992244
 30
0.0
 11
-30.972166
 21
26.992244
 31
0.0
  0
LINE
  5
719
100
AcDbEntity
  8
0
 62
     0
100
AcDbLine
 10
-28.255607
 20
27.349885
 30
0.0
 11
-28.255607
 21
27.349885
 31
0.0
  0
LINE
  5
71A
100
AcDbEntity
  8
0
 62
     0
100
AcDbLine
 10
-27.21459
 20
27.486938
 30
0.0
 11
-27.21459
 21
27.486938
 31
0.0
  0
LINE
  5
71B
100
AcDbEntity
  8
0
 62
     0
100
AcDbLine
 10
-25.58862
 20
27.701001
 30
0.0
 11
-25.58862
 21
27.701001
 31
0.0
  0
LINE
  5
71C
100
AcDbEntity
  8
0
 62
     0
100
AcDbLine
 10
-46.250236
 20
30.159149
 30
0.0
 11
-46.250236
 21
30.159149
 31
0.0
  0
LINE
  5
71D
100
AcDbEntity
  8
0
 62
     0
100
AcDbLine
 10
-45.209219
 20
30.296201
 30
0.0
 11
-45.209219
 21
30.296201
 31
0.0
  0
LINE
  5
71E
100
AcDbEntity
  8
0
 62
     0
100
AcDbLine
 10
-43.583249
 20
30.510264
 30
0.0
 11
-43.583249
 21
30.510264
 31
0.0
  0
LINE
  5
71F
100
AcDbEntity
  8
0
 62
     0
100
AcDbLine
 10
-43.292959
 20
29.992636
 30
0.0
 11
-43.292959
 21
29.992636
 31
0.0
  0
LINE
  5
720
100
AcDbEntity
  8
0
 62
     0
100
AcDbLine
 10
-42.449568
 20
29.455337
 30
0.0
 11
-42.449568
 21
29.455337
 31
0.0
  0
LINE
  5
721
100
AcDbEntity
  8
0
 62
     0
100
AcDbLine
 10
-39.413358
 20
27.521058
 30
0.0
 11
-39.413358
 21
27.521058
 31
0.0
  0
LINE
  5
722
100
AcDbEntity
  8
0
 62
     0
100
AcDbLine
 10
-36.221284
 20
29.466655
 30
0.0
 11
-36.221284
 21
29.466655
 31
0.0
  0
LINE
  5
723
100
AcDbEntity
  8
0
 62
     0
100
AcDbLine
 10
-33.185075
 20
27.532376
 30
0.0
 11
-33.185075
 21
27.532376
 31
0.0
  0
LINE
  5
724
100
AcDbEntity
  8
0
 62
     0
100
AcDbLine
 10
-29.221135
 20
25.007068
 30
0.0
 11
-29.221135
 21
25.007068
 31
0.0
  0
LINE
  5
725
100
AcDbEntity
  8
0
 62
     0
100
AcDbLine
 10
-29.993
 20
29.477973
 30
0.0
 11
-29.993
 21
29.477973
 31
0.0
  0
LINE
  5
726
100
AcDbEntity
  8
0
 62
     0
100
AcDbLine
 10
-26.956791
 20
27.543694
 30
0.0
 11
-26.956791
 21
27.543694
 31
0.0
  0
LINE
  5
727
100
AcDbEntity
  8
0
 62
     0
100
AcDbLine
 10
-45.641642
 20
27.50974
 30
0.0
 11
-45.641642
 21
27.50974
 31
0.0
  0
LINE
  5
728
100
AcDbEntity
  8
0
 62
     0
100
AcDbLine
 10
-34.885457
 20
29.712457
 30
0.0
 11
-34.885457
 21
29.712457
 31
0.0
  0
LINE
  5
729
100
AcDbEntity
  8
0
 62
     0
100
AcDbLine
 10
-33.145483
 20
28.118064
 30
0.0
 11
-33.145483
 21
28.118064
 31
0.0
  0
LINE
  5
72A
100
AcDbEntity
  8
0
 62
     0
100
AcDbLine
 10
-31.154834
 20
26.293971
 30
0.0
 11
-31.154834
 21
26.293971
 31
0.0
  0
LINE
  5
72B
100
AcDbEntity
  8
0
 62
     0
100
AcDbLine
 10
-30.786195
 20
25.956176
 30
0.0
 11
-30.786195
 21
25.956176
 31
0.0
  0
LINE
  5
72C
100
AcDbEntity
  8
0
 62
     0
100
AcDbLine
 10
-27.13323
 20
29.873416
 30
0.0
 11
-27.13323
 21
29.873416
 31
0.0
  0
LINE
  5
72D
100
AcDbEntity
  8
0
 62
     0
100
AcDbLine
 10
-25.142581
 20
28.049322
 30
0.0
 11
-25.142581
 21
28.049322
 31
0.0
  0
LINE
  5
72E
100
AcDbEntity
  8
0
 62
     0
100
AcDbLine
 10
-43.256998
 20
30.118995
 30
0.0
 11
-43.256998
 21
30.118995
 31
0.0
  0
LINE
  5
72F
100
AcDbEntity
  8
0
 62
     0
100
AcDbLine
 10
-41.266349
 20
28.294901
 30
0.0
 11
-41.266349
 21
28.294901
 31
0.0
  0
LINE
  5
730
100
AcDbEntity
  8
0
 62
     0
100
AcDbLine
 10
-40.89771
 20
27.957106
 30
0.0
 11
-40.89771
 21
27.957106
 31
0.0
  0
LINE
  5
731
100
AcDbEntity
  8
0
 62
     0
100
AcDbLine
 10
-39.157736
 20
26.362713
 30
0.0
 11
-39.157736
 21
26.362713
 31
0.0
  0
LINE
  5
732
100
AcDbEntity
  8
0
 62
     0
100
AcDbLine
 10
-46.909964
 20
26.201755
 30
0.0
 11
-46.909964
 21
26.201755
 31
0.0
  0
ENDBLK
  5
734
100
AcDbEntity
  8
0
100
AcDbBlockEnd
  0
BLOCK
  5
754
100
AcDbEntity
  8
0
100
AcDbBlockBegin
  2
GLAS11-6X5
 70
     0
 10
0.0
 20
0.0
 30
0.0
  3
GLAS11-6X5
  1

  0
INSERT
  5
736
100
AcDbEntity
  8
GLAS_MED_FOGNING
100
AcDbBlockReference
  2
*X59
 10
50.0
 20
0.0
 30
0.0
1001
ACAD
1000
HATCH
1002
{
1070
    16
1000
AR-SAND
1040
2.0
1040
0.0
1002
}
  0
LINE
  5
737
100
AcDbEntity
  8
GLAS_MED_FOGNING
100
AcDbLine
 10
20.0
 20
49.0
 30
0.0
 11
20.0
 21
30.0
 31
0.0
  0
LINE
  5
738
100
AcDbEntity
  8
GLAS_MED_FOGNING
100
AcDbLine
 10
9.0
 20
49.0
 30
0.0
 11
9.0
 21
30.0
 31
0.0
  0
LINE
  5
739
100
AcDbEntity
  8
GLAS_MED_FOGNING
100
AcDbLine
 10
20.0
 20
30.0
 30
0.0
 11
9.0
 21
30.0
 31
0.0
  0
LINE
  5
73A
100
AcDbEntity
  8
GLAS_MED_FOGNING
100
AcDbLine
 10
9.0
 20
37.0
 30
0.0
 11
3.0
 21
37.0
 31
0.0
  0
LINE
  5
73B
100
AcDbEntity
  8
GLAS_MED_FOGNING
100
AcDbLine
 10
9.0
 20
36.0
 30
0.0
 11
3.0
 21
36.0
 31
0.0
  0
LINE
  5
73C
100
AcDbEntity
  8
GLAS_MED_FOGNING
100
AcDbLine
 10
9.0
 20
35.0
 30
0.0
 11
3.0
 21
35.0
 31
0.0
  0
LINE
  5
73D
100
AcDbEntity
  8
GLAS_MED_FOGNING
100
AcDbLine
 10
9.0
 20
33.0
 30
0.0
 11
3.0
 21
33.0
 31
0.0
  0
LINE
  5
73E
100
AcDbEntity
  8
GLAS_MED_FOGNING
100
AcDbLine
 10
9.0
 20
34.0
 30
0.0
 11
3.0
 21
34.0
 31
0.0
  0
LINE
  5
73F
100
AcDbEntity
  8
GLAS_MED_FOGNING
100
AcDbLine
 10
9.0
 20
32.0
 30
0.0
 11
3.0
 21
32.0
 31
0.0
  0
LINE
  5
740
100
AcDbEntity
  8
GLAS_MED_FOGNING
100
AcDbLine
 10
9.0
 20
31.0
 30
0.0
 11
3.0
 21
31.0
 31
0.0
  0
LINE
  5
741
100
AcDbEntity
  8
GLAS_MED_FOGNING
100
AcDbLine
 10
25.0
 20
32.0
 30
0.0
 11
20.0
 21
32.0
 31
0.0
  0
LINE
  5
742
100
AcDbEntity
  8
GLAS_MED_FOGNING
100
AcDbLine
 10
25.0
 20
33.0
 30
0.0
 11
20.0
 21
33.0
 31
0.0
  0
LINE
  5
743
100
AcDbEntity
  8
GLAS_MED_FOGNING
100
AcDbLine
 10
25.0
 20
34.0
 30
0.0
 11
20.0
 21
34.0
 31
0.0
  0
LINE
  5
744
100
AcDbEntity
  8
GLAS_MED_FOGNING
100
AcDbLine
 10
25.0
 20
35.0
 30
0.0
 11
20.0
 21
35.0
 31
0.0
  0
LINE
  5
745
100
AcDbEntity
  8
GLAS_MED_FOGNING
100
AcDbLine
 10
25.0
 20
36.0
 30
0.0
 11
20.0
 21
36.0
 31
0.0
  0
LINE
  5
746
100
AcDbEntity
  8
GLAS_MED_FOGNING
100
AcDbLine
 10
25.0
 20
37.0
 30
0.0
 11
20.0
 21
37.0
 31
0.0
  0
LINE
  5
747
100
AcDbEntity
  8
GLAS_MED_FOGNING
100
AcDbLine
 10
25.0
 20
31.0
 30
0.0
 11
20.0
 21
31.0
 31
0.0
  0
LINE
  5
748
100
AcDbEntity
  8
GLAS_MED_FOGNING
100
AcDbLine
 10
9.0
 20
41.0
 30
0.0
 11
3.0
 21
41.0
 31
0.0
  0
LINE
  5
749
100
AcDbEntity
  8
GLAS_MED_FOGNING
100
AcDbLine
 10
9.0
 20
39.0
 30
0.0
 11
3.0
 21
39.0
 31
0.0
  0
LINE
  5
74A
100
AcDbEntity
  8
GLAS_MED_FOGNING
100
AcDbLine
 10
9.0
 20
40.0
 30
0.0
 11
3.0
 21
40.0
 31
0.0
  0
LINE
  5
74B
100
AcDbEntity
  8
GLAS_MED_FOGNING
100
AcDbLine
 10
9.0
 20
38.0
 30
0.0
 11
3.0
 21
38.0
 31
0.0
  0
ARC
  5
74C
100
AcDbEntity
  8
GLAS_MED_FOGNING
100
AcDbCircle
 10
3.0
 20
49.0
 30
0.0
 40
6.0
100
AcDbArc
 50
270.0
 51
0.0
  0
INSERT
  5
74D
100
AcDbEntity
  8
GLAS_MED_FOGNING
100
AcDbBlockReference
  2
*X57
 10
50.0
 20
0.0
 30
0.0
1001
ACAD
1000
HATCH
1002
{
1070
    16
1000
AR-SAND
1040
2.0
1040
0.0
1002
}
  0
LINE
  5
74E
100
AcDbEntity
  8
GLAS_MED_FOGNING
100
AcDbLine
 10
25.0
 20
38.0
 30
0.0
 11
20.0
 21
38.0
 31
0.0
  0
LINE
  5
74F
100
AcDbEntity
  8
GLAS_MED_FOGNING
100
AcDbLine
 10
25.0
 20
39.0
 30
0.0
 11
20.0
 21
39.0
 31
0.0
  0
LINE
  5
750
100
AcDbEntity
  8
GLAS_MED_FOGNING
100
AcDbLine
 10
25.0
 20
40.0
 30
0.0
 11
20.0
 21
40.0
 31
0.0
  0
LINE
  5
751
100
AcDbEntity
  8
GLAS_MED_FOGNING
100
AcDbLine
 10
25.0
 20
41.0
 30
0.0
 11
20.0
 21
41.0
 31
0.0
  0
INSERT
  5
752
100
AcDbEntity
  8
GLAS_MED_FOGNING
100
AcDbBlockReference
  2
*X58
 10
55.0
 20
0.0
 30
0.0
1001
ACAD
1000
HATCH
1002
{
1070
    16
1000
AR-SAND
1040
2.0
1040
0.0
1002
}
  0
ARC
  5
753
100
AcDbEntity
  8
GLAS_MED_FOGNING
100
AcDbCircle
 10
25.0
 20
48.0
 30
0.0
 40
5.0
100
AcDbArc
 50
180.0
 51
270.0
  0
ENDBLK
  5
755
100
AcDbEntity
  8
0
100
AcDbBlockEnd
  0
BLOCK
  5
759
100
AcDbEntity
  8
0
100
AcDbBlockBegin
  2
SP41000
 70
     0
 10
0.0
 20
0.0
 30
0.0
  3
SP41000
  1

  0
LINE
  5
757
100
AcDbEntity
  8
CENTRUM
100
AcDbLine
 10
-15.999975
 20
26.099901
 30
0.0
 11
-16.000124
 21
20.099901
 31
0.0
  0
LWPOLYLINE
  5
758
100
AcDbEntity
  8
GLAS_MED_FOGNING
100
AcDbPolyline
 90
        9
 70
     0
 43
0.0
 10
-21.895347
 20
26.821776
 10
-20.0
 20
25.1
 10
-12.5
 20
25.099814
 42
0.315299
 10
-11.278378
 20
25.955158
 10
-10.496797
 20
28.102371
 42
-0.419684
 10
-10.107042
 20
28.279701
 10
-6.40871
 20
26.461158
 42
0.414233
 10
-4.670299
 20
27.059616
 10
-2.916703
 20
30.654738
  0
ENDBLK
  5
75A
100
AcDbEntity
  8
0
100
AcDbBlockEnd
  0
BLOCK
  5
75D
100
AcDbEntity
  8
0
100
AcDbBlockBegin
  2
*X62
 70
     1
 10
0.0
 20
0.0
 30
0.0
  3
*X62
  1

  0
LINE
  5
75C
100
AcDbEntity
  8
0
 62
     0
100
AcDbLine
 10
-59.163263
 20
41.509483
 30
0.0
 11
-59.163263
 21
41.509483
 31
0.0
  0
ENDBLK
  5
75E
100
AcDbEntity
  8
0
100
AcDbBlockEnd
  0
BLOCK
  5
763
100
AcDbEntity
  8
0
100
AcDbBlockBegin
  2
*X63
 70
     1
 10
0.0
 20
0.0
 30
0.0
  3
*X63
  1

  0
LINE
  5
760
100
AcDbEntity
  8
0
 62
     0
100
AcDbLine
 10
-17.139002
 20
42.153269
 30
0.0
 11
-17.139002
 21
42.153269
 31
0.0
  0
LINE
  5
761
100
AcDbEntity
  8
0
 62
     0
100
AcDbLine
 10
-17.636947
 20
44.282762
 30
0.0
 11
-17.636947
 21
44.282762
 31
0.0
  0
LINE
  5
762
100
AcDbEntity
  8
0
 62
     0
100
AcDbLine
 10
-17.294994
 20
42.652032
 30
0.0
 11
-17.294994
 21
42.652032
 31
0.0
  0
ENDBLK
  5
764
100
AcDbEntity
  8
0
100
AcDbBlockEnd
  0
BLOCK
  5
76F
100
AcDbEntity
  8
0
100
AcDbBlockBegin
  2
*X64
 70
     1
 10
0.0
 20
0.0
 30
0.0
  3
*X64
  1

  0
LINE
  5
766
100
AcDbEntity
  8
0
 62
     0
100
AcDbLine
 10
-58.659316
 20
26.094893
 30
0.0
 11
-58.659316
 21
26.094893
 31
0.0
  0
LINE
  5
767
100
AcDbEntity
  8
0
 62
     0
100
AcDbLine
 10
-61.482704
 20
27.878752
 30
0.0
 11
-61.482704
 21
27.878752
 31
0.0
  0
LINE
  5
768
100
AcDbEntity
  8
0
 62
     0
100
AcDbLine
 10
-58.785303
 20
29.948541
 30
0.0
 11
-58.785303
 21
29.948541
 31
0.0
  0
LINE
  5
769
100
AcDbEntity
  8
0
 62
     0
100
AcDbLine
 10
-61.359856
 20
28.169929
 30
0.0
 11
-61.359856
 21
28.169929
 31
0.0
  0
LINE
  5
76A
100
AcDbEntity
  8
0
 62
     0
100
AcDbLine
 10
-59.733886
 20
28.383992
 30
0.0
 11
-59.733886
 21
28.383992
 31
0.0
  0
LINE
  5
76B
100
AcDbEntity
  8
0
 62
     0
100
AcDbLine
 10
-61.97781
 20
29.958682
 30
0.0
 11
-61.97781
 21
29.958682
 31
0.0
  0
LINE
  5
76C
100
AcDbEntity
  8
0
 62
     0
100
AcDbLine
 10
-61.134419
 20
29.421382
 30
0.0
 11
-61.134419
 21
29.421382
 31
0.0
  0
LINE
  5
76D
100
AcDbEntity
  8
0
 62
     0
100
AcDbLine
 10
-58.098209
 20
27.487104
 30
0.0
 11
-58.098209
 21
27.487104
 31
0.0
  0
LINE
  5
76E
100
AcDbEntity
  8
0
 62
     0
100
AcDbLine
 10
-59.380766
 20
30.364574
 30
0.0
 11
-59.380766
 21
30.364574
 31
0.0
  0
ENDBLK
  5
770
100
AcDbEntity
  8
0
100
AcDbBlockEnd
  0
BLOCK
  5
77B
100
AcDbEntity
  8
0
100
AcDbBlockBegin
  2
*X65
 70
     1
 10
0.0
 20
0.0
 30
0.0
  3
*X65
  1

  0
LINE
  5
772
100
AcDbEntity
  8
0
 62
     0
100
AcDbLine
 10
-16.635055
 20
26.738679
 30
0.0
 11
-16.635055
 21
26.738679
 31
0.0
  0
LINE
  5
773
100
AcDbEntity
  8
0
 62
     0
100
AcDbLine
 10
-16.761042
 20
30.592326
 30
0.0
 11
-16.761042
 21
30.592326
 31
0.0
  0
LINE
  5
774
100
AcDbEntity
  8
0
 62
     0
100
AcDbLine
 10
-17.488516
 20
28.7674
 30
0.0
 11
-17.488516
 21
28.7674
 31
0.0
  0
LINE
  5
775
100
AcDbEntity
  8
0
 62
     0
100
AcDbLine
 10
-16.447499
 20
28.904452
 30
0.0
 11
-16.447499
 21
28.904452
 31
0.0
  0
LINE
  5
776
100
AcDbEntity
  8
0
 62
     0
100
AcDbLine
 10
-16.764567
 20
25.029704
 30
0.0
 11
-16.764567
 21
25.029704
 31
0.0
  0
LINE
  5
777
100
AcDbEntity
  8
0
 62
     0
100
AcDbLine
 10
-17.536433
 20
29.500609
 30
0.0
 11
-17.536433
 21
29.500609
 31
0.0
  0
LINE
  5
778
100
AcDbEntity
  8
0
 62
     0
100
AcDbLine
 10
-17.021714
 20
27.872485
 30
0.0
 11
-17.021714
 21
27.872485
 31
0.0
  0
LINE
  5
779
100
AcDbEntity
  8
0
 62
     0
100
AcDbLine
 10
-15.031066
 20
26.048392
 30
0.0
 11
-15.031066
 21
26.048392
 31
0.0
  0
LINE
  5
77A
100
AcDbEntity
  8
0
 62
     0
100
AcDbLine
 10
-14.662427
 20
25.710596
 30
0.0
 11
-14.662427
 21
25.710596
 31
0.0
  0
ENDBLK
  5
77C
100
AcDbEntity
  8
0
100
AcDbBlockEnd
  0
BLOCK
  5
7A1
100
AcDbEntity
  8
0
100
AcDbBlockBegin
  2
GLAS30-4X3DK
 70
     0
 10
0.0
 20
0.0
 30
0.0
  3
GLAS30-4X3DK
  1

  0
LINE
  5
77E
100
AcDbEntity
  8
GLAS_MED_FOGNING
100
AcDbLine
 10
7.0
 20
32.0
 30
0.0
 11
3.0
 21
32.0
 31
0.0
  0
LINE
  5
77F
100
AcDbEntity
  8
GLAS_MED_FOGNING
100
AcDbLine
 10
7.0
 20
34.0
 30
0.0
 11
3.0
 21
34.0
 31
0.0
  0
LINE
  5
780
100
AcDbEntity
  8
GLAS_MED_FOGNING
100
AcDbLine
 10
7.0
 20
33.0
 30
0.0
 11
3.0
 21
33.0
 31
0.0
  0
LINE
  5
781
100
AcDbEntity
  8
GLAS_MED_FOGNING
100
AcDbLine
 10
7.0
 20
35.0
 30
0.0
 11
3.0
 21
35.0
 31
0.0
  0
LINE
  5
782
100
AcDbEntity
  8
GLAS_MED_FOGNING
100
AcDbLine
 10
7.0
 20
36.0
 30
0.0
 11
3.0
 21
36.0
 31
0.0
  0
LINE
  5
783
100
AcDbEntity
  8
GLAS_MED_FOGNING
100
AcDbLine
 10
7.0
 20
38.0
 30
0.0
 11
3.0
 21
38.0
 31
0.0
  0
LINE
  5
784
100
AcDbEntity
  8
GLAS_MED_FOGNING
100
AcDbLine
 10
7.0
 20
37.0
 30
0.0
 11
3.0
 21
37.0
 31
0.0
  0
LINE
  5
785
100
AcDbEntity
  8
GLAS_MED_FOGNING
100
AcDbLine
 10
7.0
 20
40.0
 30
0.0
 11
3.0
 21
40.0
 31
0.0
  0
LINE
  5
786
100
AcDbEntity
  8
GLAS_MED_FOGNING
100
AcDbLine
 10
7.0
 20
39.0
 30
0.0
 11
3.0
 21
39.0
 31
0.0
  0
LINE
  5
787
100
AcDbEntity
  8
GLAS_MED_FOGNING
100
AcDbLine
 10
7.0
 20
41.0
 30
0.0
 11
3.0
 21
41.0
 31
0.0
  0
LINE
  5
788
100
AcDbEntity
  8
GLAS_MED_FOGNING
100
AcDbLine
 10
7.0
 20
31.0
 30
0.0
 11
3.0
 21
31.0
 31
0.0
  0
INSERT
  5
789
100
AcDbEntity
  8
GLAS_MED_FOGNING
100
AcDbBlockReference
  2
*X64
 10
65.0
 20
0.0
 30
0.0
1001
ACAD
1000
HATCH
1002
{
1070
    16
1000
AR-SAND
1040
2.0
1040
0.0
1002
}
  0
ARC
  5
78A
100
AcDbEntity
  8
GLAS_MED_FOGNING
100
AcDbCircle
 10
3.0
 20
47.0
 30
0.0
 40
4.0
100
AcDbArc
 50
270.0
 51
0.0
  0
LINE
  5
78B
100
AcDbEntity
  8
GLAS_MED_FOGNING
100
AcDbLine
 10
37.0
 20
49.0
 30
0.0
 11
37.0
 21
30.0
 31
0.0
  0
LINE
  5
78C
100
AcDbEntity
  8
GLAS_MED_FOGNING
100
AcDbLine
 10
7.0
 20
49.0
 30
0.0
 11
7.0
 21
30.0
 31
0.0
  0
LINE
  5
78D
100
AcDbEntity
  8
GLAS_MED_FOGNING
100
AcDbLine
 10
37.0
 20
30.0
 30
0.0
 11
7.0
 21
30.0
 31
0.0
  0
LINE
  5
78E
100
AcDbEntity
  8
GLAS_MED_FOGNING
100
AcDbLine
 10
7.0
 20
30.0
 30
0.0
 11
37.0
 21
25.0
 31
0.0
  0
LINE
  5
78F
100
AcDbEntity
  8
GLAS_MED_FOGNING
100
AcDbLine
 10
37.0
 20
30.0
 30
0.0
 11
7.0
 21
25.0
 31
0.0
  0
LINE
  5
790
100
AcDbEntity
  8
GLAS_MED_FOGNING
100
AcDbLine
 10
7.0
 20
30.0
 30
0.0
 11
7.0
 21
25.0
 31
0.0
  0
LINE
  5
791
100
AcDbEntity
  8
GLAS_MED_FOGNING
100
AcDbLine
 10
40.0
 20
32.0
 30
0.0
 11
37.0
 21
32.0
 31
0.0
  0
LINE
  5
792
100
AcDbEntity
  8
GLAS_MED_FOGNING
100
AcDbLine
 10
40.0
 20
33.0
 30
0.0
 11
37.0
 21
33.0
 31
0.0
  0
LINE
  5
793
100
AcDbEntity
  8
GLAS_MED_FOGNING
100
AcDbLine
 10
40.0
 20
34.0
 30
0.0
 11
37.0
 21
34.0
 31
0.0
  0
LINE
  5
794
100
AcDbEntity
  8
GLAS_MED_FOGNING
100
AcDbLine
 10
40.0
 20
35.0
 30
0.0
 11
37.0
 21
35.0
 31
0.0
  0
LINE
  5
795
100
AcDbEntity
  8
GLAS_MED_FOGNING
100
AcDbLine
 10
40.0
 20
36.0
 30
0.0
 11
37.0
 21
36.0
 31
0.0
  0
LINE
  5
796
100
AcDbEntity
  8
GLAS_MED_FOGNING
100
AcDbLine
 10
40.0
 20
31.0
 30
0.0
 11
37.0
 21
31.0
 31
0.0
  0
INSERT
  5
797
100
AcDbEntity
  8
GLAS_MED_FOGNING
100
AcDbBlockReference
  2
*X65
 10
55.0
 20
0.0
 30
0.0
1001
ACAD
1000
HATCH
1002
{
1070
    16
1000
AR-SAND
1040
2.0
1040
0.0
1002
}
  0
LINE
  5
798
100
AcDbEntity
  8
GLAS_MED_FOGNING
100
AcDbLine
 10
37.0
 20
30.0
 30
0.0
 11
37.0
 21
25.0
 31
0.0
  0
INSERT
  5
799
100
AcDbEntity
  8
GLAS_MED_FOGNING
100
AcDbBlockReference
  2
*X62
 10
65.0
 20
0.0
 30
0.0
1001
ACAD
1000
HATCH
1002
{
1070
    16
1000
AR-SAND
1040
2.0
1040
0.0
1002
}
  0
LINE
  5
79A
100
AcDbEntity
  8
GLAS_MED_FOGNING
100
AcDbLine
 10
40.0
 20
37.0
 30
0.0
 11
37.0
 21
37.0
 31
0.0
  0
LINE
  5
79B
100
AcDbEntity
  8
GLAS_MED_FOGNING
100
AcDbLine
 10
40.0
 20
38.0
 30
0.0
 11
37.0
 21
38.0
 31
0.0
  0
LINE
  5
79C
100
AcDbEntity
  8
GLAS_MED_FOGNING
100
AcDbLine
 10
40.0
 20
39.0
 30
0.0
 11
37.0
 21
39.0
 31
0.0
  0
LINE
  5
79D
100
AcDbEntity
  8
GLAS_MED_FOGNING
100
AcDbLine
 10
40.0
 20
40.0
 30
0.0
 11
37.0
 21
40.0
 31
0.0
  0
LINE
  5
79E
100
AcDbEntity
  8
GLAS_MED_FOGNING
100
AcDbLine
 10
40.0
 20
41.0
 30
0.0
 11
37.0
 21
41.0
 31
0.0
  0
ARC
  5
79F
100
AcDbEntity
  8
GLAS_MED_FOGNING
100
AcDbCircle
 10
40.0
 20
46.0
 30
0.0
 40
3.0
100
AcDbArc
 50
180.0
 51
270.0
  0
INSERT
  5
7A0
100
AcDbEntity
  8
GLAS_MED_FOGNING
100
AcDbBlockReference
  2
*X63
 10
55.0
 20
0.0
 30
0.0
1001
ACAD
1000
HATCH
1002
{
1070
    16
1000
AR-SAND
1040
2.0
1040
0.0
1002
}
  0
ENDBLK
  5
7A2
100
AcDbEntity
  8
0
100
AcDbBlockEnd
  0
BLOCK
  5
7CF
100
AcDbEntity
  8
0
100
AcDbBlockBegin
  2
65_SP42020TRI
 70
     0
 10
0.0
 20
0.0
 30
0.0
  3
65_SP42020TRI
  1

  0
LINE
  5
7B4
100
AcDbEntity
  8
GLAS_MED_FOGNING
100
AcDbLine
 10
-41.0
 20
62.499998
 30
0.0
 11
-41.0
 21
29.999998
 31
0.0
  0
LINE
  5
7B5
100
AcDbEntity
  8
GLAS_MED_FOGNING
100
AcDbLine
 10
-42.0
 20
62.499998
 30
0.0
 11
-42.0
 21
29.999998
 31
0.0
  0
LINE
  5
7B6
100
AcDbEntity
  8
GLAS_MED_FOGNING
100
AcDbLine
 10
-25.0
 20
62.499998
 30
0.0
 11
-25.0
 21
29.999998
 31
0.0
  0
LINE
  5
7B7
100
AcDbEntity
  8
GLAS_MED_FOGNING
100
AcDbLine
 10
-26.0
 20
62.499998
 30
0.0
 11
-26.0
 21
29.999998
 31
0.0
  0
LINE
  5
7B8
100
AcDbEntity
  8
GLAS_MED_FOGNING
100
AcDbLine
 10
-27.0
 20
62.499998
 30
0.0
 11
-27.0
 21
29.999998
 31
0.0
  0
LINE
  5
7B9
100
AcDbEntity
  8
GLAS_MED_FOGNING
100
AcDbLine
 10
-40.0
 20
62.499998
 30
0.0
 11
-40.0
 21
29.999998
 31
0.0
  0
INSERT
  5
7BA
100
AcDbEntity
  8
GLAS_MED_FOGNING
100
AcDbBlockReference
  2
SP42020
 10
0.0
 20
0.0
 30
0.0
  0
LINE
  5
7BB
100
AcDbEntity
  8
GLAS_MED_FOGNING
100
AcDbLine
 10
-40.0
 20
37.848933
 30
0.0
 11
-27.0
 21
37.848933
 31
0.0
  0
LINE
  5
7BC
100
AcDbEntity
  8
GLAS_MED_FOGNING
100
AcDbLine
 10
-27.0
 20
37.848933
 30
0.0
 11
-40.0
 21
29.999998
 31
0.0
  0
LINE
  5
7BD
100
AcDbEntity
  8
GLAS_MED_FOGNING
100
AcDbLine
 10
-40.0
 20
37.848933
 30
0.0
 11
-27.0
 21
29.999998
 31
0.0
  0
INSERT
  5
7BE
100
AcDbEntity
  8
GLAS_MED_FOGNING
100
AcDbBlockReference
  2
*X50
 10
-195.0
 20
-75.000002
 30
0.0
1001
ACAD
1000
HATCH
1002
{
1070
    16
1000
HEX
1040
5.0
1040
0.0
1002
}
  0
LINE
  5
7BF
100
AcDbEntity
  8
GLAS_MED_FOGNING
100
AcDbLine
 10
-42.0
 20
37.848933
 30
0.0
 11
-54.0
 21
29.999998
 31
0.0
  0
LINE
  5
7C0
100
AcDbEntity
  8
GLAS_MED_FOGNING
100
AcDbLine
 10
-54.0
 20
37.848933
 30
0.0
 11
-42.0
 21
29.999998
 31
0.0
  0
LINE
  5
7C1
100
AcDbEntity
  8
GLAS_MED_FOGNING
100
AcDbLine
 10
-54.0
 20
37.848933
 30
0.0
 11
-42.0
 21
37.848933
 31
0.0
  0
LINE
  5
7C2
100
AcDbEntity
  8
GLAS_MED_FOGNING
100
AcDbLine
 10
-20.0
 20
40.998998
 30
0.0
 11
-25.0
 21
40.998998
 31
0.0
  0
LINE
  5
7C3
100
AcDbEntity
  8
GLAS_MED_FOGNING
100
AcDbLine
 10
-20.0
 20
40.998998
 30
0.0
 11
-20.0
 21
30.998998
 31
0.0
  0
LINE
  5
7C4
100
AcDbEntity
  8
GLAS_MED_FOGNING
100
AcDbLine
 10
-25.0
 20
40.998998
 30
0.0
 11
-25.0
 21
30.998998
 31
0.0
  0
LINE
  5
7C5
100
AcDbEntity
  8
CENTRUM
100
AcDbLine
 10
0.0
 20
62.499998
 30
0.0
 11
-65.0
 21
62.499998
 31
0.0
  0
LINE
  5
7C6
100
AcDbEntity
  8
GLAS_MED_FOGNING
100
AcDbLine
 10
-56.0
 20
62.499998
 30
0.0
 11
-56.0
 21
29.999998
 31
0.0
  0
LINE
  5
7C7
100
AcDbEntity
  8
GLAS_MED_FOGNING
100
AcDbLine
 10
-55.0
 20
62.499998
 30
0.0
 11
-55.0
 21
29.999998
 31
0.0
  0
LINE
  5
7C8
100
AcDbEntity
  8
GLAS_MED_FOGNING
100
AcDbLine
 10
-54.0
 20
62.499998
 30
0.0
 11
-54.0
 21
29.999998
 31
0.0
  0
LINE
  5
7C9
100
AcDbEntity
  8
GLAS_MED_FOGNING
100
AcDbLine
 10
-25.0
 20
29.999998
 30
0.0
 11
-56.0
 21
29.999998
 31
0.0
  0
LINE
  5
7CA
100
AcDbEntity
  8
GLAS_MED_FOGNING
100
AcDbLine
 10
-56.0
 20
29.999998
 30
0.0
 11
-56.0
 21
30.999998
 31
0.0
  0
LINE
  5
7CB
100
AcDbEntity
  8
GLAS_MED_FOGNING
100
AcDbLine
 10
-56.0
 20
40.998998
 30
0.0
 11
-61.4
 21
40.998998
 31
0.0
  0
LINE
  5
7CC
100
AcDbEntity
  8
GLAS_MED_FOGNING
100
AcDbLine
 10
-56.0
 20
30.998998
 30
0.0
 11
-61.4
 21
30.998998
 31
0.0
  0
LINE
  5
7CD
100
AcDbEntity
  8
GLAS_MED_FOGNING
100
AcDbLine
 10
-25.0
 20
29.999998
 30
0.0
 11
-25.0
 21
30.998998
 31
0.0
  0
LINE
  5
7CE
100
AcDbEntity
  8
GLAS_MED_FOGNING
100
AcDbLine
 10
-20.0
 20
30.998998
 30
0.0
 11
-25.0
 21
30.998998
 31
0.0
  0
ENDBLK
  5
7D0
100
AcDbEntity
  8
0
100
AcDbBlockEnd
  0
BLOCK
  5
7F3
100
AcDbEntity
  8
0
100
AcDbBlockBegin
  2
65_SP42020DKTRI
 70
     0
 10
0.0
 20
0.0
 30
0.0
  3
65_SP42020DKTRI
  1

  0
LINE
  5
7D2
100
AcDbEntity
  8
GLAS_MED_FOGNING
100
AcDbLine
 10
-54.0
 20
62.499998
 30
0.0
 11
-54.0
 21
29.999998
 31
0.0
  0
LINE
  5
7D3
100
AcDbEntity
  8
GLAS_MED_FOGNING
100
AcDbLine
 10
-55.0
 20
62.499998
 30
0.0
 11
-55.0
 21
29.999998
 31
0.0
  0
LINE
  5
7D4
100
AcDbEntity
  8
GLAS_MED_FOGNING
100
AcDbLine
 10
-56.0
 20
62.499998
 30
0.0
 11
-56.0
 21
29.999998
 31
0.0
  0
LINE
  5
7D5
100
AcDbEntity
  8
GLAS_MED_FOGNING
100
AcDbLine
 10
-40.0
 20
62.499998
 30
0.0
 11
-40.0
 21
29.999998
 31
0.0
  0
LINE
  5
7D6
100
AcDbEntity
  8
GLAS_MED_FOGNING
100
AcDbLine
 10
-27.0
 20
62.499998
 30
0.0
 11
-27.0
 21
29.999998
 31
0.0
  0
LINE
  5
7D7
100
AcDbEntity
  8
GLAS_MED_FOGNING
100
AcDbLine
 10
-26.0
 20
62.499998
 30
0.0
 11
-26.0
 21
29.999998
 31
0.0
  0
LINE
  5
7D8
100
AcDbEntity
  8
GLAS_MED_FOGNING
100
AcDbLine
 10
-25.0
 20
62.499998
 30
0.0
 11
-25.0
 21
29.999998
 31
0.0
  0
LINE
  5
7D9
100
AcDbEntity
  8
GLAS_MED_FOGNING
100
AcDbLine
 10
-42.0
 20
62.499998
 30
0.0
 11
-42.0
 21
29.999998
 31
0.0
  0
LINE
  5
7DA
100
AcDbEntity
  8
GLAS_MED_FOGNING
100
AcDbLine
 10
-41.0
 20
62.499998
 30
0.0
 11
-41.0
 21
29.999998
 31
0.0
  0
INSERT
  5
7DB
100
AcDbEntity
  8
GLAS_MED_FOGNING
100
AcDbBlockReference
  2
SP42020
 10
0.0
 20
0.0
 30
0.0
  0
LINE
  5
7DC
100
AcDbEntity
  8
GLAS_MED_FOGNING
100
AcDbLine
 10
-25.0
 20
25.0
 30
0.0
 11
-56.0
 21
29.999998
 31
0.0
  0
LINE
  5
7DD
100
AcDbEntity
  8
GLAS_MED_FOGNING
100
AcDbLine
 10
-56.0
 20
25.0
 30
0.0
 11
-25.0
 21
30.0
 31
0.0
  0
LINE
  5
7DE
100
AcDbEntity
  8
GLAS_MED_FOGNING
100
AcDbLine
 10
-56.0
 20
25.0
 30
0.0
 11
-25.0
 21
25.0
 31
0.0
  0
LINE
  5
7DF
100
AcDbEntity
  8
GLAS_MED_FOGNING
100
AcDbLine
 10
-25.0
 20
29.999998
 30
0.0
 11
-56.0
 21
29.999998
 31
0.0
  0
INSERT
  5
7E0
100
AcDbEntity
  8
GLAS_MED_FOGNING
100
AcDbBlockReference
  2
*X50
 10
-195.0
 20
-75.000002
 30
0.0
1001
ACAD
1000
HATCH
1002
{
1070
    16
1000
HEX
1040
5.0
1040
0.0
1002
}
  0
LINE
  5
7E1
100
AcDbEntity
  8
GLAS_MED_FOGNING
100
AcDbLine
 10
-40.0
 20
37.848933
 30
0.0
 11
-27.0
 21
29.999998
 31
0.0
  0
LINE
  5
7E2
100
AcDbEntity
  8
GLAS_MED_FOGNING
100
AcDbLine
 10
-27.0
 20
37.848933
 30
0.0
 11
-40.0
 21
29.999998
 31
0.0
  0
LINE
  5
7E3
100
AcDbEntity
  8
GLAS_MED_FOGNING
100
AcDbLine
 10
-40.0
 20
37.848933
 30
0.0
 11
-27.0
 21
37.848933
 31
0.0
  0
LINE
  5
7E4
100
AcDbEntity
  8
GLAS_MED_FOGNING
100
AcDbLine
 10
-56.0
 20
29.999998
 30
0.0
 11
-56.0
 21
30.999998
 31
0.0
  0
LINE
  5
7E5
100
AcDbEntity
  8
GLAS_MED_FOGNING
100
AcDbLine
 10
-54.0
 20
37.848933
 30
0.0
 11
-42.0
 21
29.999998
 31
0.0
  0
LINE
  5
7E6
100
AcDbEntity
  8
GLAS_MED_FOGNING
100
AcDbLine
 10
-42.0
 20
37.848933
 30
0.0
 11
-54.0
 21
29.999998
 31
0.0
  0
LINE
  5
7E7
100
AcDbEntity
  8
GLAS_MED_FOGNING
100
AcDbLine
 10
-56.0
 20
29.999998
 30
0.0
 11
-56.0
 21
25.0
 31
0.0
  0
LINE
  5
7E8
100
AcDbEntity
  8
GLAS_MED_FOGNING
100
AcDbLine
 10
-56.0
 20
30.998998
 30
0.0
 11
-61.4
 21
30.998998
 31
0.0
  0
LINE
  5
7E9
100
AcDbEntity
  8
GLAS_MED_FOGNING
100
AcDbLine
 10
-56.0
 20
40.998998
 30
0.0
 11
-61.4
 21
40.998998
 31
0.0
  0
LINE
  5
7EA
100
AcDbEntity
  8
GLAS_MED_FOGNING
100
AcDbLine
 10
-61.4
 20
40.998998
 30
0.0
 11
-61.4
 21
30.998998
 31
0.0
  0
LINE
  5
7EB
100
AcDbEntity
  8
GLAS_MED_FOGNING
100
AcDbLine
 10
-54.0
 20
37.848933
 30
0.0
 11
-42.0
 21
37.848933
 31
0.0
  0
LINE
  5
7EC
100
AcDbEntity
  8
GLAS_MED_FOGNING
100
AcDbLine
 10
-25.0
 20
29.999998
 30
0.0
 11
-25.0
 21
30.998998
 31
0.0
  0
LINE
  5
7ED
100
AcDbEntity
  8
GLAS_MED_FOGNING
100
AcDbLine
 10
-25.0
 20
25.0
 30
0.0
 11
-25.0
 21
30.0
 31
0.0
  0
LINE
  5
7EE
100
AcDbEntity
  8
GLAS_MED_FOGNING
100
AcDbLine
 10
-20.0
 20
30.998998
 30
0.0
 11
-25.0
 21
30.998998
 31
0.0
  0
LINE
  5
7EF
100
AcDbEntity
  8
GLAS_MED_FOGNING
100
AcDbLine
 10
-25.0
 20
40.998998
 30
0.0
 11
-25.0
 21
30.998998
 31
0.0
  0
LINE
  5
7F0
100
AcDbEntity
  8
GLAS_MED_FOGNING
100
AcDbLine
 10
-20.0
 20
40.998998
 30
0.0
 11
-20.0
 21
30.998998
 31
0.0
  0
LINE
  5
7F1
100
AcDbEntity
  8
GLAS_MED_FOGNING
100
AcDbLine
 10
-20.0
 20
40.998998
 30
0.0
 11
-25.0
 21
40.998998
 31
0.0
  0
LINE
  5
7F2
100
AcDbEntity
  8
CENTRUM
100
AcDbLine
 10
0.0
 20
62.499998
 30
0.0
 11
-65.0
 21
62.499998
 31
0.0
  0
ENDBLK
  5
7F4
100
AcDbEntity
  8
0
100
AcDbBlockEnd
  0
BLOCK
  5
813
100
AcDbEntity
  8
0
100
AcDbBlockBegin
  2
65_SP43020TRI
 70
     0
 10
0.0
 20
0.0
 30
0.0
  3
65_SP43020TRI
  1

  0
INSERT
  5
7F6
100
AcDbEntity
  8
GLAS_MED_FOGNING
100
AcDbBlockReference
  2
SP43020
 10
0.0
 20
0.0
 30
0.0
  0
LINE
  5
7F7
100
AcDbEntity
  8
CENTRUM
100
AcDbLine
 10
0.0
 20
62.499998
 30
0.0
 11
-65.0
 21
62.499998
 31
0.0
  0
LINE
  5
7F8
100
AcDbEntity
  8
GLAS_MED_FOGNING
100
AcDbLine
 10
-35.0
 20
29.999998
 30
0.0
 11
-56.0
 21
29.999998
 31
0.0
  0
LINE
  5
7F9
100
AcDbEntity
  8
GLAS_MED_FOGNING
100
AcDbLine
 10
-55.0
 20
62.499998
 30
0.0
 11
-55.0
 21
29.999998
 31
0.0
  0
LINE
  5
7FA
100
AcDbEntity
  8
GLAS_MED_FOGNING
100
AcDbLine
 10
-56.0
 20
62.499998
 30
0.0
 11
-56.0
 21
29.999998
 31
0.0
  0
LINE
  5
7FB
100
AcDbEntity
  8
GLAS_MED_FOGNING
100
AcDbLine
 10
-56.0
 20
29.999998
 30
0.0
 11
-56.0
 21
30.999998
 31
0.0
  0
LINE
  5
7FC
100
AcDbEntity
  8
GLAS_MED_FOGNING
100
AcDbLine
 10
-61.4
 20
40.998998
 30
0.0
 11
-61.4
 21
30.998998
 31
0.0
  0
LINE
  5
7FD
100
AcDbEntity
  8
GLAS_MED_FOGNING
100
AcDbLine
 10
-56.0
 20
30.998998
 30
0.0
 11
-61.4
 21
30.998998
 31
0.0
  0
LINE
  5
7FE
100
AcDbEntity
  8
GLAS_MED_FOGNING
100
AcDbLine
 10
-56.0
 20
40.998998
 30
0.0
 11
-61.4
 21
40.998998
 31
0.0
  0
INSERT
  5
7FF
100
AcDbEntity
  8
GLAS_MED_FOGNING
100
AcDbBlockReference
  2
*X52
 10
-1045.0
 20
1340.0
 30
0.0
 50
270.0
1001
ACAD
1000
HATCH
1002
{
1070
    16
1000
HEX
1040
5.0
1040
0.0
1002
}
  0
LINE
  5
800
100
AcDbEntity
  8
GLAS_MED_FOGNING
100
AcDbLine
 10
-47.0
 20
62.499998
 30
0.0
 11
-47.0
 21
29.999998
 31
0.0
  0
LINE
  5
801
100
AcDbEntity
  8
GLAS_MED_FOGNING
100
AcDbLine
 10
-45.0
 20
62.499998
 30
0.0
 11
-45.0
 21
29.999998
 31
0.0
  0
LINE
  5
802
100
AcDbEntity
  8
GLAS_MED_FOGNING
100
AcDbLine
 10
-46.0
 20
62.499998
 30
0.0
 11
-46.0
 21
29.999998
 31
0.0
  0
LINE
  5
803
100
AcDbEntity
  8
GLAS_MED_FOGNING
100
AcDbLine
 10
-54.0
 20
62.499998
 30
0.0
 11
-54.0
 21
29.999998
 31
0.0
  0
LINE
  5
804
100
AcDbEntity
  8
GLAS_MED_FOGNING
100
AcDbLine
 10
-36.0
 20
62.499998
 30
0.0
 11
-36.0
 21
29.999998
 31
0.0
  0
LINE
  5
805
100
AcDbEntity
  8
GLAS_MED_FOGNING
100
AcDbLine
 10
-37.0
 20
62.499998
 30
0.0
 11
-37.0
 21
29.999998
 31
0.0
  0
LINE
  5
806
100
AcDbEntity
  8
GLAS_MED_FOGNING
100
AcDbLine
 10
-35.0
 20
62.499998
 30
0.0
 11
-35.0
 21
29.999998
 31
0.0
  0
LINE
  5
807
100
AcDbEntity
  8
GLAS_MED_FOGNING
100
AcDbLine
 10
-54.0
 20
37.848933
 30
0.0
 11
-47.0
 21
37.848933
 31
0.0
  0
LINE
  5
808
100
AcDbEntity
  8
GLAS_MED_FOGNING
100
AcDbLine
 10
-54.0
 20
37.848933
 30
0.0
 11
-47.0
 21
29.999998
 31
0.0
  0
LINE
  5
809
100
AcDbEntity
  8
GLAS_MED_FOGNING
100
AcDbLine
 10
-47.0
 20
37.848933
 30
0.0
 11
-54.0
 21
29.999998
 31
0.0
  0
LINE
  5
80A
100
AcDbEntity
  8
GLAS_MED_FOGNING
100
AcDbLine
 10
-45.0
 20
37.848933
 30
0.0
 11
-37.0
 21
37.848933
 31
0.0
  0
LINE
  5
80B
100
AcDbEntity
  8
GLAS_MED_FOGNING
100
AcDbLine
 10
-37.0
 20
37.848933
 30
0.0
 11
-45.0
 21
29.999998
 31
0.0
  0
LINE
  5
80C
100
AcDbEntity
  8
GLAS_MED_FOGNING
100
AcDbLine
 10
-45.0
 20
37.848933
 30
0.0
 11
-37.0
 21
29.999998
 31
0.0
  0
LINE
  5
80D
100
AcDbEntity
  8
GLAS_MED_FOGNING
100
AcDbLine
 10
-30.0
 20
40.998998
 30
0.0
 11
-30.0
 21
30.998998
 31
0.0
  0
LINE
  5
80E
100
AcDbEntity
  8
GLAS_MED_FOGNING
100
AcDbLine
 10
-35.0
 20
29.999998
 30
0.0
 11
-35.0
 21
30.998998
 31
0.0
  0
LINE
  5
80F
100
AcDbEntity
  8
GLAS_MED_FOGNING
100
AcDbLine
 10
-35.0
 20
40.998998
 30
0.0
 11
-35.0
 21
30.998998
 31
0.0
  0
INSERT
  5
810
100
AcDbEntity
  8
GLAS_MED_FOGNING
100
AcDbBlockReference
  2
*X51
 10
-1050.0
 20
1340.0
 30
0.0
 50
270.0
1001
ACAD
1000
HATCH
1002
{
1070
    16
1000
HEX
1040
5.0
1040
0.0
1002
}
  0
LINE
  5
811
100
AcDbEntity
  8
GLAS_MED_FOGNING
100
AcDbLine
 10
-30.0
 20
40.998998
 30
0.0
 11
-35.0
 21
40.998998
 31
0.0
  0
LINE
  5
812
100
AcDbEntity
  8
GLAS_MED_FOGNING
100
AcDbLine
 10
-30.0
 20
30.998998
 30
0.0
 11
-35.0
 21
30.998998
 31
0.0
  0
ENDBLK
  5
814
100
AcDbEntity
  8
0
100
AcDbBlockEnd
  0
BLOCK
  5
838
100
AcDbEntity
  8
0
100
AcDbBlockBegin
  2
65_SP43020DKTRI
 70
     0
 10
0.0
 20
0.0
 30
0.0
  3
65_SP43020DKTRI
  1

  0
LINE
  5
816
100
AcDbEntity
  8
GLAS_MED_FOGNING
100
AcDbLine
 10
-35.0
 20
25.0
 30
0.0
 11
-56.0
 21
29.999998
 31
0.0
  0
LINE
  5
817
100
AcDbEntity
  8
GLAS_MED_FOGNING
100
AcDbLine
 10
-56.0
 20
25.0
 30
0.0
 11
-35.0
 21
30.0
 31
0.0
  0
LINE
  5
818
100
AcDbEntity
  8
GLAS_MED_FOGNING
100
AcDbLine
 10
-35.0
 20
25.0
 30
0.0
 11
-35.0
 21
30.0
 31
0.0
  0
LINE
  5
819
100
AcDbEntity
  8
GLAS_MED_FOGNING
100
AcDbLine
 10
-56.0
 20
29.999998
 30
0.0
 11
-56.0
 21
25.0
 31
0.0
  0
INSERT
  5
81A
100
AcDbEntity
  8
GLAS_MED_FOGNING
100
AcDbBlockReference
  2
SP43020
 10
0.0
 20
0.0
 30
0.0
  0
LINE
  5
81B
100
AcDbEntity
  8
GLAS_MED_FOGNING
100
AcDbLine
 10
-56.0
 20
25.0
 30
0.0
 11
-35.0
 21
25.0
 31
0.0
  0
LINE
  5
81C
100
AcDbEntity
  8
CENTRUM
100
AcDbLine
 10
0.0
 20
62.499998
 30
0.0
 11
-65.0
 21
62.499998
 31
0.0
  0
LINE
  5
81D
100
AcDbEntity
  8
GLAS_MED_FOGNING
100
AcDbLine
 10
-35.0
 20
29.999998
 30
0.0
 11
-56.0
 21
29.999998
 31
0.0
  0
LINE
  5
81E
100
AcDbEntity
  8
GLAS_MED_FOGNING
100
AcDbLine
 10
-56.0
 20
62.499998
 30
0.0
 11
-56.0
 21
29.999998
 31
0.0
  0
LINE
  5
81F
100
AcDbEntity
  8
GLAS_MED_FOGNING
100
AcDbLine
 10
-55.0
 20
62.499998
 30
0.0
 11
-55.0
 21
29.999998
 31
0.0
  0
INSERT
  5
820
100
AcDbEntity
  8
GLAS_MED_FOGNING
100
AcDbBlockReference
  2
*X52
 10
-1045.0
 20
1340.0
 30
0.0
 50
270.0
1001
ACAD
1000
HATCH
1002
{
1070
    16
1000
HEX
1040
5.0
1040
0.0
1002
}
  0
LINE
  5
821
100
AcDbEntity
  8
GLAS_MED_FOGNING
100
AcDbLine
 10
-56.0
 20
40.998998
 30
0.0
 11
-61.4
 21
40.998998
 31
0.0
  0
LINE
  5
822
100
AcDbEntity
  8
GLAS_MED_FOGNING
100
AcDbLine
 10
-56.0
 20
30.998998
 30
0.0
 11
-61.4
 21
30.998998
 31
0.0
  0
LINE
  5
823
100
AcDbEntity
  8
GLAS_MED_FOGNING
100
AcDbLine
 10
-61.4
 20
40.998998
 30
0.0
 11
-61.4
 21
30.998998
 31
0.0
  0
LINE
  5
824
100
AcDbEntity
  8
GLAS_MED_FOGNING
100
AcDbLine
 10
-56.0
 20
29.999998
 30
0.0
 11
-56.0
 21
30.999998
 31
0.0
  0
LINE
  5
825
100
AcDbEntity
  8
GLAS_MED_FOGNING
100
AcDbLine
 10
-35.0
 20
62.499998
 30
0.0
 11
-35.0
 21
29.999998
 31
0.0
  0
LINE
  5
826
100
AcDbEntity
  8
GLAS_MED_FOGNING
100
AcDbLine
 10
-37.0
 20
62.499998
 30
0.0
 11
-37.0
 21
29.999998
 31
0.0
  0
LINE
  5
827
100
AcDbEntity
  8
GLAS_MED_FOGNING
100
AcDbLine
 10
-36.0
 20
62.499998
 30
0.0
 11
-36.0
 21
29.999998
 31
0.0
  0
LINE
  5
828
100
AcDbEntity
  8
GLAS_MED_FOGNING
100
AcDbLine
 10
-54.0
 20
62.499998
 30
0.0
 11
-54.0
 21
29.999998
 31
0.0
  0
LINE
  5
829
100
AcDbEntity
  8
GLAS_MED_FOGNING
100
AcDbLine
 10
-46.0
 20
62.499998
 30
0.0
 11
-46.0
 21
29.999998
 31
0.0
  0
LINE
  5
82A
100
AcDbEntity
  8
GLAS_MED_FOGNING
100
AcDbLine
 10
-45.0
 20
62.499998
 30
0.0
 11
-45.0
 21
29.999998
 31
0.0
  0
LINE
  5
82B
100
AcDbEntity
  8
GLAS_MED_FOGNING
100
AcDbLine
 10
-47.0
 20
62.499998
 30
0.0
 11
-47.0
 21
29.999998
 31
0.0
  0
LINE
  5
82C
100
AcDbEntity
  8
GLAS_MED_FOGNING
100
AcDbLine
 10
-45.0
 20
37.848933
 30
0.0
 11
-37.0
 21
29.999998
 31
0.0
  0
LINE
  5
82D
100
AcDbEntity
  8
GLAS_MED_FOGNING
100
AcDbLine
 10
-37.0
 20
37.848933
 30
0.0
 11
-45.0
 21
29.999998
 31
0.0
  0
LINE
  5
82E
100
AcDbEntity
  8
GLAS_MED_FOGNING
100
AcDbLine
 10
-45.0
 20
37.848933
 30
0.0
 11
-37.0
 21
37.848933
 31
0.0
  0
LINE
  5
82F
100
AcDbEntity
  8
GLAS_MED_FOGNING
100
AcDbLine
 10
-47.0
 20
37.848933
 30
0.0
 11
-54.0
 21
29.999998
 31
0.0
  0
LINE
  5
830
100
AcDbEntity
  8
GLAS_MED_FOGNING
100
AcDbLine
 10
-54.0
 20
37.848933
 30
0.0
 11
-47.0
 21
29.999998
 31
0.0
  0
LINE
  5
831
100
AcDbEntity
  8
GLAS_MED_FOGNING
100
AcDbLine
 10
-54.0
 20
37.848933
 30
0.0
 11
-47.0
 21
37.848933
 31
0.0
  0
LINE
  5
832
100
AcDbEntity
  8
GLAS_MED_FOGNING
100
AcDbLine
 10
-30.0
 20
30.998998
 30
0.0
 11
-35.0
 21
30.998998
 31
0.0
  0
LINE
  5
833
100
AcDbEntity
  8
GLAS_MED_FOGNING
100
AcDbLine
 10
-30.0
 20
40.998998
 30
0.0
 11
-35.0
 21
40.998998
 31
0.0
  0
INSERT
  5
834
100
AcDbEntity
  8
GLAS_MED_FOGNING
100
AcDbBlockReference
  2
*X51
 10
-1050.0
 20
1340.0
 30
0.0
 50
270.0
1001
ACAD
1000
HATCH
1002
{
1070
    16
1000
HEX
1040
5.0
1040
0.0
1002
}
  0
LINE
  5
835
100
AcDbEntity
  8
GLAS_MED_FOGNING
100
AcDbLine
 10
-35.0
 20
40.998998
 30
0.0
 11
-35.0
 21
30.998998
 31
0.0
  0
LINE
  5
836
100
AcDbEntity
  8
GLAS_MED_FOGNING
100
AcDbLine
 10
-35.0
 20
29.999998
 30
0.0
 11
-35.0
 21
30.998998
 31
0.0
  0
LINE
  5
837
100
AcDbEntity
  8
GLAS_MED_FOGNING
100
AcDbLine
 10
-30.0
 20
40.998998
 30
0.0
 11
-30.0
 21
30.998998
 31
0.0
  0
ENDBLK
  5
839
100
AcDbEntity
  8
0
100
AcDbBlockEnd
  0
BLOCK
  5
858
100
AcDbEntity
  8
0
100
AcDbBlockBegin
  2
65_SP43520TRI
 70
     0
 10
0.0
 20
0.0
 30
0.0
  3
65_SP43520TRI
  1

  0
INSERT
  5
83B
100
AcDbEntity
  8
GLAS_MED_FOGNING
100
AcDbBlockReference
  2
SP43520
 10
0.0
 20
0.0
 30
0.0
  0
LINE
  5
83C
100
AcDbEntity
  8
CENTRUM
100
AcDbLine
 10
0.0
 20
62.499998
 30
0.0
 11
-65.0
 21
62.499998
 31
0.0
  0
LINE
  5
83D
100
AcDbEntity
  8
GLAS_MED_FOGNING
100
AcDbLine
 10
-40.0
 20
29.999998
 30
0.0
 11
-56.0
 21
29.999998
 31
0.0
  0
LINE
  5
83E
100
AcDbEntity
  8
GLAS_MED_FOGNING
100
AcDbLine
 10
-56.0
 20
62.499998
 30
0.0
 11
-56.0
 21
29.999998
 31
0.0
  0
LINE
  5
83F
100
AcDbEntity
  8
GLAS_MED_FOGNING
100
AcDbLine
 10
-55.0
 20
62.499998
 30
0.0
 11
-55.0
 21
29.999998
 31
0.0
  0
LINE
  5
840
100
AcDbEntity
  8
GLAS_MED_FOGNING
100
AcDbLine
 10
-56.0
 20
30.998998
 30
0.0
 11
-61.4
 21
30.998998
 31
0.0
  0
LINE
  5
841
100
AcDbEntity
  8
GLAS_MED_FOGNING
100
AcDbLine
 10
-56.0
 20
29.999998
 30
0.0
 11
-56.0
 21
30.999998
 31
0.0
  0
LINE
  5
842
100
AcDbEntity
  8
GLAS_MED_FOGNING
100
AcDbLine
 10
-56.0
 20
40.998998
 30
0.0
 11
-61.4
 21
40.998998
 31
0.0
  0
LINE
  5
843
100
AcDbEntity
  8
GLAS_MED_FOGNING
100
AcDbLine
 10
-61.4
 20
40.998998
 30
0.0
 11
-61.4
 21
30.998998
 31
0.0
  0
INSERT
  5
844
100
AcDbEntity
  8
GLAS_MED_FOGNING
100
AcDbBlockReference
  2
*X52
 10
-1045.0
 20
1340.0
 30
0.0
 50
270.0
1001
ACAD
1000
HATCH
1002
{
1070
    16
1000
HEX
1040
5.0
1040
0.0
1002
}
  0
LINE
  5
845
100
AcDbEntity
  8
GLAS_MED_FOGNING
100
AcDbLine
 10
-49.5
 20
62.499998
 30
0.0
 11
-49.5
 21
29.999998
 31
0.0
  0
LINE
  5
846
100
AcDbEntity
  8
GLAS_MED_FOGNING
100
AcDbLine
 10
-47.5
 20
62.499998
 30
0.0
 11
-47.5
 21
29.999998
 31
0.0
  0
LINE
  5
847
100
AcDbEntity
  8
GLAS_MED_FOGNING
100
AcDbLine
 10
-48.5
 20
62.499998
 30
0.0
 11
-48.5
 21
29.999998
 31
0.0
  0
LINE
  5
848
100
AcDbEntity
  8
GLAS_MED_FOGNING
100
AcDbLine
 10
-54.0
 20
62.499998
 30
0.0
 11
-54.0
 21
29.999998
 31
0.0
  0
LINE
  5
849
100
AcDbEntity
  8
GLAS_MED_FOGNING
100
AcDbLine
 10
-40.0
 20
62.499998
 30
0.0
 11
-40.0
 21
29.999998
 31
0.0
  0
LINE
  5
84A
100
AcDbEntity
  8
GLAS_MED_FOGNING
100
AcDbLine
 10
-42.0
 20
62.499998
 30
0.0
 11
-42.0
 21
29.999998
 31
0.0
  0
LINE
  5
84B
100
AcDbEntity
  8
GLAS_MED_FOGNING
100
AcDbLine
 10
-41.0
 20
62.499998
 30
0.0
 11
-41.0
 21
29.999998
 31
0.0
  0
LINE
  5
84C
100
AcDbEntity
  8
GLAS_MED_FOGNING
100
AcDbLine
 10
-35.0
 20
30.998998
 30
0.0
 11
-40.0
 21
30.998998
 31
0.0
  0
LINE
  5
84D
100
AcDbEntity
  8
GLAS_MED_FOGNING
100
AcDbLine
 10
-35.0
 20
40.998998
 30
0.0
 11
-40.0
 21
40.998998
 31
0.0
  0
INSERT
  5
84E
100
AcDbEntity
  8
GLAS_MED_FOGNING
100
AcDbBlockReference
  2
*X51
 10
-1055.0
 20
1340.0
 30
0.0
 50
270.0
1001
ACAD
1000
HATCH
1002
{
1070
    16
1000
HEX
1040
5.0
1040
0.0
1002
}
  0
LINE
  5
84F
100
AcDbEntity
  8
GLAS_MED_FOGNING
100
AcDbLine
 10
-40.0
 20
29.999998
 30
0.0
 11
-40.0
 21
30.998998
 31
0.0
  0
LINE
  5
850
100
AcDbEntity
  8
GLAS_MED_FOGNING
100
AcDbLine
 10
-47.5
 20
37.848933
 30
0.0
 11
-42.0
 21
37.848933
 31
0.0
  0
LINE
  5
851
100
AcDbEntity
  8
GLAS_MED_FOGNING
100
AcDbLine
 10
-42.0
 20
37.848933
 30
0.0
 11
-47.5
 21
29.999998
 31
0.0
  0
LINE
  5
852
100
AcDbEntity
  8
GLAS_MED_FOGNING
100
AcDbLine
 10
-47.5
 20
37.848933
 30
0.0
 11
-42.0
 21
29.999998
 31
0.0
  0
LINE
  5
853
100
AcDbEntity
  8
GLAS_MED_FOGNING
100
AcDbLine
 10
-40.0
 20
40.998998
 30
0.0
 11
-40.0
 21
30.998998
 31
0.0
  0
LINE
  5
854
100
AcDbEntity
  8
GLAS_MED_FOGNING
100
AcDbLine
 10
-54.0
 20
37.848933
 30
0.0
 11
-49.5
 21
37.848933
 31
0.0
  0
LINE
  5
855
100
AcDbEntity
  8
GLAS_MED_FOGNING
100
AcDbLine
 10
-49.5
 20
37.848933
 30
0.0
 11
-54.0
 21
29.999998
 31
0.0
  0
LINE
  5
856
100
AcDbEntity
  8
GLAS_MED_FOGNING
100
AcDbLine
 10
-54.0
 20
37.848933
 30
0.0
 11
-49.5
 21
29.999998
 31
0.0
  0
LINE
  5
857
100
AcDbEntity
  8
GLAS_MED_FOGNING
100
AcDbLine
 10
-35.0
 20
40.998998
 30
0.0
 11
-35.0
 21
30.998998
 31
0.0
  0
ENDBLK
  5
859
100
AcDbEntity
  8
0
100
AcDbBlockEnd
  0
BLOCK
  5
87D
100
AcDbEntity
  8
0
100
AcDbBlockBegin
  2
65_SP43520DKTRI
 70
     0
 10
0.0
 20
0.0
 30
0.0
  3
65_SP43520DKTRI
  1

  0
LINE
  5
85B
100
AcDbEntity
  8
GLAS_MED_FOGNING
100
AcDbLine
 10
-56.0
 20
29.999998
 30
0.0
 11
-40.0
 21
25.0
 31
0.0
  0
LINE
  5
85C
100
AcDbEntity
  8
GLAS_MED_FOGNING
100
AcDbLine
 10
-56.0
 20
25.0
 30
0.0
 11
-40.0
 21
30.0
 31
0.0
  0
LINE
  5
85D
100
AcDbEntity
  8
GLAS_MED_FOGNING
100
AcDbLine
 10
-40.0
 20
25.0
 30
0.0
 11
-40.0
 21
30.0
 31
0.0
  0
LINE
  5
85E
100
AcDbEntity
  8
GLAS_MED_FOGNING
100
AcDbLine
 10
-56.0
 20
29.999998
 30
0.0
 11
-56.0
 21
25.0
 31
0.0
  0
INSERT
  5
85F
100
AcDbEntity
  8
GLAS_MED_FOGNING
100
AcDbBlockReference
  2
SP43520
 10
0.0
 20
0.0
 30
0.0
  0
LINE
  5
860
100
AcDbEntity
  8
GLAS_MED_FOGNING
100
AcDbLine
 10
-56.0
 20
25.0
 30
0.0
 11
-40.0
 21
25.0
 31
0.0
  0
LINE
  5
861
100
AcDbEntity
  8
CENTRUM
100
AcDbLine
 10
0.0
 20
62.499998
 30
0.0
 11
-65.0
 21
62.499998
 31
0.0
  0
LINE
  5
862
100
AcDbEntity
  8
GLAS_MED_FOGNING
100
AcDbLine
 10
-40.0
 20
29.999998
 30
0.0
 11
-56.0
 21
29.999998
 31
0.0
  0
LINE
  5
863
100
AcDbEntity
  8
GLAS_MED_FOGNING
100
AcDbLine
 10
-55.0
 20
62.499998
 30
0.0
 11
-55.0
 21
29.999998
 31
0.0
  0
LINE
  5
864
100
AcDbEntity
  8
GLAS_MED_FOGNING
100
AcDbLine
 10
-56.0
 20
62.499998
 30
0.0
 11
-56.0
 21
29.999998
 31
0.0
  0
INSERT
  5
865
100
AcDbEntity
  8
GLAS_MED_FOGNING
100
AcDbBlockReference
  2
*X52
 10
-1045.0
 20
1340.0
 30
0.0
 50
270.0
1001
ACAD
1000
HATCH
1002
{
1070
    16
1000
HEX
1040
5.0
1040
0.0
1002
}
  0
LINE
  5
866
100
AcDbEntity
  8
GLAS_MED_FOGNING
100
AcDbLine
 10
-61.4
 20
40.998998
 30
0.0
 11
-61.4
 21
30.998998
 31
0.0
  0
LINE
  5
867
100
AcDbEntity
  8
GLAS_MED_FOGNING
100
AcDbLine
 10
-56.0
 20
40.998998
 30
0.0
 11
-61.4
 21
40.998998
 31
0.0
  0
LINE
  5
868
100
AcDbEntity
  8
GLAS_MED_FOGNING
100
AcDbLine
 10
-56.0
 20
29.999998
 30
0.0
 11
-56.0
 21
30.999998
 31
0.0
  0
LINE
  5
869
100
AcDbEntity
  8
GLAS_MED_FOGNING
100
AcDbLine
 10
-56.0
 20
30.998998
 30
0.0
 11
-61.4
 21
30.998998
 31
0.0
  0
LINE
  5
86A
100
AcDbEntity
  8
GLAS_MED_FOGNING
100
AcDbLine
 10
-41.0
 20
62.499998
 30
0.0
 11
-41.0
 21
29.999998
 31
0.0
  0
LINE
  5
86B
100
AcDbEntity
  8
GLAS_MED_FOGNING
100
AcDbLine
 10
-42.0
 20
62.499998
 30
0.0
 11
-42.0
 21
29.999998
 31
0.0
  0
LINE
  5
86C
100
AcDbEntity
  8
GLAS_MED_FOGNING
100
AcDbLine
 10
-40.0
 20
62.499998
 30
0.0
 11
-40.0
 21
29.999998
 31
0.0
  0
LINE
  5
86D
100
AcDbEntity
  8
GLAS_MED_FOGNING
100
AcDbLine
 10
-54.0
 20
62.499998
 30
0.0
 11
-54.0
 21
29.999998
 31
0.0
  0
LINE
  5
86E
100
AcDbEntity
  8
GLAS_MED_FOGNING
100
AcDbLine
 10
-48.5
 20
62.499998
 30
0.0
 11
-48.5
 21
29.999998
 31
0.0
  0
LINE
  5
86F
100
AcDbEntity
  8
GLAS_MED_FOGNING
100
AcDbLine
 10
-47.5
 20
62.499998
 30
0.0
 11
-47.5
 21
29.999998
 31
0.0
  0
LINE
  5
870
100
AcDbEntity
  8
GLAS_MED_FOGNING
100
AcDbLine
 10
-49.5
 20
62.499998
 30
0.0
 11
-49.5
 21
29.999998
 31
0.0
  0
INSERT
  5
871
100
AcDbEntity
  8
GLAS_MED_FOGNING
100
AcDbBlockReference
  2
*X51
 10
-1055.0
 20
1340.0
 30
0.0
 50
270.0
1001
ACAD
1000
HATCH
1002
{
1070
    16
1000
HEX
1040
5.0
1040
0.0
1002
}
  0
LINE
  5
872
100
AcDbEntity
  8
GLAS_MED_FOGNING
100
AcDbLine
 10
-35.0
 20
40.998998
 30
0.0
 11
-40.0
 21
40.998998
 31
0.0
  0
LINE
  5
873
100
AcDbEntity
  8
GLAS_MED_FOGNING
100
AcDbLine
 10
-35.0
 20
30.998998
 30
0.0
 11
-40.0
 21
30.998998
 31
0.0
  0
LINE
  5
874
100
AcDbEntity
  8
GLAS_MED_FOGNING
100
AcDbLine
 10
-54.0
 20
37.848933
 30
0.0
 11
-49.5
 21
29.999998
 31
0.0
  0
LINE
  5
875
100
AcDbEntity
  8
GLAS_MED_FOGNING
100
AcDbLine
 10
-49.5
 20
37.848933
 30
0.0
 11
-54.0
 21
29.999998
 31
0.0
  0
LINE
  5
876
100
AcDbEntity
  8
GLAS_MED_FOGNING
100
AcDbLine
 10
-54.0
 20
37.848933
 30
0.0
 11
-49.5
 21
37.848933
 31
0.0
  0
LINE
  5
877
100
AcDbEntity
  8
GLAS_MED_FOGNING
100
AcDbLine
 10
-40.0
 20
40.998998
 30
0.0
 11
-40.0
 21
30.998998
 31
0.0
  0
LINE
  5
878
100
AcDbEntity
  8
GLAS_MED_FOGNING
100
AcDbLine
 10
-47.5
 20
37.848933
 30
0.0
 11
-42.0
 21
29.999998
 31
0.0
  0
LINE
  5
879
100
AcDbEntity
  8
GLAS_MED_FOGNING
100
AcDbLine
 10
-42.0
 20
37.848933
 30
0.0
 11
-47.5
 21
29.999998
 31
0.0
  0
LINE
  5
87A
100
AcDbEntity
  8
GLAS_MED_FOGNING
100
AcDbLine
 10
-47.5
 20
37.848933
 30
0.0
 11
-42.0
 21
37.848933
 31
0.0
  0
LINE
  5
87B
100
AcDbEntity
  8
GLAS_MED_FOGNING
100
AcDbLine
 10
-40.0
 20
29.999998
 30
0.0
 11
-40.0
 21
30.998998
 31
0.0
  0
LINE
  5
87C
100
AcDbEntity
  8
GLAS_MED_FOGNING
100
AcDbLine
 10
-35.0
 20
40.998998
 30
0.0
 11
-35.0
 21
30.998998
 31
0.0
  0
ENDBLK
  5
87E
100
AcDbEntity
  8
0
100
AcDbBlockEnd
  0
BLOCK
  5
89D
100
AcDbEntity
  8
0
100
AcDbBlockBegin
  2
65_SP44020TRI
 70
     0
 10
0.0
 20
0.0
 30
0.0
  3
65_SP44020TRI
  1

  0
INSERT
  5
880
100
AcDbEntity
  8
GLAS_MED_FOGNING
100
AcDbBlockReference
  2
SP44020
 10
0.0
 20
0.0
 30
0.0
  0
LINE
  5
881
100
AcDbEntity
  8
CENTRUM
100
AcDbLine
 10
0.0
 20
62.499998
 30
0.0
 11
-64.5
 21
62.499998
 31
0.0
  0
LINE
  5
882
100
AcDbEntity
  8
GLAS_MED_FOGNING
100
AcDbLine
 10
-45.0
 20
29.999998
 30
0.0
 11
-56.0
 21
29.999998
 31
0.0
  0
LINE
  5
883
100
AcDbEntity
  8
GLAS_MED_FOGNING
100
AcDbLine
 10
-55.0
 20
62.499998
 30
0.0
 11
-55.0
 21
29.999998
 31
0.0
  0
LINE
  5
884
100
AcDbEntity
  8
GLAS_MED_FOGNING
100
AcDbLine
 10
-56.0
 20
62.499998
 30
0.0
 11
-56.0
 21
29.999998
 31
0.0
  0
LINE
  5
885
100
AcDbEntity
  8
GLAS_MED_FOGNING
100
AcDbLine
 10
-56.0
 20
29.999998
 30
0.0
 11
-56.0
 21
30.999998
 31
0.0
  0
LINE
  5
886
100
AcDbEntity
  8
GLAS_MED_FOGNING
100
AcDbLine
 10
-56.0
 20
30.998998
 30
0.0
 11
-61.4
 21
30.998998
 31
0.0
  0
LINE
  5
887
100
AcDbEntity
  8
GLAS_MED_FOGNING
100
AcDbLine
 10
-56.0
 20
40.998998
 30
0.0
 11
-61.4
 21
40.998998
 31
0.0
  0
LINE
  5
888
100
AcDbEntity
  8
GLAS_MED_FOGNING
100
AcDbLine
 10
-61.4
 20
40.998998
 30
0.0
 11
-61.4
 21
30.998998
 31
0.0
  0
INSERT
  5
889
100
AcDbEntity
  8
GLAS_MED_FOGNING
100
AcDbBlockReference
  2
*X52
 10
-1045.0
 20
1340.0
 30
0.0
 50
270.0
1001
ACAD
1000
HATCH
1002
{
1070
    16
1000
HEX
1040
5.0
1040
0.0
1002
}
  0
LINE
  5
88A
100
AcDbEntity
  8
GLAS_MED_FOGNING
100
AcDbLine
 10
-46.0
 20
62.499998
 30
0.0
 11
-46.0
 21
29.999998
 31
0.0
  0
LINE
  5
88B
100
AcDbEntity
  8
GLAS_MED_FOGNING
100
AcDbLine
 10
-47.0
 20
62.499998
 30
0.0
 11
-47.0
 21
29.999998
 31
0.0
  0
LINE
  5
88C
100
AcDbEntity
  8
GLAS_MED_FOGNING
100
AcDbLine
 10
-45.0
 20
62.499998
 30
0.0
 11
-45.0
 21
29.999998
 31
0.0
  0
LINE
  5
88D
100
AcDbEntity
  8
GLAS_MED_FOGNING
100
AcDbLine
 10
-51.5
 20
62.499998
 30
0.0
 11
-51.5
 21
29.999998
 31
0.0
  0
LINE
  5
88E
100
AcDbEntity
  8
GLAS_MED_FOGNING
100
AcDbLine
 10
-49.5
 20
62.499998
 30
0.0
 11
-49.5
 21
29.999998
 31
0.0
  0
LINE
  5
88F
100
AcDbEntity
  8
GLAS_MED_FOGNING
100
AcDbLine
 10
-50.5
 20
62.499998
 30
0.0
 11
-50.5
 21
29.999998
 31
0.0
  0
LINE
  5
890
100
AcDbEntity
  8
GLAS_MED_FOGNING
100
AcDbLine
 10
-54.0
 20
62.499998
 30
0.0
 11
-54.0
 21
29.999998
 31
0.0
  0
LINE
  5
891
100
AcDbEntity
  8
GLAS_MED_FOGNING
100
AcDbLine
 10
-40.0
 20
40.998998
 30
0.0
 11
-40.0
 21
30.998998
 31
0.0
  0
LINE
  5
892
100
AcDbEntity
  8
GLAS_MED_FOGNING
100
AcDbLine
 10
-45.0
 20
29.999998
 30
0.0
 11
-45.0
 21
30.998998
 31
0.0
  0
LINE
  5
893
100
AcDbEntity
  8
GLAS_MED_FOGNING
100
AcDbLine
 10
-49.5
 20
37.848933
 30
0.0
 11
-47.0
 21
37.848933
 31
0.0
  0
LINE
  5
894
100
AcDbEntity
  8
GLAS_MED_FOGNING
100
AcDbLine
 10
-45.0
 20
40.998998
 30
0.0
 11
-45.0
 21
30.998998
 31
0.0
  0
LINE
  5
895
100
AcDbEntity
  8
GLAS_MED_FOGNING
100
AcDbLine
 10
-47.0
 20
37.848933
 30
0.0
 11
-49.5
 21
29.999998
 31
0.0
  0
LINE
  5
896
100
AcDbEntity
  8
GLAS_MED_FOGNING
100
AcDbLine
 10
-49.5
 20
37.848933
 30
0.0
 11
-47.0
 21
29.999998
 31
0.0
  0
INSERT
  5
897
100
AcDbEntity
  8
GLAS_MED_FOGNING
100
AcDbBlockReference
  2
*X51
 10
-1060.0
 20
1340.0
 30
0.0
 50
270.0
1001
ACAD
1000
HATCH
1002
{
1070
    16
1000
HEX
1040
5.0
1040
0.0
1002
}
  0
LINE
  5
898
100
AcDbEntity
  8
GLAS_MED_FOGNING
100
AcDbLine
 10
-40.0
 20
40.998998
 30
0.0
 11
-45.0
 21
40.998998
 31
0.0
  0
LINE
  5
899
100
AcDbEntity
  8
GLAS_MED_FOGNING
100
AcDbLine
 10
-40.0
 20
30.998998
 30
0.0
 11
-45.0
 21
30.998998
 31
0.0
  0
LINE
  5
89A
100
AcDbEntity
  8
GLAS_MED_FOGNING
100
AcDbLine
 10
-54.0
 20
37.848933
 30
0.0
 11
-51.5
 21
37.848933
 31
0.0
  0
LINE
  5
89B
100
AcDbEntity
  8
GLAS_MED_FOGNING
100
AcDbLine
 10
-54.0
 20
37.848933
 30
0.0
 11
-51.5
 21
29.999998
 31
0.0
  0
LINE
  5
89C
100
AcDbEntity
  8
GLAS_MED_FOGNING
100
AcDbLine
 10
-51.5
 20
37.848933
 30
0.0
 11
-54.0
 21
29.999998
 31
0.0
  0
ENDBLK
  5
89E
100
AcDbEntity
  8
0
100
AcDbBlockEnd
  0
BLOCK
  5
8C2
100
AcDbEntity
  8
0
100
AcDbBlockBegin
  2
65_SP44020DKTRI
 70
     0
 10
0.0
 20
0.0
 30
0.0
  3
65_SP44020DKTRI
  1

  0
LINE
  5
8A0
100
AcDbEntity
  8
GLAS_MED_FOGNING
100
AcDbLine
 10
-56.0
 20
29.999998
 30
0.0
 11
-45.0
 21
25.0
 31
0.0
  0
LINE
  5
8A1
100
AcDbEntity
  8
GLAS_MED_FOGNING
100
AcDbLine
 10
-56.0
 20
25.0
 30
0.0
 11
-45.0
 21
30.0
 31
0.0
  0
LINE
  5
8A2
100
AcDbEntity
  8
GLAS_MED_FOGNING
100
AcDbLine
 10
-45.0
 20
25.0
 30
0.0
 11
-45.0
 21
30.0
 31
0.0
  0
LINE
  5
8A3
100
AcDbEntity
  8
GLAS_MED_FOGNING
100
AcDbLine
 10
-56.0
 20
29.999998
 30
0.0
 11
-56.0
 21
25.0
 31
0.0
  0
INSERT
  5
8A4
100
AcDbEntity
  8
GLAS_MED_FOGNING
100
AcDbBlockReference
  2
SP44020
 10
0.0
 20
0.0
 30
0.0
  0
LINE
  5
8A5
100
AcDbEntity
  8
GLAS_MED_FOGNING
100
AcDbLine
 10
-56.0
 20
25.0
 30
0.0
 11
-45.0
 21
25.0
 31
0.0
  0
LINE
  5
8A6
100
AcDbEntity
  8
CENTRUM
100
AcDbLine
 10
0.0
 20
62.499998
 30
0.0
 11
-64.5
 21
62.499998
 31
0.0
  0
LINE
  5
8A7
100
AcDbEntity
  8
GLAS_MED_FOGNING
100
AcDbLine
 10
-45.0
 20
29.999998
 30
0.0
 11
-56.0
 21
29.999998
 31
0.0
  0
LINE
  5
8A8
100
AcDbEntity
  8
GLAS_MED_FOGNING
100
AcDbLine
 10
-56.0
 20
62.499998
 30
0.0
 11
-56.0
 21
29.999998
 31
0.0
  0
LINE
  5
8A9
100
AcDbEntity
  8
GLAS_MED_FOGNING
100
AcDbLine
 10
-55.0
 20
62.499998
 30
0.0
 11
-55.0
 21
29.999998
 31
0.0
  0
INSERT
  5
8AA
100
AcDbEntity
  8
GLAS_MED_FOGNING
100
AcDbBlockReference
  2
*X52
 10
-1045.0
 20
1340.0
 30
0.0
 50
270.0
1001
ACAD
1000
HATCH
1002
{
1070
    16
1000
HEX
1040
5.0
1040
0.0
1002
}
  0
LINE
  5
8AB
100
AcDbEntity
  8
GLAS_MED_FOGNING
100
AcDbLine
 10
-61.4
 20
40.998998
 30
0.0
 11
-61.4
 21
30.998998
 31
0.0
  0
LINE
  5
8AC
100
AcDbEntity
  8
GLAS_MED_FOGNING
100
AcDbLine
 10
-56.0
 20
40.998998
 30
0.0
 11
-61.4
 21
40.998998
 31
0.0
  0
LINE
  5
8AD
100
AcDbEntity
  8
GLAS_MED_FOGNING
100
AcDbLine
 10
-56.0
 20
30.998998
 30
0.0
 11
-61.4
 21
30.998998
 31
0.0
  0
LINE
  5
8AE
100
AcDbEntity
  8
GLAS_MED_FOGNING
100
AcDbLine
 10
-56.0
 20
29.999998
 30
0.0
 11
-56.0
 21
30.999998
 31
0.0
  0
LINE
  5
8AF
100
AcDbEntity
  8
GLAS_MED_FOGNING
100
AcDbLine
 10
-54.0
 20
62.499998
 30
0.0
 11
-54.0
 21
29.999998
 31
0.0
  0
LINE
  5
8B0
100
AcDbEntity
  8
GLAS_MED_FOGNING
100
AcDbLine
 10
-50.5
 20
62.499998
 30
0.0
 11
-50.5
 21
29.999998
 31
0.0
  0
LINE
  5
8B1
100
AcDbEntity
  8
GLAS_MED_FOGNING
100
AcDbLine
 10
-49.5
 20
62.499998
 30
0.0
 11
-49.5
 21
29.999998
 31
0.0
  0
LINE
  5
8B2
100
AcDbEntity
  8
GLAS_MED_FOGNING
100
AcDbLine
 10
-51.5
 20
62.499998
 30
0.0
 11
-51.5
 21
29.999998
 31
0.0
  0
LINE
  5
8B3
100
AcDbEntity
  8
GLAS_MED_FOGNING
100
AcDbLine
 10
-45.0
 20
62.499998
 30
0.0
 11
-45.0
 21
29.999998
 31
0.0
  0
LINE
  5
8B4
100
AcDbEntity
  8
GLAS_MED_FOGNING
100
AcDbLine
 10
-47.0
 20
62.499998
 30
0.0
 11
-47.0
 21
29.999998
 31
0.0
  0
LINE
  5
8B5
100
AcDbEntity
  8
GLAS_MED_FOGNING
100
AcDbLine
 10
-46.0
 20
62.499998
 30
0.0
 11
-46.0
 21
29.999998
 31
0.0
  0
LINE
  5
8B6
100
AcDbEntity
  8
GLAS_MED_FOGNING
100
AcDbLine
 10
-51.5
 20
37.848933
 30
0.0
 11
-54.0
 21
29.999998
 31
0.0
  0
LINE
  5
8B7
100
AcDbEntity
  8
GLAS_MED_FOGNING
100
AcDbLine
 10
-54.0
 20
37.848933
 30
0.0
 11
-51.5
 21
29.999998
 31
0.0
  0
LINE
  5
8B8
100
AcDbEntity
  8
GLAS_MED_FOGNING
100
AcDbLine
 10
-54.0
 20
37.848933
 30
0.0
 11
-51.5
 21
37.848933
 31
0.0
  0
LINE
  5
8B9
100
AcDbEntity
  8
GLAS_MED_FOGNING
100
AcDbLine
 10
-40.0
 20
30.998998
 30
0.0
 11
-45.0
 21
30.998998
 31
0.0
  0
LINE
  5
8BA
100
AcDbEntity
  8
GLAS_MED_FOGNING
100
AcDbLine
 10
-40.0
 20
40.998998
 30
0.0
 11
-45.0
 21
40.998998
 31
0.0
  0
INSERT
  5
8BB
100
AcDbEntity
  8
GLAS_MED_FOGNING
100
AcDbBlockReference
  2
*X51
 10
-1060.0
 20
1340.0
 30
0.0
 50
270.0
1001
ACAD
1000
HATCH
1002
{
1070
    16
1000
HEX
1040
5.0
1040
0.0
1002
}
  0
LINE
  5
8BC
100
AcDbEntity
  8
GLAS_MED_FOGNING
100
AcDbLine
 10
-49.5
 20
37.848933
 30
0.0
 11
-47.0
 21
29.999998
 31
0.0
  0
LINE
  5
8BD
100
AcDbEntity
  8
GLAS_MED_FOGNING
100
AcDbLine
 10
-47.0
 20
37.848933
 30
0.0
 11
-49.5
 21
29.999998
 31
0.0
  0
LINE
  5
8BE
100
AcDbEntity
  8
GLAS_MED_FOGNING
100
AcDbLine
 10
-45.0
 20
40.998998
 30
0.0
 11
-45.0
 21
30.998998
 31
0.0
  0
LINE
  5
8BF
100
AcDbEntity
  8
GLAS_MED_FOGNING
100
AcDbLine
 10
-49.5
 20
37.848933
 30
0.0
 11
-47.0
 21
37.848933
 31
0.0
  0
LINE
  5
8C0
100
AcDbEntity
  8
GLAS_MED_FOGNING
100
AcDbLine
 10
-45.0
 20
29.999998
 30
0.0
 11
-45.0
 21
30.998998
 31
0.0
  0
LINE
  5
8C1
100
AcDbEntity
  8
GLAS_MED_FOGNING
100
AcDbLine
 10
-40.0
 20
40.998998
 30
0.0
 11
-40.0
 21
30.998998
 31
0.0
  0
ENDBLK
  5
8C3
100
AcDbEntity
  8
0
100
AcDbBlockEnd
  0
BLOCK
  5
BFF
100
AcDbEntity
  8
0
100
AcDbBlockBegin
  2
SP40067
 70
     0
 10
0.0
 20
0.0
 30
0.0
  3
SP40067
  1

  0
LWPOLYLINE
  5
C00
100
AcDbEntity
  8
GLAS_MED_FOGNING
100
AcDbPolyline
 90
        4
 70
     1
 43
0.0
 10
-33.696081
 20
21.539146
 10
-33.696081
 20
41.539146
 10
-31.196081
 20
41.539146
 10
-31.196081
 20
21.539146
  0
INSERT
  5
C01
100
AcDbEntity
  8
FOGNINGB
100
AcDbBlockReference
  2
*X76
 10
631.303919
 20
-118.460854
 30
0.0
 41
-1.0
1001
ACAD
1000
HATCH
1002
{
1070
    16
1000
ANSI38
1040
10.0
1040
0.0
1002
}
  0
HATCH
  5
C02
100
AcDbEntity
  8
GLAS_MED_FOGNING
100
AcDbHatch
 10
0.0
 20
0.0
 30
0.0
210
0.0
220
0.0
230
1.0
  2
ANSI36
 70
     0
 71
     1
 91
        3
 92
        7
 72
     1
 73
     1
 93
       48
 10
-25.0
 20
39.97890684733289
 42
0.0
 10
-25.0
 20
60.80301393267262
 42
0.0
 10
-24.01978609710317
 20
64.18300140293871
 42
0.427352842752553
 10
-24.38230919796443
 20
64.80821744148196
 42
0.0
 10
-25.08709473740879
 20
64.97890684733295
 42
0.0
 10
-31.19999999999986
 20
64.97890684733292
 42
0.1077283451384715
 10
-46.79815202475421
 20
65.28449079518265
 42
0.1486704827604817
 10
-47.05480231603347
 20
65.14752426839919
 42
0.0
 10
-48.2
 20
64.00232658443261
 42
0.0
 10
-48.86957849403422
 20
64.74126011159447
 42
0.5304548527028424
 10
-50.18117038868346
 20
64.55531922786661
 42
0.0
 10
-52.44703903332089
 20
59.91848391316484
 42
0.9807093936852881
 10
-51.73538096243532
 20
59.55338117010438
 42
0.0
 10
-49.42188091482544
 20
63.85446963778974
 42
0.0
 10
-48.2
 20
62.10944284480556
 42
0.0
 10
-48.20000000000006
 20
55.97569277502012
 42
0.0
 10
-49.91861841993006
 20
53.52125130424681
 42
0.9392182275127193
 10
-49.21653790520124
 20
52.96097799321273
 42
0.0
 10
-48.35100410835107
 20
53.91616390058977
 42
-0.6594954787119062
 10
-48.17717000875041
 20
53.85634067194084
 42
0.7274193885212736
 10
-32.46563107451656
 20
50.01640684733292
 42
-0.260162543059864
 10
-31.18897773472539
 20
50.72890684733292
 42
0.0
 10
-28.19999999999999
 20
50.72890684733292
 42
-0.414213562373064
 10
-28.00000000000004
 20
50.52890684733291
 42
0.0
 10
-28.00000000000004
 20
39.97890684733292
 42
0.0
 10
-28.00000000000004
 20
14.42890684733285
 42
-0.4142135623730326
 10
-28.20000000000004
 20
14.22890684733289
 42
0.0
 10
-31.18897773472532
 20
14.22890684733289
 42
-0.2601625430598713
 10
-32.46563107451656
 20
14.94140684733287
 42
0.7274193885212731
 10
-48.17717000875041
 20
11.101473022725
 42
-0.6594954787121514
 10
-48.3510041083511
 20
11.04164979407606
 42
0.0
 10
-49.21653790520136
 20
11.99683570145323
 42
0.9392182275129085
 10
-49.91861841993027
 20
11.43656239041924
 42
0.0
 10
-48.20000000000006
 20
8.982120919645709
 42
0.0
 10
-48.2
 20
2.848370849860273
 42
0.0
 10
-49.42188091482544
 20
1.103344056876068
 42
0.0
 10
-51.73538096243548
 20
5.404432524561698
 42
0.9807093936815265
 10
-52.44703903332167
 20
5.039329781502601
 42
0.0
 10
-50.1811703886835
 20
0.4024944667992685
 42
0.530454852702854
 10
-48.86957849403424
 20
0.2165535830713878
 42
0.0
 10
-48.2
 20
0.9554871102332356
 42
0.0
 10
-47.05480231603352
 20
-0.189710573733322
 42
0.1486704827604419
 10
-46.79815202475436
 20
-0.3266771005168039
 42
0.1077283451384722
 10
-31.1999999999999
 20
-0.0210931526671061
 42
0.0
 10
-25.08709473740888
 20
-0.0210931526671203
 42
0.0
 10
-24.38230919796443
 20
0.149596253183887
 42
0.427352842752528
 10
-24.01978609710318
 20
0.7748122917271303
 42
0.0
 10
-25.0
 20
4.154799761993103
 42
0.0
 97
       48
330
C4F
330
C5B
330
C5A
330
C57
330
C56
330
C55
330
C54
330
C53
330
C52
330
C59
330
C42
330
C4B
330
C4A
330
C49
330
C45
330
C4D
330
C3B
330
C64
330
C60
330
C07
330
C36
330
C0E
330
C2D
330
C25
330
C2B
330
C2A
330
C29
330
C14
330
C23
330
C20
330
C1F
330
C1E
330
C1D
330
C1C
330
C1B
330
C21
330
C22
330
C17
330
C11
330
C32
330
C33
330
C31
330
C06
330
C5E
330
C67
330
C68
330
C66
330
C37
 92
       22
 72
     1
 73
     1
 93
       12
 10
-30.0
 20
2.608490154945513
 42
-0.3567831256950991
 10
-30.16027066923264
 20
2.412475920062504
 42
0.0
 10
-39.50135335531555
 20
0.5191697324675033
 42
-0.1003229866882686
 10
-39.8986466634515
 20
0.5191697325611813
 42
0.0
 10
-46.23972933085982
 20
1.804418079333018
 42
-0.3567831255621065
 10
-46.39999999999993
 20
2.000432314197297
 42
0.0
 10
-46.4
 20
11.01695023705789
 42
-0.1266271045766677
 10
-46.02722416622836
 20
12.46529176459409
 42
0.0
 10
-45.39231902682819
 20
13.61698015699445
 42
-0.607368784852034
 10
-33.85983360838032
 20
13.33240584298651
 42
0.2416445711928475
 10
-31.66574887874539
 20
11.69159851913738
 42
-0.3658454474621857
 10
-30.0
 20
9.7197272789343
 42
0.0
 97
       12
330
C30
330
C12
330
C24
330
C16
330
C19
330
C15
330
C28
330
C27
330
C26
330
C2C
330
C0D
330
C2F
 92
       22
 72
     1
 73
     1
 93
       12
 10
-45.3923190268282
 20
51.34083353767135
 42
0.0
 10
-46.02722416622843
 20
52.49252193007183
 42
-0.1266271045766565
 10
-46.4
 20
53.94086345760792
 42
0.0
 10
-46.39999999999993
 20
62.95738138046852
 42
-0.3567831255621956
 10
-46.23972933085977
 20
63.15339561533281
 42
0.0
 10
-39.89864666345161
 20
64.43864396210457
 42
-0.100322986688276
 10
-39.50135335531564
 20
64.43864396219831
 42
0.0
 10
-30.16027066923265
 20
62.54533777460335
 42
-0.3567831256951556
 10
-30.0
 20
62.34932353972033
 42
0.0
 10
-30.0
 20
55.23808641573151
 42
-0.3658454474621882
 10
-31.66574887874542
 20
53.26621517552843
 42
0.2416445711928456
 10
-33.85983360838032
 20
51.62540785167931
 42
-0.6073687848520377
 97
       12
330
C48
330
C47
330
C43
330
C50
330
C4E
330
C5C
330
C41
330
C65
330
C5D
330
C40
330
C4C
330
C46
 75
     0
 76
     1
 52
90.0
 41
10.0
 77
     0
 78
     1
 53
135.0
 43
61.000017
 44
8.988932
 45
-2.430679560328756
 46
0.6629126073623885
 79
     4
 49
3.125
 49
-0.625
 49
0.0
 49
-0.625
 47
0.287683
 98
        3
 10
-27.603944
 20
6.299538
 10
-27.603944
 20
6.299538
 10
-27.603944
 20
6.299538
  0
LINE
  5
C03
100
AcDbEntity
  8
DIM
100
AcDbLine
 10
-31.03624
 20
34.769034
 30
0.0
 11
-28.146113
 21
31.878907
 31
0.0
  0
LINE
  5
C04
100
AcDbEntity
  8
DIM
100
AcDbLine
 10
-28.146113
 20
39.981482
 30
0.0
 11
-28.146113
 21
15.50666
 31
0.0
  0
LINE
  5
C05
100
AcDbEntity
  8
DIM
100
AcDbLine
 10
-31.146113
 20
15.50666
 30
0.0
 11
-31.146113
 21
39.981482
 31
0.0
  0
LINE
  5
C06
102
{ACAD_REACTORS
330
C02
102
}
100
AcDbEntity
  8
SPKONTUR
100
AcDbLine
 10
-25.0
 20
4.1548
 30
0.0
 11
-25.0
 21
39.978907
 31
0.0
  0
LINE
  5
C07
102
{ACAD_REACTORS
330
C02
102
}
100
AcDbEntity
  8
SPKONTUR
100
AcDbLine
 10
-28.0
 20
14.428907
 30
0.0
 11
-28.0
 21
39.978907
 31
0.0
  0
LINE
  5
C08
100
AcDbEntity
  8
DIM
100
AcDbLine
 10
-31.146113
 20
24.878907
 30
0.0
 11
-28.146113
 21
21.878907
 31
0.0
  0
LINE
  5
C09
100
AcDbEntity
  8
DIM
100
AcDbLine
 10
-31.146113
 20
27.378907
 30
0.0
 11
-28.146113
 21
24.378907
 31
0.0
  0
LINE
  5
C0A
100
AcDbEntity
  8
DIM
100
AcDbLine
 10
-31.146113
 20
29.878907
 30
0.0
 11
-28.146113
 21
26.878907
 31
0.0
  0
LINE
  5
C0B
100
AcDbEntity
  8
DIM
100
AcDbLine
 10
-31.146113
 20
17.378907
 30
0.0
 11
-28.777336
 21
15.01013
 31
0.0
  0
ARC
  5
C0C
100
AcDbEntity
  8
DIM
100
AcDbCircle
 10
-30.646113
 20
15.50666
 30
0.0
 40
0.5
100
AcDbArc
 50
180.0
 51
270.0
  0
ARC
  5
C0D
102
{ACAD_REACTORS
330
C02
102
}
100
AcDbEntity
  8
SPKONTUR
100
AcDbCircle
 10
-32.0
 20
9.719727
 30
0.0
 40
2.0
100
AcDbArc
 50
0.0
 51
80.379265
  0
LINE
  5
C0E
102
{ACAD_REACTORS
330
C02
102
}
100
AcDbEntity
  8
SPKONTUR
100
AcDbLine
 10
-28.2
 20
14.228907
 30
0.0
 11
-31.188978
 21
14.228907
 31
0.0
  0
LINE
  5
C0F
100
AcDbEntity
  8
DIM
100
AcDbLine
 10
-31.146113
 20
19.878907
 30
0.0
 11
-28.146113
 21
16.878907
 31
0.0
  0
LINE
  5
C10
100
AcDbEntity
  8
DIM
100
AcDbLine
 10
-31.146113
 20
22.378907
 30
0.0
 11
-28.146113
 21
19.378907
 31
0.0
  0
LINE
  5
C11
102
{ACAD_REACTORS
330
C02
102
}
100
AcDbEntity
  8
SPKONTUR
100
AcDbLine
 10
-31.2
 20
-0.021093
 30
0.0
 11
-25.087095
 21
-0.021093
 31
0.0
  0
LINE
  5
C12
102
{ACAD_REACTORS
330
C02
102
}
100
AcDbEntity
  8
SPKONTUR
100
AcDbLine
 10
-39.501353
 20
0.51917
 30
0.0
 11
-30.160271
 21
2.412476
 31
0.0
  0
LINE
  5
C13
100
AcDbEntity
  8
DIM
100
AcDbLine
 10
-31.146113
 20
32.378907
 30
0.0
 11
-28.146113
 21
29.378907
 31
0.0
  0
LINE
  5
C14
102
{ACAD_REACTORS
330
C02
102
}
100
AcDbEntity
  8
SPKONTUR
100
AcDbLine
 10
-49.918618
 20
11.436562
 30
0.0
 11
-48.218085
 21
9.007949
 31
0.0
  0
LINE
  5
C15
102
{ACAD_REACTORS
330
C02
102
}
100
AcDbEntity
  8
SPKONTUR
100
AcDbLine
 10
-46.4
 20
11.01695
 30
0.0
 11
-46.4
 21
2.000432
 31
0.0
  0
LINE
  5
C16
102
{ACAD_REACTORS
330
C02
102
}
100
AcDbEntity
  8
SPKONTUR
100
AcDbLine
 10
-39.898647
 20
0.51917
 30
0.0
 11
-46.239729
 21
1.804418
 31
0.0
  0
ARC
  5
C17
102
{ACAD_REACTORS
330
C02
102
}
100
AcDbEntity
  8
SPKONTUR
100
AcDbCircle
 10
-39.7
 20
35.603907
 30
0.0
 40
36.625
100
AcDbArc
 50
258.825007
 51
283.419674
  0
ARC
  5
C18
100
AcDbEntity
  8
SPKONTUR
100
AcDbCircle
 10
-48.3
 20
8.950591
 30
0.0
 40
0.1
100
AcDbArc
 50
0.0
 51
35.0
  0
ARC
  5
C19
102
{ACAD_REACTORS
330
C02
102
}
100
AcDbEntity
  8
SPKONTUR
100
AcDbCircle
 10
-46.2
 20
2.000432
 30
0.0
 40
0.2
100
AcDbArc
 50
180.0
 51
258.54217
  0
ARC
  5
C1A
100
AcDbEntity
  8
SPKONTUR
100
AcDbCircle
 10
-48.4
 20
2.911431
 30
0.0
 40
0.2
100
AcDbArc
 50
325.0
 51
0.0
  0
LINE
  5
C1B
102
{ACAD_REACTORS
330
C02
102
}
100
AcDbEntity
  8
SPKONTUR
100
AcDbLine
 10
-48.869578
 20
0.216554
 30
0.0
 11
-48.2
 21
0.955487
 31
0.0
  0
ARC
  5
C1C
102
{ACAD_REACTORS
330
C02
102
}
100
AcDbEntity
  8
SPKONTUR
100
AcDbCircle
 10
-49.4624
 20
0.753734
 30
0.0
 40
0.8
100
AcDbArc
 50
206.043236
 51
317.818963
  0
LINE
  5
C1D
102
{ACAD_REACTORS
330
C02
102
}
100
AcDbEntity
  8
SPKONTUR
100
AcDbLine
 10
-50.18117
 20
0.402494
 30
0.0
 11
-52.447039
 21
5.03933
 31
0.0
  0
ARC
  5
C1E
102
{ACAD_REACTORS
330
C02
102
}
100
AcDbEntity
  8
SPKONTUR
100
AcDbCircle
 10
-52.087654
 20
5.214949
 30
0.0
 40
0.4
100
AcDbArc
 50
28.275235
 51
206.043236
  0
LINE
  5
C1F
102
{ACAD_REACTORS
330
C02
102
}
100
AcDbEntity
  8
SPKONTUR
100
AcDbLine
 10
-49.421881
 20
1.103344
 30
0.0
 11
-51.735381
 21
5.404433
 31
0.0
  0
LINE
  5
C20
102
{ACAD_REACTORS
330
C02
102
}
100
AcDbEntity
  8
SPKONTUR
100
AcDbLine
 10
-49.421881
 20
1.103344
 30
0.0
 11
-48.23617
 21
2.796715
 31
0.0
  0
LINE
  5
C21
102
{ACAD_REACTORS
330
C02
102
}
100
AcDbEntity
  8
SPKONTUR
100
AcDbLine
 10
-48.2
 20
0.955487
 30
0.0
 11
-47.054802
 21
-0.189711
 31
0.0
  0
ARC
  5
C22
102
{ACAD_REACTORS
330
C02
102
}
100
AcDbEntity
  8
SPKONTUR
100
AcDbCircle
 10
-46.701249
 20
0.163843
 30
0.0
 40
0.5
100
AcDbArc
 50
225.0
 51
258.825007
  0
LINE
  5
C23
102
{ACAD_REACTORS
330
C02
102
}
100
AcDbEntity
  8
SPKONTUR
100
AcDbLine
 10
-48.2
 20
2.911431
 30
0.0
 11
-48.2
 21
8.950591
 31
0.0
  0
ARC
  5
C24
102
{ACAD_REACTORS
330
C02
102
}
100
AcDbEntity
  8
SPKONTUR
100
AcDbCircle
 10
-39.7
 20
1.499241
 30
0.0
 40
1.0
100
AcDbArc
 50
258.54217
 51
281.45783
  0
ARC
  5
C25
102
{ACAD_REACTORS
330
C02
102
}
100
AcDbEntity
  8
SPKONTUR
100
AcDbCircle
 10
-39.7
 20
10.478907
 30
0.0
 40
8.5
100
AcDbArc
 50
31.668243
 51
175.79972
  0
ARC
  5
C26
102
{ACAD_REACTORS
330
C02
102
}
100
AcDbEntity
  8
SPKONTUR
100
AcDbCircle
 10
-39.7
 20
10.478907
 30
0.0
 40
6.5
100
AcDbArc
 50
26.040085
 51
151.132841
  0
LINE
  5
C27
102
{ACAD_REACTORS
330
C02
102
}
100
AcDbEntity
  8
KON
100
AcDbLine
 10
-45.392319
 20
13.61698
 30
0.0
 11
-46.027224
 21
12.465292
 31
0.0
  0
ARC
  5
C28
102
{ACAD_REACTORS
330
C02
102
}
100
AcDbEntity
  8
SPKONTUR
100
AcDbCircle
 10
-43.4
 20
11.01695
 30
0.0
 40
3.0
100
AcDbArc
 50
151.132841
 51
180.0
  0
ARC
  5
C29
102
{ACAD_REACTORS
330
C02
102
}
100
AcDbEntity
  8
SPKONTUR
100
AcDbCircle
 10
-49.55
 20
11.694672
 30
0.0
 40
0.45
100
AcDbArc
 50
42.181037
 51
215.0
  0
LINE
  5
C2A
102
{ACAD_REACTORS
330
C02
102
}
100
AcDbEntity
  8
SPKONTUR
100
AcDbLine
 10
-49.216538
 20
11.996836
 30
0.0
 11
-48.351004
 21
11.04165
 31
0.0
  0
ARC
  5
C2B
102
{ACAD_REACTORS
330
C02
102
}
100
AcDbEntity
  8
SPKONTUR
100
AcDbCircle
 10
-48.276901
 20
11.108797
 30
0.0
 40
0.1
100
AcDbArc
 50
222.181037
 51
355.79972
  0
ARC
  5
C2C
102
{ACAD_REACTORS
330
C02
102
}
100
AcDbEntity
  8
SPKONTUR
100
AcDbCircle
 10
-31.164372
 20
14.649405
 30
0.0
 40
3.0
100
AcDbArc
 50
206.040085
 51
260.379265
  0
ARC
  5
C2D
102
{ACAD_REACTORS
330
C02
102
}
100
AcDbEntity
  8
SPKONTUR
100
AcDbCircle
 10
-31.188978
 20
15.728907
 30
0.0
 40
1.5
100
AcDbArc
 50
211.668243
 51
270.0
  0
INSERT
  5
C2E
100
AcDbEntity
  8
FOGNINGB
100
AcDbBlockReference
  2
*X76
 10
631.303919
 20
-128.460854
 30
0.0
 41
-1.0
1001
ACAD
1000
HATCH
1002
{
1070
    16
1000
ANSI38
1040
10.0
1040
0.0
1002
}
  0
LINE
  5
C2F
102
{ACAD_REACTORS
330
C02
102
}
100
AcDbEntity
  8
SPKONTUR
100
AcDbLine
 10
-30.0
 20
2.60849
 30
0.0
 11
-30.0
 21
9.719727
 31
0.0
  0
ARC
  5
C30
102
{ACAD_REACTORS
330
C02
102
}
100
AcDbEntity
  8
SPKONTUR
100
AcDbCircle
 10
-30.2
 20
2.60849
 30
0.0
 40
0.2
100
AcDbArc
 50
281.45783
 51
360.0
  0
LINE
  5
C31
102
{ACAD_REACTORS
330
C02
102
}
100
AcDbEntity
  8
SPKONTUR
100
AcDbLine
 10
-25.0
 20
4.1548
 30
0.0
 11
-24.019786
 21
0.774812
 31
0.0
  0
LINE
  5
C32
102
{ACAD_REACTORS
330
C02
102
}
100
AcDbEntity
  8
SPKONTUR
100
AcDbLine
 10
-25.087095
 20
-0.021093
 30
0.0
 11
-24.309308
 21
0.167276
 31
0.0
  0
ARC
  5
C33
102
{ACAD_REACTORS
330
C02
102
}
100
AcDbEntity
  8
SPKONTUR
100
AcDbCircle
 10
-24.5
 20
0.635548
 30
0.0
 40
0.5
100
AcDbArc
 50
292.157418
 51
16.172433
  0
ARC
  5
C34
100
AcDbEntity
  8
DIM
100
AcDbCircle
 10
-28.646113
 20
15.50666
 30
0.0
 40
0.5
100
AcDbArc
 50
270.0
 51
0.0
  0
LINE
  5
C35
100
AcDbEntity
  8
DIM
100
AcDbLine
 10
-28.646113
 20
15.00666
 30
0.0
 11
-30.646113
 21
15.00666
 31
0.0
  0
ARC
  5
C36
102
{ACAD_REACTORS
330
C02
102
}
100
AcDbEntity
  8
SPKONTUR
100
AcDbCircle
 10
-28.2
 20
14.428907
 30
0.0
 40
0.2
100
AcDbArc
 50
270.0
 51
0.0
  0
LINE
  5
C37
102
{ACAD_REACTORS
330
C02
102
}
100
AcDbEntity
  8
SPKONTUR
100
AcDbLine
 10
-31.2
 20
64.978907
 30
0.0
 11
-25.087095
 21
64.978907
 31
0.0
  0
LINE
  5
C38
100
AcDbEntity
  8
DIM
100
AcDbLine
 10
-31.03624
 20
49.769034
 30
0.0
 11
-28.146113
 21
46.878907
 31
0.0
  0
LINE
  5
C39
100
AcDbEntity
  8
DIM
100
AcDbLine
 10
-31.146113
 20
47.378907
 30
0.0
 11
-28.146113
 21
44.378907
 31
0.0
  0
ARC
  5
C3A
100
AcDbEntity
  8
DIM
100
AcDbCircle
 10
-30.646113
 20
49.456303
 30
0.0
 40
0.5
100
AcDbArc
 50
90.0
 51
180.0
  0
LINE
  5
C3B
102
{ACAD_REACTORS
330
C02
102
}
100
AcDbEntity
  8
SPKONTUR
100
AcDbLine
 10
-28.2
 20
50.728907
 30
0.0
 11
-31.188978
 21
50.728907
 31
0.0
  0
LINE
  5
C3C
100
AcDbEntity
  8
DIM
100
AcDbLine
 10
-31.146113
 20
42.378907
 30
0.0
 11
-28.146113
 21
39.378907
 31
0.0
  0
LINE
  5
C3D
100
AcDbEntity
  8
DIM
100
AcDbLine
 10
-31.146113
 20
37.378907
 30
0.0
 11
-28.146113
 21
34.378907
 31
0.0
  0
LINE
  5
C3E
100
AcDbEntity
  8
DIM
100
AcDbLine
 10
-31.146113
 20
39.878907
 30
0.0
 11
-28.146113
 21
36.878907
 31
0.0
  0
LINE
  5
C3F
100
AcDbEntity
  8
DIM
100
AcDbLine
 10
-31.03624
 20
44.769034
 30
0.0
 11
-28.146113
 21
41.878907
 31
0.0
  0
ARC
  5
C40
102
{ACAD_REACTORS
330
C02
102
}
100
AcDbEntity
  8
SPKONTUR
100
AcDbCircle
 10
-32.0
 20
55.238086
 30
0.0
 40
2.0
100
AcDbArc
 50
279.620735
 51
0.0
  0
LINE
  5
C41
102
{ACAD_REACTORS
330
C02
102
}
100
AcDbEntity
  8
SPKONTUR
100
AcDbLine
 10
-39.501353
 20
64.438644
 30
0.0
 11
-30.160271
 21
62.545338
 31
0.0
  0
LINE
  5
C42
102
{ACAD_REACTORS
330
C02
102
}
100
AcDbEntity
  8
SPKONTUR
100
AcDbLine
 10
-49.918618
 20
53.521251
 30
0.0
 11
-48.218085
 21
55.949865
 31
0.0
  0
LINE
  5
C43
102
{ACAD_REACTORS
330
C02
102
}
100
AcDbEntity
  8
SPKONTUR
100
AcDbLine
 10
-46.4
 20
53.940863
 30
0.0
 11
-46.4
 21
62.957381
 31
0.0
  0
LINE
  5
C44
100
AcDbEntity
  8
DIM
100
AcDbLine
 10
-31.146113
 20
49.456303
 30
0.0
 11
-31.146113
 21
39.981482
 31
0.0
  0
ARC
  5
C45
102
{ACAD_REACTORS
330
C02
102
}
100
AcDbEntity
  8
SPKONTUR
100
AcDbCircle
 10
-39.7
 20
54.478907
 30
0.0
 40
8.5
100
AcDbArc
 50
184.20028
 51
328.331757
  0
ARC
  5
C46
102
{ACAD_REACTORS
330
C02
102
}
100
AcDbEntity
  8
SPKONTUR
100
AcDbCircle
 10
-39.7
 20
54.478907
 30
0.0
 40
6.5
100
AcDbArc
 50
208.867159
 51
333.959915
  0
ARC
  5
C47
102
{ACAD_REACTORS
330
C02
102
}
100
AcDbEntity
  8
SPKONTUR
100
AcDbCircle
 10
-43.4
 20
53.940863
 30
0.0
 40
3.0
100
AcDbArc
 50
180.0
 51
208.867159
  0
LINE
  5
C48
102
{ACAD_REACTORS
330
C02
102
}
100
AcDbEntity
  8
SPKONTUR
100
AcDbLine
 10
-45.392319
 20
51.340834
 30
0.0
 11
-46.027224
 21
52.492522
 31
0.0
  0
ARC
  5
C49
102
{ACAD_REACTORS
330
C02
102
}
100
AcDbEntity
  8
SPKONTUR
100
AcDbCircle
 10
-48.276901
 20
53.849016
 30
0.0
 40
0.1
100
AcDbArc
 50
4.20028
 51
137.818963
  0
LINE
  5
C4A
102
{ACAD_REACTORS
330
C02
102
}
100
AcDbEntity
  8
SPKONTUR
100
AcDbLine
 10
-49.216538
 20
52.960978
 30
0.0
 11
-48.351004
 21
53.916164
 31
0.0
  0
ARC
  5
C4B
102
{ACAD_REACTORS
330
C02
102
}
100
AcDbEntity
  8
SPKONTUR
100
AcDbCircle
 10
-49.55
 20
53.263142
 30
0.0
 40
0.45
100
AcDbArc
 50
145.0
 51
317.818963
  0
ARC
  5
C4C
102
{ACAD_REACTORS
330
C02
102
}
100
AcDbEntity
  8
SPKONTUR
100
AcDbCircle
 10
-31.164372
 20
50.308408
 30
0.0
 40
3.0
100
AcDbArc
 50
99.620735
 51
153.959915
  0
ARC
  5
C4D
102
{ACAD_REACTORS
330
C02
102
}
100
AcDbEntity
  8
SPKONTUR
100
AcDbCircle
 10
-31.188978
 20
49.228907
 30
0.0
 40
1.5
100
AcDbArc
 50
90.0
 51
148.331757
  0
LINE
  5
C4E
102
{ACAD_REACTORS
330
C02
102
}
100
AcDbEntity
  8
SPKONTUR
100
AcDbLine
 10
-39.898647
 20
64.438644
 30
0.0
 11
-46.239729
 21
63.153396
 31
0.0
  0
ARC
  5
C4F
102
{ACAD_REACTORS
330
C02
102
}
100
AcDbEntity
  8
SPKONTUR
100
AcDbCircle
 10
-39.7
 20
29.353907
 30
0.0
 40
36.625
100
AcDbArc
 50
76.580326
 51
101.174993
  0
ARC
  5
C50
102
{ACAD_REACTORS
330
C02
102
}
100
AcDbEntity
  8
SPKONTUR
100
AcDbCircle
 10
-46.2
 20
62.957381
 30
0.0
 40
0.2
100
AcDbArc
 50
101.45783
 51
180.0
  0
ARC
  5
C51
100
AcDbEntity
  8
SPKONTUR
100
AcDbCircle
 10
-48.4
 20
62.046383
 30
0.0
 40
0.2
100
AcDbArc
 50
360.0
 51
35.0
  0
LINE
  5
C52
102
{ACAD_REACTORS
330
C02
102
}
100
AcDbEntity
  8
SPKONTUR
100
AcDbLine
 10
-49.421881
 20
63.85447
 30
0.0
 11
-48.23617
 21
62.161098
 31
0.0
  0
LINE
  5
C53
102
{ACAD_REACTORS
330
C02
102
}
100
AcDbEntity
  8
SPKONTUR
100
AcDbLine
 10
-49.421881
 20
63.85447
 30
0.0
 11
-51.735381
 21
59.553381
 31
0.0
  0
ARC
  5
C54
102
{ACAD_REACTORS
330
C02
102
}
100
AcDbEntity
  8
SPKONTUR
100
AcDbCircle
 10
-52.087654
 20
59.742864
 30
0.0
 40
0.4
100
AcDbArc
 50
153.956764
 51
331.724765
  0
LINE
  5
C55
102
{ACAD_REACTORS
330
C02
102
}
100
AcDbEntity
  8
SPKONTUR
100
AcDbLine
 10
-50.18117
 20
64.555319
 30
0.0
 11
-52.447039
 21
59.918484
 31
0.0
  0
ARC
  5
C56
102
{ACAD_REACTORS
330
C02
102
}
100
AcDbEntity
  8
SPKONTUR
100
AcDbCircle
 10
-49.4624
 20
64.20408
 30
0.0
 40
0.8
100
AcDbArc
 50
42.181037
 51
153.956764
  0
LINE
  5
C57
102
{ACAD_REACTORS
330
C02
102
}
100
AcDbEntity
  8
SPKONTUR
100
AcDbLine
 10
-48.869578
 20
64.74126
 30
0.0
 11
-48.2
 21
64.002327
 31
0.0
  0
ARC
  5
C58
100
AcDbEntity
  8
SPKONTUR
100
AcDbCircle
 10
-48.3
 20
56.007223
 30
0.0
 40
0.1
100
AcDbArc
 50
325.0
 51
360.0
  0
LINE
  5
C59
102
{ACAD_REACTORS
330
C02
102
}
100
AcDbEntity
  8
SPKONTUR
100
AcDbLine
 10
-48.2
 20
62.046383
 30
0.0
 11
-48.2
 21
56.007223
 31
0.0
  0
LINE
  5
C5A
102
{ACAD_REACTORS
330
C02
102
}
100
AcDbEntity
  8
SPKONTUR
100
AcDbLine
 10
-48.2
 20
64.002327
 30
0.0
 11
-47.054802
 21
65.147524
 31
0.0
  0
ARC
  5
C5B
102
{ACAD_REACTORS
330
C02
102
}
100
AcDbEntity
  8
SPKONTUR
100
AcDbCircle
 10
-46.701249
 20
64.793971
 30
0.0
 40
0.5
100
AcDbArc
 50
101.174993
 51
135.0
  0
ARC
  5
C5C
102
{ACAD_REACTORS
330
C02
102
}
100
AcDbEntity
  8
SPKONTUR
100
AcDbCircle
 10
-39.7
 20
63.458573
 30
0.0
 40
1.0
100
AcDbArc
 50
78.54217
 51
101.45783
  0
LINE
  5
C5D
102
{ACAD_REACTORS
330
C02
102
}
100
AcDbEntity
  8
SPKONTUR
100
AcDbLine
 10
-30.0
 20
62.349324
 30
0.0
 11
-30.0
 21
55.238086
 31
0.0
  0
LINE
  5
C5E
102
{ACAD_REACTORS
330
C02
102
}
100
AcDbEntity
  8
SPKONTUR
100
AcDbLine
 10
-25.0
 20
60.803014
 30
0.0
 11
-25.0
 21
39.978907
 31
0.0
  0
LINE
  5
C5F
100
AcDbEntity
  8
DIM
100
AcDbLine
 10
-28.146113
 20
39.981482
 30
0.0
 11
-28.146113
 21
49.456303
 31
0.0
  0
LINE
  5
C60
102
{ACAD_REACTORS
330
C02
102
}
100
AcDbEntity
  8
SPKONTUR
100
AcDbLine
 10
-28.0
 20
50.528907
 30
0.0
 11
-28.0
 21
39.978907
 31
0.0
  0
ARC
  5
C61
100
AcDbEntity
  8
DIM
100
AcDbCircle
 10
-28.646113
 20
49.456303
 30
0.0
 40
0.5
100
AcDbArc
 50
0.0
 51
90.0
  0
LINE
  5
C62
100
AcDbEntity
  8
DIM
100
AcDbLine
 10
-28.723509
 20
49.956303
 30
0.0
 11
-28.146113
 21
49.378907
 31
0.0
  0
LINE
  5
C63
100
AcDbEntity
  8
DIM
100
AcDbLine
 10
-28.646113
 20
49.956303
 30
0.0
 11
-30.646113
 21
49.956303
 31
0.0
  0
ARC
  5
C64
102
{ACAD_REACTORS
330
C02
102
}
100
AcDbEntity
  8
SPKONTUR
100
AcDbCircle
 10
-28.2
 20
50.528907
 30
0.0
 40
0.2
100
AcDbArc
 50
0.0
 51
90.0
  0
ARC
  5
C65
102
{ACAD_REACTORS
330
C02
102
}
100
AcDbEntity
  8
SPKONTUR
100
AcDbCircle
 10
-30.2
 20
62.349324
 30
0.0
 40
0.2
100
AcDbArc
 50
0.0
 51
78.54217
  0
LINE
  5
C66
102
{ACAD_REACTORS
330
C02
102
}
100
AcDbEntity
  8
SPKONTUR
100
AcDbLine
 10
-25.087095
 20
64.978907
 30
0.0
 11
-24.309308
 21
64.790537
 31
0.0
  0
LINE
  5
C67
102
{ACAD_REACTORS
330
C02
102
}
100
AcDbEntity
  8
SPKONTUR
100
AcDbLine
 10
-25.0
 20
60.803014
 30
0.0
 11
-24.019786
 21
64.183001
 31
0.0
  0
ARC
  5
C68
102
{ACAD_REACTORS
330
C02
102
}
100
AcDbEntity
  8
SPKONTUR
100
AcDbCircle
 10
-24.5
 20
64.322266
 30
0.0
 40
0.5
100
AcDbArc
 50
343.827567
 51
67.842582
  0
ENDBLK
  5
C69
100
AcDbEntity
  8
0
100
AcDbBlockEnd
  0
BLOCK
  5
AF5
100
AcDbEntity
  8
0
100
AcDbBlockBegin
  2
*X76
 70
     1
 10
0.0
 20
0.0
 30
0.0
  3
*X76
  1

  0
LINE
  5
AE6
100
AcDbEntity
  8
0
 62
     0
100
AcDbLine
 10
662.5
 20
155.150884
 30
0.0
 11
665.0
 21
157.650884
 31
0.0
  0
LINE
  5
AE7
100
AcDbEntity
  8
0
 62
     0
100
AcDbLine
 10
662.5
 20
156.918651
 30
0.0
 11
665.0
 21
159.418651
 31
0.0
  0
LINE
  5
AE8
100
AcDbEntity
  8
0
 62
     0
100
AcDbLine
 10
662.5
 20
158.686418
 30
0.0
 11
663.813582
 21
160.0
 31
0.0
  0
LINE
  5
AE9
100
AcDbEntity
  8
0
 62
     0
100
AcDbLine
 10
662.5
 20
153.383118
 30
0.0
 11
665.0
 21
155.883118
 31
0.0
  0
LINE
  5
AEA
100
AcDbEntity
  8
0
 62
     0
100
AcDbLine
 10
662.5
 20
151.615351
 30
0.0
 11
665.0
 21
154.115351
 31
0.0
  0
LINE
  5
AEB
100
AcDbEntity
  8
0
 62
     0
100
AcDbLine
 10
662.652416
 20
150.0
 30
0.0
 11
665.0
 21
152.347584
 31
0.0
  0
LINE
  5
AEC
100
AcDbEntity
  8
0
 62
     0
100
AcDbLine
 10
664.420183
 20
150.0
 30
0.0
 11
665.0
 21
150.579817
 31
0.0
  0
LINE
  5
AED
100
AcDbEntity
  8
0
 62
     0
100
AcDbLine
 10
665.0
 20
153.476099
 30
0.0
 11
663.354549
 21
155.12155
 31
0.0
  0
LINE
  5
AEE
100
AcDbEntity
  8
0
 62
     0
100
AcDbLine
 10
665.0
 20
151.708332
 30
0.0
 11
664.238433
 21
152.4699
 31
0.0
  0
LINE
  5
AEF
100
AcDbEntity
  8
0
 62
     0
100
AcDbLine
 10
662.912607
 20
153.795725
 30
0.0
 11
662.5
 21
154.208332
 31
0.0
  0
LINE
  5
AF0
100
AcDbEntity
  8
0
 62
     0
100
AcDbLine
 10
663.796491
 20
151.144074
 30
0.0
 11
662.5
 21
152.440565
 31
0.0
  0
LINE
  5
AF1
100
AcDbEntity
  8
0
 62
     0
100
AcDbLine
 10
663.172798
 20
150.0
 30
0.0
 11
662.5
 21
150.672798
 31
0.0
  0
LINE
  5
AF2
100
AcDbEntity
  8
0
 62
     0
100
AcDbLine
 10
664.680374
 20
155.563492
 30
0.0
 11
662.5
 21
157.743866
 31
0.0
  0
LINE
  5
AF3
100
AcDbEntity
  8
0
 62
     0
100
AcDbLine
 10
663.796491
 20
158.215142
 30
0.0
 11
662.5
 21
159.511633
 31
0.0
  0
LINE
  5
AF4
100
AcDbEntity
  8
0
 62
     0
100
AcDbLine
 10
665.0
 20
158.7794
 30
0.0
 11
664.238433
 21
159.540968
 31
0.0
  0
ENDBLK
  5
AF6
100
AcDbEntity
  8
0
100
AcDbBlockEnd
  0
BLOCK
  5
B4F
100
AcDbEntity
  8
0
100
AcDbBlockBegin
  2
*X77
 70
     1
 10
0.0
 20
0.0
 30
0.0
  3
*X77
  1

  0
LINE
  5
AF8
100
AcDbEntity
  8
0
 62
     0
100
AcDbLine
 10
284.64077
 20
-77.812036
 30
0.0
 11
281.64077
 21
-74.812036
 31
0.0
  0
LINE
  5
AF9
100
AcDbEntity
  8
0
 62
     0
100
AcDbLine
 10
284.64077
 20
-83.115337
 30
0.0
 11
281.637376
 21
-80.111943
 31
0.0
  0
LINE
  5
AFA
100
AcDbEntity
  8
0
 62
     0
100
AcDbLine
 10
284.64077
 20
-88.418638
 30
0.0
 11
281.425763
 21
-85.203631
 31
0.0
  0
LINE
  5
AFB
100
AcDbEntity
  8
0
 62
     0
100
AcDbLine
 10
277.7549
 20
-81.532768
 30
0.0
 11
274.217821
 21
-77.995689
 31
0.0
  0
LINE
  5
AFC
100
AcDbEntity
  8
0
 62
     0
100
AcDbLine
 10
269.400492
 20
-78.481661
 30
0.0
 11
268.43735
 21
-77.518519
 31
0.0
  0
LINE
  5
AFD
100
AcDbEntity
  8
0
 62
     0
100
AcDbLine
 10
280.857216
 20
-95.241686
 30
0.0
 11
279.301358
 21
-93.685828
 31
0.0
  0
LINE
  5
AFE
100
AcDbEntity
  8
0
 62
     0
100
AcDbLine
 10
265.788539
 20
-80.173009
 30
0.0
 11
264.815963
 21
-79.200433
 31
0.0
  0
LINE
  5
AFF
100
AcDbEntity
  8
0
 62
     0
100
AcDbLine
 10
275.731026
 20
-95.418796
 30
0.0
 11
274.544515
 21
-94.232286
 31
0.0
  0
LINE
  5
B00
100
AcDbEntity
  8
0
 62
     0
100
AcDbLine
 10
263.519341
 20
-83.207111
 30
0.0
 11
262.352718
 21
-82.040488
 31
0.0
  0
LINE
  5
B01
100
AcDbEntity
  8
0
 62
     0
100
AcDbLine
 10
270.455215
 20
-95.446287
 30
0.0
 11
269.286452
 21
-94.277524
 31
0.0
  0
LINE
  5
B02
100
AcDbEntity
  8
0
 62
     0
100
AcDbLine
 10
261.148562
 20
-86.139634
 30
0.0
 11
260.484109
 21
-85.47518
 31
0.0
  0
LINE
  5
B03
100
AcDbEntity
  8
0
 62
     0
100
AcDbLine
 10
265.015939
 20
-95.310311
 30
0.0
 11
261.581503
 21
-91.875875
 31
0.0
  0
LINE
  5
B04
100
AcDbEntity
  8
0
 62
     0
100
AcDbLine
 10
284.64077
 20
-72.508735
 30
0.0
 11
281.64077
 21
-69.508735
 31
0.0
  0
LINE
  5
B05
100
AcDbEntity
  8
0
 62
     0
100
AcDbLine
 10
284.64077
 20
-67.205435
 30
0.0
 11
281.64077
 21
-64.205435
 31
0.0
  0
LINE
  5
B06
100
AcDbEntity
  8
0
 62
     0
100
AcDbLine
 10
263.100146
 20
-45.664811
 30
0.0
 11
262.421034
 21
-44.985699
 31
0.0
  0
LINE
  5
B07
100
AcDbEntity
  8
0
 62
     0
100
AcDbLine
 10
284.64077
 20
-61.902134
 30
0.0
 11
281.64077
 21
-58.902134
 31
0.0
  0
LINE
  5
B08
100
AcDbEntity
  8
0
 62
     0
100
AcDbLine
 10
270.481131
 20
-47.742495
 30
0.0
 11
269.246232
 21
-46.507596
 31
0.0
  0
LINE
  5
B09
100
AcDbEntity
  8
0
 62
     0
100
AcDbLine
 10
284.64077
 20
-56.598833
 30
0.0
 11
281.64077
 21
-53.598833
 31
0.0
  0
LINE
  5
B0A
100
AcDbEntity
  8
0
 62
     0
100
AcDbLine
 10
274.802705
 20
-46.760768
 30
0.0
 11
274.06042
 21
-46.018483
 31
0.0
  0
LINE
  5
B0B
100
AcDbEntity
  8
0
 62
     0
100
AcDbLine
 10
284.64077
 20
-51.295532
 30
0.0
 11
281.64077
 21
-48.295532
 31
0.0
  0
LINE
  5
B0C
100
AcDbEntity
  8
0
 62
     0
100
AcDbLine
 10
264.605752
 20
-31.260514
 30
0.0
 11
263.14043
 21
-29.795192
 31
0.0
  0
LINE
  5
B0D
100
AcDbEntity
  8
0
 62
     0
100
AcDbLine
 10
278.225847
 20
-44.880609
 30
0.0
 11
277.100448
 21
-43.75521
 31
0.0
  0
LINE
  5
B0E
100
AcDbEntity
  8
0
 62
     0
100
AcDbLine
 10
284.64077
 20
-45.992231
 30
0.0
 11
281.259521
 21
-42.610982
 31
0.0
  0
LINE
  5
B0F
100
AcDbEntity
  8
0
 62
     0
100
AcDbLine
 10
269.388515
 20
-30.739977
 30
0.0
 11
268.256991
 21
-29.608452
 31
0.0
  0
LINE
  5
B10
100
AcDbEntity
  8
0
 62
     0
100
AcDbLine
 10
284.64077
 20
-40.68893
 30
0.0
 11
281.472689
 21
-37.520849
 31
0.0
  0
LINE
  5
B11
100
AcDbEntity
  8
0
 62
     0
100
AcDbLine
 10
274.751433
 20
-30.799593
 30
0.0
 11
273.522324
 21
-29.570484
 31
0.0
  0
LINE
  5
B12
100
AcDbEntity
  8
0
 62
     0
100
AcDbLine
 10
284.64077
 20
-35.385629
 30
0.0
 11
281.472689
 21
-32.217548
 31
0.0
  0
LINE
  5
B13
100
AcDbEntity
  8
0
 62
     0
100
AcDbLine
 10
280.858442
 20
-31.603301
 30
0.0
 11
278.950111
 21
-29.694971
 31
0.0
  0
LINE
  5
B14
100
AcDbEntity
  8
0
 62
     0
100
AcDbLine
 10
285.559088
 20
-31.000647
 30
0.0
 11
284.556792
 21
-29.998351
 31
0.0
  0
LINE
  5
B15
100
AcDbEntity
  8
0
 62
     0
100
AcDbLine
 10
284.389509
 20
-74.909125
 30
0.0
 11
283.063683
 21
-73.583299
 31
0.0
  0
LINE
  5
B16
100
AcDbEntity
  8
0
 62
     0
100
AcDbLine
 10
282.400771
 20
-72.920387
 30
0.0
 11
281.64077
 21
-72.160386
 31
0.0
  0
LINE
  5
B17
100
AcDbEntity
  8
0
 62
     0
100
AcDbLine
 10
284.64077
 20
-80.463687
 30
0.0
 11
284.389509
 21
-80.212425
 31
0.0
  0
LINE
  5
B18
100
AcDbEntity
  8
0
 62
     0
100
AcDbLine
 10
283.726596
 20
-79.549513
 30
0.0
 11
282.400771
 21
-78.223688
 31
0.0
  0
LINE
  5
B19
100
AcDbEntity
  8
0
 62
     0
100
AcDbLine
 10
281.737858
 20
-77.560775
 30
0.0
 11
281.64077
 21
-77.463687
 31
0.0
  0
LINE
  5
B1A
100
AcDbEntity
  8
0
 62
     0
100
AcDbLine
 10
284.64077
 20
-85.766988
 30
0.0
 11
283.726596
 21
-84.852814
 31
0.0
  0
LINE
  5
B1B
100
AcDbEntity
  8
0
 62
     0
100
AcDbLine
 10
283.063683
 20
-84.189901
 30
0.0
 11
281.737858
 21
-82.864076
 31
0.0
  0
LINE
  5
B1C
100
AcDbEntity
  8
0
 62
     0
100
AcDbLine
 10
281.074946
 20
-82.201163
 30
0.0
 11
281.037264
 21
-82.163481
 31
0.0
  0
LINE
  5
B1D
100
AcDbEntity
  8
0
 62
     0
100
AcDbLine
 10
280.941583
 20
-82.067801
 30
0.0
 11
279.74912
 21
-80.875338
 31
0.0
  0
LINE
  5
B1E
100
AcDbEntity
  8
0
 62
     0
100
AcDbLine
 10
284.389509
 20
-90.819027
 30
0.0
 11
283.063683
 21
-89.493202
 31
0.0
  0
LINE
  5
B1F
100
AcDbEntity
  8
0
 62
     0
100
AcDbLine
 10
282.400771
 20
-88.830289
 30
0.0
 11
281.425763
 21
-87.855281
 31
0.0
  0
LINE
  5
B20
100
AcDbEntity
  8
0
 62
     0
100
AcDbLine
 10
271.991024
 20
-78.420543
 30
0.0
 11
271.131256
 21
-77.560775
 31
0.0
  0
LINE
  5
B21
100
AcDbEntity
  8
0
 62
     0
100
AcDbLine
 10
283.367919
 20
-95.100739
 30
0.0
 11
282.400771
 21
-94.13359
 31
0.0
  0
LINE
  5
B22
100
AcDbEntity
  8
0
 62
     0
100
AcDbLine
 10
281.737858
 20
-93.470678
 30
0.0
 11
281.425763
 21
-93.158582
 31
0.0
  0
LINE
  5
B23
100
AcDbEntity
  8
0
 62
     0
100
AcDbLine
 10
267.405107
 20
-79.137926
 30
0.0
 11
266.490868
 21
-78.223688
 31
0.0
  0
LINE
  5
B24
100
AcDbEntity
  8
0
 62
     0
100
AcDbLine
 10
278.312049
 20
-95.34817
 30
0.0
 11
277.760382
 21
-94.796503
 31
0.0
  0
LINE
  5
B25
100
AcDbEntity
  8
0
 62
     0
100
AcDbLine
 10
277.09747
 20
-94.13359
 30
0.0
 11
276.977407
 21
-94.013527
 31
0.0
  0
LINE
  5
B26
100
AcDbEntity
  8
0
 62
     0
100
AcDbLine
 10
272.457082
 20
-94.796503
 30
0.0
 11
271.98761
 21
-94.327032
 31
0.0
  0
LINE
  5
B27
100
AcDbEntity
  8
0
 62
     0
100
AcDbLine
 10
262.513393
 20
-84.852814
 30
0.0
 11
261.544607
 21
-83.884028
 31
0.0
  0
LINE
  5
B28
100
AcDbEntity
  8
0
 62
     0
100
AcDbLine
 10
267.756977
 20
-95.399699
 30
0.0
 11
266.490868
 21
-94.13359
 31
0.0
  0
LINE
  5
B29
100
AcDbEntity
  8
0
 62
     0
100
AcDbLine
 10
263.091843
 20
-90.734565
 30
0.0
 11
262.513393
 21
-90.156115
 31
0.0
  0
LINE
  5
B2A
100
AcDbEntity
  8
0
 62
     0
100
AcDbLine
 10
261.85048
 20
-89.493202
 30
0.0
 11
261.023366
 21
-88.666088
 31
0.0
  0
LINE
  5
B2B
100
AcDbEntity
  8
0
 62
     0
100
AcDbLine
 10
262.229928
 20
-95.175951
 30
0.0
 11
261.85048
 21
-94.796503
 31
0.0
  0
LINE
  5
B2C
100
AcDbEntity
  8
0
 62
     0
100
AcDbLine
 10
261.187567
 20
-94.13359
 30
0.0
 11
260.521005
 21
-93.467028
 31
0.0
  0
LINE
  5
B2D
100
AcDbEntity
  8
0
 62
     0
100
AcDbLine
 10
284.64077
 20
-69.857085
 30
0.0
 11
283.726596
 21
-68.942911
 31
0.0
  0
LINE
  5
B2E
100
AcDbEntity
  8
0
 62
     0
100
AcDbLine
 10
283.063683
 20
-68.279999
 30
0.0
 11
281.737858
 21
-66.954173
 31
0.0
  0
LINE
  5
B2F
100
AcDbEntity
  8
0
 62
     0
100
AcDbLine
 10
284.64077
 20
-64.553784
 30
0.0
 11
284.389509
 21
-64.302523
 31
0.0
  0
LINE
  5
B30
100
AcDbEntity
  8
0
 62
     0
100
AcDbLine
 10
283.726596
 20
-63.63961
 30
0.0
 11
282.400771
 21
-62.313785
 31
0.0
  0
LINE
  5
B31
100
AcDbEntity
  8
0
 62
     0
100
AcDbLine
 10
281.737858
 20
-61.650872
 30
0.0
 11
281.64077
 21
-61.553784
 31
0.0
  0
LINE
  5
B32
100
AcDbEntity
  8
0
 62
     0
100
AcDbLine
 10
267.22529
 20
-47.138304
 30
0.0
 11
266.490868
 21
-46.403883
 31
0.0
  0
LINE
  5
B33
100
AcDbEntity
  8
0
 62
     0
100
AcDbLine
 10
265.827956
 20
-45.74097
 30
0.0
 11
264.50213
 21
-44.415145
 31
0.0
  0
LINE
  5
B34
100
AcDbEntity
  8
0
 62
     0
100
AcDbLine
 10
263.839218
 20
-43.752232
 30
0.0
 11
262.513393
 21
-42.426407
 31
0.0
  0
LINE
  5
B35
100
AcDbEntity
  8
0
 62
     0
100
AcDbLine
 10
261.85048
 20
-41.763494
 30
0.0
 11
261.744971
 21
-41.657985
 31
0.0
  0
LINE
  5
B36
100
AcDbEntity
  8
0
 62
     0
100
AcDbLine
 10
284.389509
 20
-58.999222
 30
0.0
 11
283.063683
 21
-57.673397
 31
0.0
  0
LINE
  5
B37
100
AcDbEntity
  8
0
 62
     0
100
AcDbLine
 10
282.400771
 20
-57.010484
 30
0.0
 11
281.64077
 21
-56.250483
 31
0.0
  0
LINE
  5
B38
100
AcDbEntity
  8
0
 62
     0
100
AcDbLine
 10
262.513393
 20
-37.123106
 30
0.0
 11
261.187567
 21
-35.797281
 31
0.0
  0
LINE
  5
B39
100
AcDbEntity
  8
0
 62
     0
100
AcDbLine
 10
260.524655
 20
-35.134368
 30
0.0
 11
260.323018
 21
-34.932732
 31
0.0
  0
LINE
  5
B3A
100
AcDbEntity
  8
0
 62
     0
100
AcDbLine
 10
272.457082
 20
-47.066795
 30
0.0
 11
271.989799
 21
-46.599512
 31
0.0
  0
LINE
  5
B3B
100
AcDbEntity
  8
0
 62
     0
100
AcDbLine
 10
284.64077
 20
-53.947182
 30
0.0
 11
283.726596
 21
-53.033009
 31
0.0
  0
LINE
  5
B3C
100
AcDbEntity
  8
0
 62
     0
100
AcDbLine
 10
283.063683
 20
-52.370096
 30
0.0
 11
281.737858
 21
-51.044271
 31
0.0
  0
LINE
  5
B3D
100
AcDbEntity
  8
0
 62
     0
100
AcDbLine
 10
263.176305
 20
-32.482718
 30
0.0
 11
261.85048
 21
-31.156893
 31
0.0
  0
LINE
  5
B3E
100
AcDbEntity
  8
0
 62
     0
100
AcDbLine
 10
276.436421
 20
-45.742833
 30
0.0
 11
275.771645
 21
-45.078057
 31
0.0
  0
LINE
  5
B3F
100
AcDbEntity
  8
0
 62
     0
100
AcDbLine
 10
284.64077
 20
-48.643882
 30
0.0
 11
284.389509
 21
-48.39262
 31
0.0
  0
LINE
  5
B40
100
AcDbEntity
  8
0
 62
     0
100
AcDbLine
 10
283.726596
 20
-47.729708
 30
0.0
 11
282.400771
 21
-46.403883
 31
0.0
  0
LINE
  5
B41
100
AcDbEntity
  8
0
 62
     0
100
AcDbLine
 10
281.737858
 20
-45.74097
 30
0.0
 11
281.64077
 21
-45.643882
 31
0.0
  0
LINE
  5
B42
100
AcDbEntity
  8
0
 62
     0
100
AcDbLine
 10
266.911532
 20
-30.914643
 30
0.0
 11
266.490868
 21
-30.49398
 31
0.0
  0
LINE
  5
B43
100
AcDbEntity
  8
0
 62
     0
100
AcDbLine
 10
265.827956
 20
-29.831067
 30
0.0
 11
265.680879
 21
-29.683991
 31
0.0
  0
LINE
  5
B44
100
AcDbEntity
  8
0
 62
     0
100
AcDbLine
 10
280.758482
 20
-44.761594
 30
0.0
 11
280.412033
 21
-44.415145
 31
0.0
  0
LINE
  5
B45
100
AcDbEntity
  8
0
 62
     0
100
AcDbLine
 10
279.74912
 20
-43.752232
 30
0.0
 11
279.324919
 21
-43.328031
 31
0.0
  0
LINE
  5
B46
100
AcDbEntity
  8
0
 62
     0
100
AcDbLine
 10
284.389509
 20
-43.089319
 30
0.0
 11
283.063683
 21
-41.763494
 31
0.0
  0
LINE
  5
B47
100
AcDbEntity
  8
0
 62
     0
100
AcDbLine
 10
282.400771
 20
-41.100582
 30
0.0
 11
281.472689
 21
-40.1725
 31
0.0
  0
LINE
  5
B48
100
AcDbEntity
  8
0
 62
     0
100
AcDbLine
 10
271.994454
 20
-30.694265
 30
0.0
 11
271.131256
 21
-29.831067
 31
0.0
  0
LINE
  5
B49
100
AcDbEntity
  8
0
 62
     0
100
AcDbLine
 10
284.64077
 20
-38.03728
 30
0.0
 11
283.726596
 21
-37.123106
 31
0.0
  0
LINE
  5
B4A
100
AcDbEntity
  8
0
 62
     0
100
AcDbLine
 10
283.063683
 20
-36.460193
 30
0.0
 11
281.737858
 21
-35.134368
 31
0.0
  0
LINE
  5
B4B
100
AcDbEntity
  8
0
 62
     0
100
AcDbLine
 10
277.09747
 20
-30.49398
 30
0.0
 11
276.214956
 21
-29.611467
 31
0.0
  0
LINE
  5
B4C
100
AcDbEntity
  8
0
 62
     0
100
AcDbLine
 10
284.965679
 20
-33.058888
 30
0.0
 11
284.389509
 21
-32.482718
 31
0.0
  0
LINE
  5
B4D
100
AcDbEntity
  8
0
 62
     0
100
AcDbLine
 10
283.726596
 20
-31.819805
 30
0.0
 11
282.400771
 21
-30.49398
 31
0.0
  0
LINE
  5
B4E
100
AcDbEntity
  8
0
 62
     0
100
AcDbLine
 10
281.737858
 20
-29.831067
 30
0.0
 11
281.729934
 21
-29.823143
 31
0.0
  0
ENDBLK
  5
B50
100
AcDbEntity
  8
0
100
AcDbBlockEnd
  0
BLOCK
  5
B60
100
AcDbEntity
  8
0
100
AcDbBlockBegin
  2
*X78
 70
     1
 10
0.0
 20
0.0
 30
0.0
  3
*X78
  1

  0
LINE
  5
B52
100
AcDbEntity
  8
0
 62
     0
100
AcDbLine
 10
188.435394
 20
310.411314
 30
0.0
 11
191.435394
 21
313.411314
 31
0.0
  0
LINE
  5
B53
100
AcDbEntity
  8
0
 62
     0
100
AcDbLine
 10
188.435394
 20
313.062964
 30
0.0
 11
191.435394
 21
316.062964
 31
0.0
  0
LINE
  5
B54
100
AcDbEntity
  8
0
 62
     0
100
AcDbLine
 10
188.435394
 20
315.714615
 30
0.0
 11
191.435394
 21
318.714615
 31
0.0
  0
LINE
  5
B55
100
AcDbEntity
  8
0
 62
     0
100
AcDbLine
 10
188.435394
 20
318.366265
 30
0.0
 11
191.435394
 21
321.366265
 31
0.0
  0
LINE
  5
B56
100
AcDbEntity
  8
0
 62
     0
100
AcDbLine
 10
188.435394
 20
321.017916
 30
0.0
 11
191.435394
 21
324.017916
 31
0.0
  0
LINE
  5
B57
100
AcDbEntity
  8
0
 62
     0
100
AcDbLine
 10
188.435394
 20
323.669566
 30
0.0
 11
191.435394
 21
326.669566
 31
0.0
  0
LINE
  5
B58
100
AcDbEntity
  8
0
 62
     0
100
AcDbLine
 10
188.435394
 20
326.321217
 30
0.0
 11
191.435394
 21
329.321217
 31
0.0
  0
LINE
  5
B59
100
AcDbEntity
  8
0
 62
     0
100
AcDbLine
 10
188.435394
 20
328.972867
 30
0.0
 11
189.398758
 21
329.936231
 31
0.0
  0
LINE
  5
B5A
100
AcDbEntity
  8
0
 62
     0
100
AcDbLine
 10
188.435394
 20
307.759664
 30
0.0
 11
191.435394
 21
310.759664
 31
0.0
  0
LINE
  5
B5B
100
AcDbEntity
  8
0
 62
     0
100
AcDbLine
 10
188.435394
 20
305.108013
 30
0.0
 11
191.435394
 21
308.108013
 31
0.0
  0
LINE
  5
B5C
100
AcDbEntity
  8
0
 62
     0
100
AcDbLine
 10
188.435394
 20
302.456363
 30
0.0
 11
191.435394
 21
305.456363
 31
0.0
  0
LINE
  5
B5D
100
AcDbEntity
  8
0
 62
     0
100
AcDbLine
 10
188.435394
 20
299.804712
 30
0.0
 11
191.435394
 21
302.804712
 31
0.0
  0
LINE
  5
B5E
100
AcDbEntity
  8
0
 62
     0
100
AcDbLine
 10
188.435394
 20
297.153062
 30
0.0
 11
191.435394
 21
300.153062
 31
0.0
  0
LINE
  5
B5F
100
AcDbEntity
  8
0
 62
     0
100
AcDbLine
 10
188.920784
 20
294.986801
 30
0.0
 11
191.435394
 21
297.501411
 31
0.0
  0
ENDBLK
  5
B61
100
AcDbEntity
  8
0
100
AcDbBlockEnd
  0
BLOCK
  5
B78
100
AcDbEntity
  8
0
100
AcDbBlockBegin
  2
SP_40067
 70
     0
 10
0.0
 20
0.0
 30
0.0
  3
SP_40067
  1

  0
INSERT
  5
B63
100
AcDbEntity
  8
DIMENSION
100
AcDbBlockReference
  2
*X77
 10
310.0
 20
30.0
 30
0.0
 41
-1.0
1001
ACAD
1000
HATCH
1002
{
1070
    16
1000
ANSI33
1040
15.0
1040
1.570796
1002
}
  0
LWPOLYLINE
  5
B64
100
AcDbEntity
  8
GLAS_MED_FOGNING
100
AcDbPolyline
 90
       47
 70
     0
 43
0.0
 10
24.379016
 20
-64.214036
 42
0.375626
 10
24.668538
 20
-64.821572
 42
-0.375626
 10
24.379016
 20
-64.214036
 10
25.35923
 20
-60.834049
 10
25.35923
 20
-25.009942
 10
25.35923
 20
-4.185835
 10
24.379016
 20
-0.785964
 42
-0.375626
 10
24.668538
 20
-0.178428
 10
25.399399
 20
-0.001423
 42
-0.031701
 10
47.872648
 20
0.150282
 42
-0.31239
 10
48.408157
 20
-0.490058
 10
48.408157
 20
-1.007355
 42
0.686119
 10
48.58226
 20
-1.074502
 10
48.930536
 20
-0.762092
 42
-0.939218
 10
49.632617
 20
-1.322365
 10
48.408157
 20
-3.179406
 10
48.408157
 20
-5.05456
 42
0.686119
 10
48.58226
 20
-5.121708
 10
48.930536
 20
-4.809298
 42
-0.939218
 10
49.632617
 20
-5.369571
 10
48.408157
 20
-7.206728
 10
48.408157
 20
-9.05456
 42
0.686119
 10
48.58226
 20
-9.121708
 10
48.930536
 20
-8.809298
 42
-0.939218
 10
49.632617
 20
-9.369571
 10
48.408157
 20
-11.206728
 42
-0.096916
 10
46.712814
 20
-14.349203
 10
48.107661
 20
-15.374213
 10
49.913464
 20
-17.96694
 42
-1.026387
 10
49.398744
 20
-18.283851
 10
47.498394
 20
-15.901727
 10
46.412151
 20
-15.471766
 42
0.144812
 10
45.600458
 20
-15.48793
 42
-0.376858
 10
32.950143
 20
-15.226538
 42
0.095419
 10
30.535996
 20
-14.761594
 10
28.543462
 20
-14.761594
 42
0.423471
 10
28.35923
 20
-14.952758
 10
28.35923
 20
-25.009942
 10
28.35923
 20
-50.06436
 42
0.434164
 10
28.543462
 20
-50.25829
 10
30.535996
 20
-50.25829
 42
0.095419
 10
32.950143
 20
-49.793345
 42
-0.376858
 10
45.600458
 20
-49.531953
 42
0.144812
 10
46.412151
 20
-49.548118
 10
47.498394
 20
-49.118156
 10
49.398744
 20
-46.736033
 42
-1.044288
 10
49.913464
 20
-47.052943
  0
LWPOLYLINE
  5
B65
100
AcDbEntity
  8
KON
 62
     2
100
AcDbPolyline
 90
       23
 70
     0
 43
0.0
 10
48.107661
 20
-49.64567
 10
49.913464
 20
-47.052943
 10
48.107661
 20
-49.64567
 10
46.712814
 20
-50.670681
 42
-0.096916
 10
48.408157
 20
-53.813156
 10
49.632617
 20
-55.650313
 42
-0.939218
 10
48.930536
 20
-56.210586
 10
48.58226
 20
-55.898176
 42
0.686119
 10
48.408157
 20
-55.965323
 10
48.408157
 20
-57.813156
 10
49.632617
 20
-59.650313
 42
-0.939218
 10
48.930536
 20
-60.210586
 10
48.58226
 20
-59.898176
 42
0.751809
 10
48.408157
 20
-59.985207
 10
48.408157
 20
-61.860361
 10
49.632617
 20
-63.697518
 42
-0.939218
 10
48.930536
 20
-64.257792
 10
48.58226
 20
-63.945381
 42
0.686119
 10
48.408157
 20
-64.012529
 10
48.408157
 20
-64.529825
 42
-0.269136
 10
47.872648
 20
-65.170166
 42
-0.031701
 10
25.399399
 20
-65.018461
 10
24.668538
 20
-64.821572
  0
LWPOLYLINE
  5
B66
100
AcDbEntity
  8
DIM
100
AcDbPolyline
 90
       12
 70
     0
 43
0.0
 10
31.435394
 20
-49.513412
 42
-0.414214
 10
30.935394
 20
-50.013412
 42
0.414214
 10
31.435394
 20
-49.513412
 10
31.435394
 20
-40.038591
 10
31.435394
 20
-15.563769
 42
0.414214
 10
30.935394
 20
-15.063769
 10
28.935394
 20
-15.063769
 42
0.414214
 10
28.435394
 20
-15.563769
 10
28.435394
 20
-40.038591
 10
28.435394
 20
-49.513412
 42
0.414214
 10
28.935394
 20
-50.013412
 42
-0.414214
 10
28.435394
 20
-49.513412
  0
INSERT
  5
B67
100
AcDbEntity
  8
DIM
100
AcDbBlockReference
  2
*X78
 10
-160.0
 20
-345.0
 30
0.0
1001
ACAD
1000
HATCH
1002
{
1070
    16
1000
ANSI31
1040
15.0
1040
0.0
1002
}
  0
LINE
  5
B68
100
AcDbEntity
  8
KON
 62
     2
100
AcDbLine
 10
48.107661
 20
-15.374213
 30
0.0
 11
49.913464
 21
-17.96694
 31
0.0
  0
LWPOLYLINE
  5
B69
100
AcDbEntity
  8
GLAS_MED_FOGNING
100
AcDbPolyline
 90
        9
 70
     1
 43
0.0
 10
30.027311
 20
-13.340227
 42
-0.414214
 10
28.527311
 20
-11.840227
 10
28.527311
 20
-1.728694
 42
-0.084288
 10
44.632919
 20
-1.088866
 42
-0.358662
 10
46.908157
 20
-3.209942
 10
46.908157
 20
-10.512399
 42
-0.569512
 10
33.767801
 20
-14.625937
 42
0.255812
 10
31.74643
 20
-13.416196
 42
0.072128
 10
30.478295
 20
-13.340227
  0
LWPOLYLINE
  5
B6A
100
AcDbEntity
  8
GLAS_MED_FOGNING
100
AcDbPolyline
 90
        4
 70
     1
 43
0.0
 10
31.487334
 20
-42.277958
 10
31.487334
 20
-22.277958
 10
33.987334
 20
-22.277958
 10
33.987334
 20
-42.277958
  0
INSERT
  5
B6B
100
AcDbEntity
  8
FOGNINGB
100
AcDbBlockReference
  2
*X76
 10
696.487334
 20
-192.277958
 30
0.0
 41
-1.0
1001
ACAD
1000
HATCH
1002
{
1070
    16
1000
ANSI38
1040
10.0
1040
0.0
1002
}
  0
LWPOLYLINE
  5
B6C
100
AcDbEntity
  8
GLAS_MED_FOGNING
100
AcDbPolyline
 90
       10
 70
     0
 43
0.0
 10
28.574237
 20
-63.282671
 10
28.574237
 20
-53.171138
 42
-0.408859
 10
30.027311
 20
-51.679656
 10
30.478295
 20
-51.679656
 42
0.072128
 10
31.74643
 20
-51.603688
 42
0.255812
 10
33.767801
 20
-50.393947
 42
-0.569512
 10
46.908157
 20
-54.507485
 10
46.908157
 20
-61.809942
 42
-0.358662
 10
44.632919
 20
-63.931018
 42
-0.08518
 10
28.574237
 20
-63.282671
  0
LINE
  5
B6D
100
AcDbEntity
  8
KON
 62
     2
100
AcDbLine
 10
48.408157
 20
-55.985207
 30
0.0
 11
48.408157
 21
-57.813156
 31
0.0
  0
LINE
  5
B6E
100
AcDbEntity
  8
KON
 62
     2
100
AcDbLine
 10
46.908157
 20
-54.527368
 30
0.0
 11
46.908157
 21
-61.829825
 31
0.0
  0
LINE
  5
B6F
100
AcDbEntity
  8
KON
 62
     2
100
AcDbLine
 10
46.908157
 20
-54.527368
 30
0.0
 11
46.908157
 21
-61.829825
 31
0.0
  0
LINE
  5
B70
100
AcDbEntity
  8
KON
 62
     2
100
AcDbLine
 10
48.408157
 20
-61.840478
 30
0.0
 11
48.408157
 21
-59.965323
 31
0.0
  0
LINE
  5
B71
100
AcDbEntity
  8
DIM
100
AcDbLine
 10
28.935394
 20
-50.013412
 30
0.0
 11
30.935394
 21
-50.013412
 31
0.0
  0
LINE
  5
B72
100
AcDbEntity
  8
DIM
100
AcDbLine
 10
28.935394
 20
-50.013412
 30
0.0
 11
30.935394
 21
-50.013412
 31
0.0
  0
INSERT
  5
B73
100
AcDbEntity
  8
FOGNINGB
100
AcDbBlockReference
  2
*X76
 10
696.487334
 20
-182.277958
 30
0.0
 41
-1.0
1001
ACAD
1000
HATCH
1002
{
1070
    16
1000
ANSI38
1040
10.0
1040
0.0
1002
}
  0
LINE
  5
B74
100
AcDbEntity
  8
KON
 62
     2
100
AcDbLine
 10
48.408157
 20
-3.159522
 30
0.0
 11
48.408157
 21
-5.034677
 31
0.0
  0
LINE
  5
B75
100
AcDbEntity
  8
KON
 62
     2
100
AcDbLine
 10
46.908157
 20
-10.492515
 30
0.0
 11
46.908157
 21
-3.190058
 31
0.0
  0
LINE
  5
B76
100
AcDbEntity
  8
KON
 62
     2
100
AcDbLine
 10
46.908157
 20
-10.492515
 30
0.0
 11
46.908157
 21
-3.190058
 31
0.0
  0
LINE
  5
B77
100
AcDbEntity
  8
KON
 62
     2
100
AcDbLine
 10
48.408157
 20
-9.034677
 30
0.0
 11
48.408157
 21
-7.206728
 31
0.0
  0
ENDBLK
  5
B79
100
AcDbEntity
  8
0
100
AcDbBlockEnd
  0
ENDSEC
  0
SECTION
  2
ENTITIES
  0
INSERT
  5
1E
100
AcDbEntity
  8
0
100
AcDbBlockReference
  2
SIDA
 10
0.0
 20
0.0
 30
0.0
  0
LWPOLYLINE
  5
31
100
AcDbEntity
  8
CENTRUM
100
AcDbPolyline
 90
        4
 70
     0
 43
0.0
 10
-145.0
 20
97.5
 10
-165.0
 20
97.5
 10
-205.4
 20
97.5
 10
-215.0
 20
97.5
  0
INSERT
  5
33
100
AcDbEntity
  8
0
100
AcDbBlockReference
  2
SP42020
 10
-135.0
 20
35.0
 30
0.0
  0
TEXT
  5
50
100
AcDbEntity
  8
TEXT
100
AcDbText
 10
-277.22381
 20
113.0
 30
0.0
 40
5.0
  1
%%USP42520-2
 41
0.8
  7
ROMANS
 72
     1
 11
-260.0
 21
113.0
 31
0.0
100
AcDbText
  0
LINE
  5
53
100
AcDbEntity
  8
GLAS_MED_FOGNING
100
AcDbLine
 10
-308.0
 20
65.0
 30
0.0
 11
-347.4
 21
65.0
 31
0.0
  0
LWPOLYLINE
  5
54
100
AcDbEntity
  8
GLAS_MED_FOGNING
100
AcDbPolyline
 90
        4
 70
     1
 43
0.0
 10
-347.4
 20
60.0
 10
-347.4
 20
55.0
 10
-308.0
 20
60.0
 10
-308.0
 20
55.0
  0
LWPOLYLINE
  5
55
100
AcDbEntity
  8
CENTRUM
100
AcDbPolyline
 90
        4
 70
     0
 43
0.0
 10
-285.0
 20
97.5
 10
-303.0
 20
97.5
 10
-352.4
 20
97.5
 10
-360.0
 20
97.5
  0
INSERT
  5
56
100
AcDbEntity
  8
0
100
AcDbBlockReference
  2
GLASV4_18
 10
-360.0
 20
35.0
 30
0.0
  0
TEXT
  5
7B
100
AcDbEntity
  8
TEXT
100
AcDbText
 10
-378.271429
 20
43.0
 30
0.0
 40
5.0
  1
%%UGLASSV4_18
 41
0.8
  7
ROMANS
 72
     1
 11
-360.0
 21
43.0
 31
0.0
100
AcDbText
  0
LINE
  5
7C
100
AcDbEntity
  8
GLAS_MED_FOGNING
100
AcDbLine
 10
-352.4
 20
97.5
 30
0.0
 11
-352.4
 21
87.0
 31
0.0
  0
TEXT
  5
7D
100
AcDbEntity
  8
TEXT
100
AcDbText
 10
-262.747619
 20
90.0
 30
0.0
 40
5.0
  1
%%UEXPLODE
 41
0.8
  7
ROMANS
 72
     1
 11
-250.0
 21
90.0
 31
0.0
100
AcDbText
  0
INSERT
  5
7E
100
AcDbEntity
  8
0
100
AcDbBlockReference
  2
SP41520
 10
-280.0
 20
35.0
 30
0.0
  0
INSERT
  5
85
100
AcDbEntity
  8
0
100
AcDbBlockReference
  2
GLASH3
 10
-295.0
 20
35.0
 30
0.0
  0
TEXT
  5
A9
100
AcDbEntity
  8
TEXT
100
AcDbText
 10
-322.557143
 20
43.0
 30
0.0
 40
5.0
  1
%%UGLASSH3
 41
0.8
  7
ROMANS
 72
     1
 11
-310.0
 21
43.0
 31
0.0
100
AcDbText
  0
TEXT
  5
AA
100
AcDbEntity
  8
TEXT
100
AcDbText
 10
-285.0
 20
43.0
 30
0.0
 40
5.0
  1
%%USP41520
 41
0.8
  7
ROMANS
 72
     1
 11
-272.157143
 21
43.0
 31
0.0
100
AcDbText
  0
LINE
  5
AB
100
AcDbEntity
  8
GLAS_MED_FOGNING
100
AcDbLine
 10
-303.0
 20
97.5
 30
0.0
 11
-303.0
 21
87.0
 31
0.0
  0
INSERT
  5
AC
100
AcDbEntity
  8
GLAS_MED_FOGNING
100
AcDbBlockReference
  2
GLASH5
 10
-140.0
 20
35.0
 30
0.0
  0
INSERT
  5
D3
100
AcDbEntity
  8
0
100
AcDbBlockReference
  2
GLASV6_18
 10
-215.0
 20
35.0
 30
0.0
  0
LINE
  5
FA
100
AcDbEntity
  8
GLAS_MED_FOGNING
100
AcDbLine
 10
-170.0
 20
65.0
 30
0.0
 11
-200.4
 21
65.0
 31
0.0
  0
INSERT
  5
FB
100
AcDbEntity
  8
GLAS_MED_FOGNING
100
AcDbBlockReference
  2
*X23
 10
-145.0
 20
30.0
 30
0.0
1001
ACAD
1000
HATCH
1002
{
1070
    16
1000
AR-SAND
1040
2.0
1040
0.0
1002
}
  0
TEXT
  5
136
100
AcDbEntity
  8
TEXT
100
AcDbText
 10
-233.271429
 20
43.0
 30
0.0
 40
5.0
  1
%%UGLASSV6_18
 41
0.8
  7
ROMANS
 72
     1
 11
-215.0
 21
43.0
 31
0.0
100
AcDbText
  0
TEXT
  5
137
100
AcDbEntity
  8
TEXT
100
AcDbText
 10
-182.557143
 20
43.0
 30
0.0
 40
5.0
  1
%%UGLASSH5
 41
0.8
  7
ROMANS
 72
     1
 11
-170.0
 21
43.0
 31
0.0
100
AcDbText
  0
LINE
  5
138
100
AcDbEntity
  8
GLAS_MED_FOGNING
100
AcDbLine
 10
-205.4
 20
97.5
 30
0.0
 11
-205.4
 21
89.0
 31
0.0
  0
LINE
  5
139
100
AcDbEntity
  8
GLAS_MED_FOGNING
100
AcDbLine
 10
-165.0
 20
97.5
 30
0.0
 11
-165.0
 21
89.0
 31
0.0
  0
INSERT
  5
13A
100
AcDbEntity
  8
0
100
AcDbBlockReference
  2
65_SP41520
 10
-285.0
 20
225.0
 30
0.0
  0
INSERT
  5
18A
100
AcDbEntity
  8
0
100
AcDbBlockReference
  2
65_SP41520DK
 10
-285.0
 20
170.0
 30
0.0
  0
INSERT
  5
196
100
AcDbEntity
  8
GLAS_MED_FOGNING
100
AcDbBlockReference
  2
SP42520_2
 10
-285.0
 20
100.0
 30
0.0
  0
INSERT
  5
1D8
100
AcDbEntity
  8
0
100
AcDbBlockReference
  2
65_40SP41520DK
 10
-165.0
 20
170.0
 30
0.0
  0
LINE
  5
1E5
100
AcDbEntity
  8
TEXT
100
AcDbLine
 10
-332.678374
 20
196.090625
 30
0.0
 11
-326.446234
 21
177.001193
 31
0.0
  0
INSERT
  5
1E6
100
AcDbEntity
  8
GLAS_MED_FOGNING
100
AcDbBlockReference
  2
SP42520-2_DK
 10
-165.0
 20
100.0
 30
0.0
  0
LINE
  5
1F8
100
AcDbEntity
  8
TEXT
100
AcDbLine
 10
-213.720246
 20
196.101492
 30
0.0
 11
-206.446234
 21
177.001193
 31
0.0
  0
TEXT
  5
1F9
100
AcDbEntity
  8
TEXT
100
AcDbText
 10
-333.938095
 20
233.0
 30
0.0
 40
5.0
  1
%%U65_SP41520
 41
0.8
  7
ROMANS
 72
     1
 11
-315.0
 21
233.0
 31
0.0
100
AcDbText
  0
INSERT
  5
1FA
100
AcDbEntity
  8
0
100
AcDbBlockReference
  2
65_40SP41520
 10
-165.0
 20
225.0
 30
0.0
  0
TEXT
  5
253
100
AcDbEntity
  8
TEXT
100
AcDbText
 10
-222.747619
 20
233.0
 30
0.0
 40
5.0
  1
%%U65_40SP41520
 41
0.8
  7
ROMANS
 72
     1
 11
-200.0
 21
233.0
 31
0.0
100
AcDbText
  0
TEXT
  5
2EE
100
AcDbEntity
  8
TEXT
100
AcDbText
 10
-88.971429
 20
25.0
 30
0.0
 40
5.0
  1
File name %%U765PAGE9
 41
0.8
  7
ROMANS
 72
     2
 11
-25.0
 21
25.0
 31
0.0
100
AcDbText
  0
TEXT
  5
2EF
100
AcDbEntity
  8
TEXT
100
AcDbText
 10
-81.571429
 20
40.0
 30
0.0
 40
5.0
  1
SP 76500  %%UGLASS
 41
0.8
  7
ROMANS
 72
     2
 11
-25.0
 21
40.0
 31
0.0
100
AcDbText
  0
TEXT
  5
2F0
100
AcDbEntity
  8
TEXT
100
AcDbText
 10
-72.285714
 20
63.0
 30
0.0
 40
5.0
  1
%%USP_40067
 41
0.8
  7
ROMANS
 72
     1
 11
-57.157143
 21
63.0
 31
0.0
100
AcDbText
  0
TEXT
  5
2F1
100
AcDbEntity
  8
TEXT
100
AcDbText
 10
-140.0
 20
43.0
 30
0.0
 40
5.0
  1
%%USP42020
 41
0.8
  7
ROMANS
 72
     1
 11
-127.157143
 21
43.0
 31
0.0
100
AcDbText
  0
INSERT
  5
2F2
100
AcDbEntity
  8
0
100
AcDbBlockReference
  2
65_SP40520FYLLN
 10
-45.0
 20
170.0
 30
0.0
  0
TEXT
  5
346
100
AcDbEntity
  8
TEXT
100
AcDbText
 10
-64.985714
 20
178.0
 30
0.0
 40
5.0
  1
%%UFILLING
 41
0.8
  7
ROMANS
 72
     1
 11
-55.0
 21
178.0
 31
0.0
100
AcDbText
  0
LINE
  5
347
100
AcDbEntity
  8
TEXT
100
AcDbLine
 10
-84.566992
 20
198.896146
 30
0.0
 11
-68.636196
 21
176.999677
 31
0.0
  0
TEXT
  5
348
100
AcDbEntity
  8
TEXT
100
AcDbText
 10
-77.842857
 20
233.0
 30
0.0
 40
5.0
  1
%%USP40520
 41
0.8
  7
ROMANS
 72
     1
 11
-65.0
 21
233.0
 31
0.0
100
AcDbText
  0
INSERT
  5
349
100
AcDbEntity
  8
0
100
AcDbBlockReference
  2
SP40520
 10
-45.0
 20
225.0
 30
0.0
  0
INSERT
  5
34A
100
AcDbEntity
  8
0
100
AcDbBlockReference
  2
65_SP45020DK
 10
-285.0
 20
430.0
 30
0.0
  0
INSERT
  5
35C
100
AcDbEntity
  8
0
100
AcDbBlockReference
  2
65_SP43020
 10
-285.0
 20
355.0
 30
0.0
  0
INSERT
  5
395
100
AcDbEntity
  8
0
100
AcDbBlockReference
  2
65_SP43020DK
 10
-285.0
 20
300.0
 30
0.0
  0
INSERT
  5
3A1
100
AcDbEntity
  8
0
100
AcDbBlockReference
  2
65_SP42520
 10
-165.0
 20
355.0
 30
0.0
  0
LINE
  5
3B4
100
AcDbEntity
  8
TEXT
100
AcDbLine
 10
-336.228241
 20
326.02249
 30
0.0
 11
-326.446234
 21
307.001193
 31
0.0
  0
TEXT
  5
3B5
100
AcDbEntity
  8
TEXT
100
AcDbText
 10
-333.938095
 20
363.0
 30
0.0
 40
5.0
  1
%%U65_SP43020
 41
0.8
  7
ROMANS
 72
     1
 11
-315.0
 21
363.0
 31
0.0
100
AcDbText
  0
INSERT
  5
3B6
100
AcDbEntity
  8
0
100
AcDbBlockReference
  2
65_SP42520DK
 10
-165.0
 20
300.0
 30
0.0
  0
LINE
  5
3C3
100
AcDbEntity
  8
TEXT
100
AcDbLine
 10
-214.609344
 20
326.139893
 30
0.0
 11
-206.458937
 21
307.001134
 31
0.0
  0
TEXT
  5
3C4
100
AcDbEntity
  8
TEXT
100
AcDbText
 10
-213.938095
 20
363.0
 30
0.0
 40
5.0
  1
%%U65_SP42520
 41
0.8
  7
ROMANS
 72
     1
 11
-195.0
 21
363.0
 31
0.0
100
AcDbText
  0
TEXT
  5
3C5
100
AcDbEntity
  8
TEXT
100
AcDbText
 10
-324.938095
 20
438.0
 30
0.0
 40
5.0
  1
%%UDISTANCE BLOCK
 41
0.8
  7
ROMANS
 72
     1
 11
-300.0
 21
438.0
 31
0.0
100
AcDbText
  0
LINE
  5
3C6
100
AcDbEntity
  8
TEXT
100
AcDbLine
 10
-341.255216
 20
456.300891
 30
0.0
 11
-326.444358
 21
436.998604
 31
0.0
  0
LINE
  5
3C8
100
AcDbEntity
  8
TEXT
100
AcDbLine
 10
-217.80317
 20
456.248476
 30
0.0
 11
-206.444358
 21
436.998604
 31
0.0
  0
INSERT
  5
3C9
100
AcDbEntity
  8
0
100
AcDbBlockReference
  2
65_SP44020DK
 10
-165.0
 20
430.0
 30
0.0
  0
INSERT
  5
3DB
100
AcDbEntity
  8
0
100
AcDbBlockReference
  2
65_SP45020
 10
-285.0
 20
485.0
 30
0.0
  0
TEXT
  5
3F5
100
AcDbEntity
  8
TEXT
100
AcDbText
 10
-333.938095
 20
493.0
 30
0.0
 40
5.0
  1
%%U65_SP45020
 41
0.8
  7
ROMANS
 72
     1
 11
-315.0
 21
493.0
 31
0.0
100
AcDbText
  0
INSERT
  5
3F6
100
AcDbEntity
  8
0
100
AcDbBlockReference
  2
65_SP44020
 10
-165.0
 20
485.0
 30
0.0
  0
TEXT
  5
418
100
AcDbEntity
  8
TEXT
100
AcDbText
 10
-213.938095
 20
493.0
 30
0.0
 40
5.0
  1
%%U65_SP44020
 41
0.8
  7
ROMANS
 72
     1
 11
-195.0
 21
493.0
 31
0.0
100
AcDbText
  0
INSERT
  5
419
100
AcDbEntity
  8
0
100
AcDbBlockReference
  2
65_SP42020
 10
-45.0
 20
355.0
 30
0.0
  0
TEXT
  5
425
100
AcDbEntity
  8
TEXT
100
AcDbText
 10
-93.938095
 20
363.0
 30
0.0
 40
5.0
  1
%%U65_SP42020
 41
0.8
  7
ROMANS
 72
     1
 11
-75.0
 21
363.0
 31
0.0
100
AcDbText
  0
INSERT
  5
427
100
AcDbEntity
  8
0
100
AcDbBlockReference
  2
65_SP42020DK
 10
-45.0
 20
300.0
 30
0.0
  0
LINE
  5
433
100
AcDbEntity
  8
TEXT
100
AcDbLine
 10
-93.096768
 20
326.201189
 30
0.0
 11
-86.444358
 21
306.998604
 31
0.0
  0
INSERT
  5
434
100
AcDbEntity
  8
0
100
AcDbBlockReference
  2
65_SP43520DK
 10
-45.0
 20
430.0
 30
0.0
  0
LINE
  5
447
100
AcDbEntity
  8
TEXT
100
AcDbLine
 10
-96.815871
 20
456.163678
 30
0.0
 11
-86.444358
 21
436.998604
 31
0.0
  0
TEXT
  5
448
100
AcDbEntity
  8
TEXT
100
AcDbText
 10
-93.938095
 20
493.0
 30
0.0
 40
5.0
  1
%%U65_SP43520
 41
0.8
  7
ROMANS
 72
     1
 11
-75.0
 21
493.0
 31
0.0
100
AcDbText
  0
INSERT
  5
449
100
AcDbEntity
  8
0
100
AcDbBlockReference
  2
65_SP43520
 10
-45.0
 20
485.0
 30
0.0
  0
INSERT
  5
C6A
100
AcDbEntity
  8
GLAS_MED_FOGNING
100
AcDbBlockReference
  2
SP40067
 10
-25.0
 20
75.0
 30
0.0
  0
TEXT
  5
C77
100
AcDbEntity
  8
TEXT
100
AcDbText
 10
-204.938095
 20
438.0
 30
0.0
 40
5.0
  1
%%UDISTANCE BLOCK
 41
0.8
  7
ROMANS
 72
     1
 11
-180.0
 21
438.0
 31
0.0
100
AcDbText
  0
TEXT
  5
C78
100
AcDbEntity
  8
TEXT
100
AcDbText
 10
-84.938095
 20
438.0
 30
0.0
 40
5.0
  1
%%UDISTANCE BLOCK
 41
0.8
  7
ROMANS
 72
     1
 11
-60.0
 21
438.0
 31
0.0
100
AcDbText
  0
TEXT
  5
C79
100
AcDbEntity
  8
TEXT
100
AcDbText
 10
-84.938095
 20
308.0
 30
0.0
 40
5.0
  1
%%UDISTANCE BLOCK
 41
0.8
  7
ROMANS
 72
     1
 11
-60.0
 21
308.0
 31
0.0
100
AcDbText
  0
TEXT
  5
C7A
100
AcDbEntity
  8
TEXT
100
AcDbText
 10
-204.938095
 20
308.0
 30
0.0
 40
5.0
  1
%%UDISTANCE BLOCK
 41
0.8
  7
ROMANS
 72
     1
 11
-180.0
 21
308.0
 31
0.0
100
AcDbText
  0
TEXT
  5
C7B
100
AcDbEntity
  8
TEXT
100
AcDbText
 10
-324.938095
 20
308.0
 30
0.0
 40
5.0
  1
%%UDISTANCE BLOCK
 41
0.8
  7
ROMANS
 72
     1
 11
-300.0
 21
308.0
 31
0.0
100
AcDbText
  0
TEXT
  5
C7C
100
AcDbEntity
  8
TEXT
100
AcDbText
 10
-324.938095
 20
178.0
 30
0.0
 40
5.0
  1
%%UDISTANCE BLOCK
 41
0.8
  7
ROMANS
 72
     1
 11
-300.0
 21
178.0
 31
0.0
100
AcDbText
  0
TEXT
  5
C7D
100
AcDbEntity
  8
TEXT
100
AcDbText
 10
-204.938095
 20
178.0
 30
0.0
 40
5.0
  1
%%UDISTANCE BLOCK
 41
0.8
  7
ROMANS
 72
     1
 11
-180.0
 21
178.0
 31
0.0
100
AcDbText
  0
ENDSEC
  0
SECTION
  2
OBJECTS
  0
DICTIONARY
  5
1A
100
AcDbDictionary
  3
ACAD_GROUP
350
18
  3
ACAD_LAYOUT
350
C70
  3
ACAD_MLINESTYLE
350
19
  3
ACAD_PLOTSETTINGS
350
C71
  3
ACAD_PLOTSTYLENAME
350
C6E
  3
ACDBHEADERROUNDTRIPXREC
350
C81
  3
CONTENTDICTIONARY
350
A1E
  0
DICTIONARY
  5
C7F
100
AcDbDictionary
280
     1
  3
ACAD_XREC_ROUNDTRIP
360
C80
  0
DICTIONARY
  5
CA1
100
AcDbDictionary
280
     1
  3
ACAD_LAYOUTSELFREF
360
CA2
  0
DICTIONARY
  5
CA3
100
AcDbDictionary
280
     1
  3
ACAD_LAYOUTSELFREF
360
CA4
  0
DICTIONARY
  5
18
102
{ACAD_REACTORS
330
1A
102
}
100
AcDbDictionary
  0
DICTIONARY
  5
C70
102
{ACAD_XDICTIONARY
360
CA8
102
}
102
{ACAD_REACTORS
330
1A
102
}
100
AcDbDictionary
  3
LAYOUT1
350
C73
  3
MODEL
350
C72
  0
DICTIONARY
  5
19
102
{ACAD_REACTORS
330
1A
102
}
100
AcDbDictionary
  3
STANDARD
350
1C
  0
DICTIONARY
  5
C71
102
{ACAD_REACTORS
330
1A
102
}
100
AcDbDictionary
  0
ACAD_PROXY_OBJECT
  5
C6E
102
{ACAD_REACTORS
330
1A
102
}
100
AcDbProxyObject
 90
      499
 91
      502
 93
       86
310
405010041939BDC9B585B0
350
C6F
340
C6F
 94
        0
  0
DICTIONARY
  5
C81
102
{ACAD_REACTORS
330
1A
102
}
100
AcDbDictionary
  3
CEPSNTYPE
350
C8B
  3
FINGERPRINTGUID
350
C8C
  3
HYPERLINKBASE
350
C84
  3
INSUNITS
350
C8A
  3
LAYOUTDICT
350
C86
  3
LWETCUNION
350
C89
  3
PLOTSETDICT
350
C87
  3
PLOTSTYLNAMDICT
350
C88
  3
PSVPSCALE
350
C8E
  3
PUCSBASE
350
C91
  3
PUCSORGBACK
350
C97
  3
PUCSORGBOTTOM
350
C93
  3
PUCSORGFRONT
350
C96
  3
PUCSORGLEFT
350
C94
  3
PUCSORGRIGHT
350
C95
  3
PUCSORGTOP
350
C92
  3
PUCSORTHOREF
350
C8F
  3
PUCSORTHOVIEW
350
C90
  3
STYLESHEET
350
C85
  3
TSTACKALIGN
350
C82
  3
TSTACKSIZE
350
C83
  3
UCSBASE
350
C9A
  3
UCSORGBACK
350
CA0
  3
UCSORGBOTTOM
350
C9C
  3
UCSORGFRONT
350
C9F
  3
UCSORGLEFT
350
C9D
  3
UCSORGRIGHT
350
C9E
  3
UCSORGTOP
350
C9B
  3
UCSORTHOREF
350
C98
  3
UCSORTHOVIEW
350
C99
  3
VERSIONGUID
350
C8D
  0
DICTIONARY
  5
A1E
102
{ACAD_REACTORS
330
1A
102
}
100
AcDbDictionary
  0
XRECORD
  5
C80
102
{ACAD_REACTORS
330
C7F
102
}
100
AcDbXrecord
102
EXTNAMES
  1
*ACTIVE
  2
*Active
102
UCS
 74
     0
 71
     1
 10
0.0
 20
0.0
 30
0.0
 10
1.0
 20
0.0
 30
0.0
 10
0.0
 20
1.0
 30
0.0
146
0.0
 79
     0
102
VIEW
281
     0
  0
XRECORD
  5
CA2
102
{ACAD_REACTORS
330
CA1
102
}
100
AcDbXrecord
340
2
  0
XRECORD
  5
CA4
102
{ACAD_REACTORS
330
CA3
102
}
100
AcDbXrecord
340
7
  0
DICTIONARY
  5
CA8
100
AcDbDictionary
280
     1
  3
ACAD_XREC_ROUNDTRIP
360
CA9
  0
ACAD_PROXY_OBJECT
  5
C73
102
{ACAD_REACTORS
330
C70
102
}
100
AcDbProxyObject
 90
      499
 91
      504
 93
     1092
310
91D4850204C617365724A65742034562F344D5620506F73745363726970742C00AAAAAA416AA591069074C61796F75743140501A800000000000000000000000000000000000000000101E900000000000241C902A6A6A10232D5E076BC5510408CB5781DAF154410232D5E076BC5510408CB5781DAF15C410232D5E076BC5
310
710408CB5781DAF15C4A
330
7
330
0
340
0
340
0
 94
        0
  0
ACAD_PROXY_OBJECT
  5
C72
102
{ACAD_REACTORS
330
C70
102
}
100
AcDbProxyObject
 90
      499
 91
      504
 93
      668
310
91D4850204C617365724A65742034562F344D5620506F73745363726970742C01AAAAAAAAA5A69054D6F64656C901A800000000000000000000000000000000000000000000A1000000000000008902A6A6AAAAE
330
2
330
0
340
0
340
0
 94
        0
  0
MLINESTYLE
  5
1C
102
{ACAD_REACTORS
330
19
102
}
100
AcDbMlineStyle
  2
STANDARD
 70
     0
  3

 62
     0
 51
90.0
 52
90.0
 71
     2
 49
0.5
 62
   256
  6
BYLAYER
 49
-0.5
 62
   256
  6
BYLAYER
  0
ACAD_PROXY_OBJECT
  5
C6F
102
{ACAD_REACTORS
330
C6E
102
}
100
AcDbProxyObject
 90
      499
 91
      503
 93
        0
 94
        0
  0
XRECORD
  5
C8B
102
{ACAD_REACTORS
330
C81
102
}
100
AcDbXrecord
 90
        0
  0
XRECORD
  5
C8C
102
{ACAD_REACTORS
330
C81
102
}
100
AcDbXrecord
  1
{DCFA0A8F-0BE8-11D6-AA0B-00D0B7E2A69D}
  0
XRECORD
  5
C84
102
{ACAD_REACTORS
330
C81
102
}
100
AcDbXrecord
  1

  0
XRECORD
  5
C8A
102
{ACAD_REACTORS
330
C81
102
}
100
AcDbXrecord
 90
        0
  0
XRECORD
  5
C86
102
{ACAD_REACTORS
330
C81
102
}
100
AcDbXrecord
340
C70
  0
XRECORD
  5
C89
102
{ACAD_REACTORS
330
C81
102
}
100
AcDbXrecord
 90
    14877
  0
XRECORD
  5
C87
102
{ACAD_REACTORS
330
C81
102
}
100
AcDbXrecord
340
C71
  0
XRECORD
  5
C88
102
{ACAD_REACTORS
330
C81
102
}
100
AcDbXrecord
340
C6E
  0
XRECORD
  5
C8E
102
{ACAD_REACTORS
330
C81
102
}
100
AcDbXrecord
 40
0.0
  0
XRECORD
  5
C91
102
{ACAD_REACTORS
330
C81
102
}
100
AcDbXrecord
340
0
  0
XRECORD
  5
C97
102
{ACAD_REACTORS
330
C81
102
}
100
AcDbXrecord
 10
0.0
 20
0.0
 30
0.0
  0
XRECORD
  5
C93
102
{ACAD_REACTORS
330
C81
102
}
100
AcDbXrecord
 10
0.0
 20
0.0
 30
0.0
  0
XRECORD
  5
C96
102
{ACAD_REACTORS
330
C81
102
}
100
AcDbXrecord
 10
0.0
 20
0.0
 30
0.0
  0
XRECORD
  5
C94
102
{ACAD_REACTORS
330
C81
102
}
100
AcDbXrecord
 10
0.0
 20
0.0
 30
0.0
  0
XRECORD
  5
C95
102
{ACAD_REACTORS
330
C81
102
}
100
AcDbXrecord
 10
0.0
 20
0.0
 30
0.0
  0
XRECORD
  5
C92
102
{ACAD_REACTORS
330
C81
102
}
100
AcDbXrecord
 10
0.0
 20
0.0
 30
0.0
  0
XRECORD
  5
C8F
102
{ACAD_REACTORS
330
C81
102
}
100
AcDbXrecord
340
0
  0
XRECORD
  5
C90
102
{ACAD_REACTORS
330
C81
102
}
100
AcDbXrecord
 70
     0
  0
XRECORD
  5
C85
102
{ACAD_REACTORS
330
C81
102
}
100
AcDbXrecord
  1

  0
XRECORD
  5
C82
102
{ACAD_REACTORS
330
C81
102
}
100
AcDbXrecord
 90
        1
  0
XRECORD
  5
C83
102
{ACAD_REACTORS
330
C81
102
}
100
AcDbXrecord
 90
       70
  0
XRECORD
  5
C9A
102
{ACAD_REACTORS
330
C81
102
}
100
AcDbXrecord
340
0
  0
XRECORD
  5
CA0
102
{ACAD_REACTORS
330
C81
102
}
100
AcDbXrecord
 10
0.0
 20
0.0
 30
0.0
  0
XRECORD
  5
C9C
102
{ACAD_REACTORS
330
C81
102
}
100
AcDbXrecord
 10
0.0
 20
0.0
 30
0.0
  0
XRECORD
  5
C9F
102
{ACAD_REACTORS
330
C81
102
}
100
AcDbXrecord
 10
0.0
 20
0.0
 30
0.0
  0
XRECORD
  5
C9D
102
{ACAD_REACTORS
330
C81
102
}
100
AcDbXrecord
 10
0.0
 20
0.0
 30
0.0
  0
XRECORD
  5
C9E
102
{ACAD_REACTORS
330
C81
102
}
100
AcDbXrecord
 10
0.0
 20
0.0
 30
0.0
  0
XRECORD
  5
C9B
102
{ACAD_REACTORS
330
C81
102
}
100
AcDbXrecord
 10
0.0
 20
0.0
 30
0.0
  0
XRECORD
  5
C98
102
{ACAD_REACTORS
330
C81
102
}
100
AcDbXrecord
340
0
  0
XRECORD
  5
C99
102
{ACAD_REACTORS
330
C81
102
}
100
AcDbXrecord
 70
     0
  0
XRECORD
  5
C8D
102
{ACAD_REACTORS
330
C81
102
}
100
AcDbXrecord
  1
{DCFA0A91-0BE8-11D6-AA0B-00D0B7E2A69D}
  0
XRECORD
  5
CA9
102
{ACAD_REACTORS
330
CA8
102
}
100
AcDbXrecord
102
EXTNAMES
  1
LAYOUT1
  2
Layout1
  1
MODEL
  2
Model
  0
ENDSEC
  0
EOF
