  0
SECTION
  2
HEADER
  9
$ACADVER
  1
AC1014
  9
$ACADMAINTVER
 70
     0
  9
$DWGCODEPAGE
  3
ANSI_1252
  9
$INSBASE
 10
-5.0
 20
20.0
 30
0.0
  9
$EXTMIN
 10
-380.0
 20
24.0
 30
0.0
  9
$EXTMAX
 10
-20.0
 20
560.0
 30
0.0
  9
$LIMMIN
 10
0.0
 20
0.0
  9
$LIMMAX
 10
840.0
 20
600.0
  9
$ORTHOMODE
 70
     0
  9
$REGENMODE
 70
     1
  9
$FILLMODE
 70
     1
  9
$QTEXTMODE
 70
     0
  9
$MIRRTEXT
 70
     1
  9
$DRAGMODE
 70
     2
  9
$LTSCALE
 40
5.0
  9
$OSMODE
 70
     0
  9
$ATTMODE
 70
     1
  9
$TEXTSIZE
 40
3.15
  9
$TRACEWID
 40
0.05
  9
$TEXTSTYLE
  7
STANDARD
  9
$CLAYER
  8
GLAS_MED_FOGNING
  9
$CELTYPE
  6
BYLAYER
  9
$CECOLOR
 62
   256
  9
$CELTSCALE
 40
1.0
  9
$DELOBJ
 70
     1
  9
$DISPSILH
 70
     0
  9
$DIMSCALE
 40
1.0
  9
$DIMASZ
 40
0.0
  9
$DIMEXO
 40
1.0
  9
$DIMDLI
 40
10.0
  9
$DIMRND
 40
0.0
  9
$DIMDLE
 40
0.0
  9
$DIMEXE
 40
2.0
  9
$DIMTP
 40
0.0
  9
$DIMTM
 40
0.0
  9
$DIMTXT
 40
3.5
  9
$DIMCEN
 40
2.5
  9
$DIMTSZ
 40
1.0
  9
$DIMTOL
 70
     0
  9
$DIMLIM
 70
     0
  9
$DIMTIH
 70
     0
  9
$DIMTOH
 70
     0
  9
$DIMSE1
 70
     0
  9
$DIMSE2
 70
     0
  9
$DIMTAD
 70
     1
  9
$DIMZIN
 70
     8
  9
$DIMBLK
  1

  9
$DIMASO
 70
     1
  9
$DIMSHO
 70
     1
  9
$DIMPOST
  1

  9
$DIMAPOST
  1

  9
$DIMALT
 70
     0
  9
$DIMALTD
 70
     2
  9
$DIMALTF
 40
25.4
  9
$DIMLFAC
 40
1.0
  9
$DIMTOFL
 70
     1
  9
$DIMTVP
 40
0.0
  9
$DIMTIX
 70
     0
  9
$DIMSOXD
 70
     0
  9
$DIMSAH
 70
     0
  9
$DIMBLK1
  1

  9
$DIMBLK2
  1

  9
$DIMSTYLE
  2
STANDARD
  9
$DIMCLRD
 70
     0
  9
$DIMCLRE
 70
     0
  9
$DIMCLRT
 70
     6
  9
$DIMTFAC
 40
1.0
  9
$DIMGAP
 40
0.1
  9
$DIMJUST
 70
     0
  9
$DIMSD1
 70
     0
  9
$DIMSD2
 70
     0
  9
$DIMTOLJ
 70
     1
  9
$DIMTZIN
 70
     0
  9
$DIMALTZ
 70
     0
  9
$DIMALTTZ
 70
     0
  9
$DIMFIT
 70
     3
  9
$DIMUPT
 70
     0
  9
$DIMUNIT
 70
     2
  9
$DIMDEC
 70
     4
  9
$DIMTDEC
 70
     4
  9
$DIMALTU
 70
     2
  9
$DIMALTTD
 70
     2
  9
$DIMTXSTY
  7
STANDARD
  9
$DIMAUNIT
 70
     0
  9
$LUNITS
 70
     2
  9
$LUPREC
 70
     2
  9
$SKETCHINC
 40
0.1
  9
$FILLETRAD
 40
0.5
  9
$AUNITS
 70
     0
  9
$AUPREC
 70
     4
  9
$MENU
  1
acad
  9
$ELEVATION
 40
0.0
  9
$PELEVATION
 40
0.0
  9
$THICKNESS
 40
0.0
  9
$LIMCHECK
 70
     0
  9
$BLIPMODE
 70
     1
  9
$CHAMFERA
 40
10.0
  9
$CHAMFERB
 40
10.0
  9
$CHAMFERC
 40
0.0
  9
$CHAMFERD
 40
0.0
  9
$SKPOLY
 70
     0
  9
$TDCREATE
 40
2450619.740852661
  9
$TDUPDATE
 40
2452228.849661689
  9
$TDINDWG
 40
0.0023096065
  9
$TDUSRTIMER
 40
0.0023096065
  9
$USRTIMER
 70
     1
  9
$ANGBASE
 50
0.0
  9
$ANGDIR
 70
     0
  9
$PDMODE
 70
    35
  9
$PDSIZE
 40
0.0
  9
$PLINEWID
 40
0.0
  9
$COORDS
 70
     2
  9
$SPLFRAME
 70
     0
  9
$SPLINETYPE
 70
     6
  9
$SPLINESEGS
 70
     8
  9
$ATTDIA
 70
     0
  9
$ATTREQ
 70
     1
  9
$HANDLING
 70
     1
  9
$HANDSEED
  5
556
  9
$SURFTAB1
 70
     6
  9
$SURFTAB2
 70
     6
  9
$SURFTYPE
 70
     6
  9
$SURFU
 70
     6
  9
$SURFV
 70
     6
  9
$UCSNAME
  2

  9
$UCSORG
 10
0.0
 20
0.0
 30
0.0
  9
$UCSXDIR
 10
1.0
 20
0.0
 30
0.0
  9
$UCSYDIR
 10
0.0
 20
1.0
 30
0.0
  9
$PUCSNAME
  2

  9
$PUCSORG
 10
0.0
 20
0.0
 30
0.0
  9
$PUCSXDIR
 10
1.0
 20
0.0
 30
0.0
  9
$PUCSYDIR
 10
0.0
 20
1.0
 30
0.0
  9
$USERI1
 70
     0
  9
$USERI2
 70
     0
  9
$USERI3
 70
     0
  9
$USERI4
 70
     0
  9
$USERI5
 70
     0
  9
$USERR1
 40
0.0
  9
$USERR2
 40
0.0
  9
$USERR3
 40
0.0
  9
$USERR4
 40
0.0
  9
$USERR5
 40
0.0
  9
$WORLDVIEW
 70
     1
  9
$SHADEDGE
 70
     3
  9
$SHADEDIF
 70
    70
  9
$TILEMODE
 70
     1
  9
$MAXACTVP
 70
    16
  9
$PINSBASE
 10
0.0
 20
0.0
 30
0.0
  9
$PLIMCHECK
 70
     0
  9
$PEXTMIN
 10
1.000000E+20
 20
1.000000E+20
 30
1.000000E+20
  9
$PEXTMAX
 10
-1.000000E+20
 20
-1.000000E+20
 30
-1.000000E+20
  9
$PLIMMIN
 10
0.0
 20
0.0
  9
$PLIMMAX
 10
420.0
 20
297.0
  9
$UNITMODE
 70
     0
  9
$VISRETAIN
 70
     0
  9
$PLINEGEN
 70
     0
  9
$PSLTSCALE
 70
     1
  9
$TREEDEPTH
 70
  3020
  9
$PICKSTYLE
 70
     1
  9
$CMLSTYLE
  2
STANDARD
  9
$CMLJUST
 70
     0
  9
$CMLSCALE
 40
1.0
  9
$PROXYGRAPHICS
 70
     1
  9
$MEASUREMENT
 70
     0
  0
ENDSEC
  0
SECTION
  2
CLASSES
  0
CLASS
  1
LWPOLYLINE
  2
AcDbPolyline
  3
"AutoCAD"
 90
        0
280
     0
281
     1
  0
ENDSEC
  0
SECTION
  2
TABLES
  0
TABLE
  2
VPORT
  5
12
100
AcDbSymbolTable
 70
     1
  0
VPORT
  5
551
100
AcDbSymbolTableRecord
100
AcDbViewportTableRecord
  2
*ACTIVE
 70
     0
 10
0.0
 20
0.0
 11
1.0
 21
1.0
 12
229.969483
 22
300.0
 13
0.0
 23
0.0
 14
5.0
 24
5.0
 15
10.0
 25
10.0
 16
0.0
 26
0.0
 36
1.0
 17
0.0
 27
0.0
 37
0.0
 40
830.65317
 41
1.47625
 42
50.0
 43
0.0
 44
0.0
 50
0.0
 51
0.0
 71
     0
 72
   100
 73
     1
 74
     1
 75
     1
 76
     0
 77
     0
 78
     0
  0
ENDTAB
  0
TABLE
  2
LTYPE
  5
D
100
AcDbSymbolTable
 70
     1
  0
LTYPE
  5
E
100
AcDbSymbolTableRecord
100
AcDbLinetypeTableRecord
  2
BYBLOCK
 70
     0
  3

 72
    65
 73
     0
 40
0.0
  0
LTYPE
  5
F
100
AcDbSymbolTableRecord
100
AcDbLinetypeTableRecord
  2
BYLAYER
 70
     0
  3

 72
    65
 73
     0
 40
0.0
  0
LTYPE
  5
5
100
AcDbSymbolTableRecord
100
AcDbLinetypeTableRecord
  2
CONTINUOUS
 70
     0
  3
Solid line
 72
    65
 73
     0
 40
0.0
  0
ENDTAB
  0
TABLE
  2
LAYER
  5
A
100
AcDbSymbolTable
 70
     6
  0
LAYER
  5
4
100
AcDbSymbolTableRecord
100
AcDbLayerTableRecord
  2
0
 70
     0
 62
     7
  6
CONTINUOUS
  0
LAYER
  5
23
100
AcDbSymbolTableRecord
100
AcDbLayerTableRecord
  2
STALPROFIL
 70
     0
 62
     1
  6
CONTINUOUS
  0
LAYER
  5
21
100
AcDbSymbolTableRecord
100
AcDbLayerTableRecord
  2
SPKONTUR
 70
     0
 62
     7
  6
CONTINUOUS
  0
LAYER
  5
1B
100
AcDbSymbolTableRecord
100
AcDbLayerTableRecord
  2
GLAS_MED_FOGNING
 70
     0
 62
     2
  6
CONTINUOUS
  0
LAYER
  5
2B6
100
AcDbSymbolTableRecord
100
AcDbLayerTableRecord
  2
TEXT
 70
     0
 62
     6
  6
CONTINUOUS
  0
LAYER
  5
2B4
100
AcDbSymbolTableRecord
100
AcDbLayerTableRecord
  2
RAM
 70
     0
 62
     5
  6
CONTINUOUS
  0
ENDTAB
  0
TABLE
  2
STYLE
  5
B
100
AcDbSymbolTable
 70
     2
  0
STYLE
  5
C
100
AcDbSymbolTableRecord
100
AcDbTextStyleTableRecord
  2
STANDARD
 70
     0
 40
0.0
 41
1.0
 50
0.0
 71
     0
 42
5.0
  3
txt
  4

  0
STYLE
  5
25C
100
AcDbSymbolTableRecord
100
AcDbTextStyleTableRecord
  2
ROMANS
 70
     0
 40
0.0
 41
0.8
 50
0.0
 71
     0
 42
5.0
  3
romans
  4

  0
ENDTAB
  0
TABLE
  2
VIEW
  5
10
100
AcDbSymbolTable
 70
     0
  0
ENDTAB
  0
TABLE
  2
UCS
  5
11
100
AcDbSymbolTable
 70
     0
  0
ENDTAB
  0
TABLE
  2
APPID
  5
14
100
AcDbSymbolTable
 70
     4
  0
APPID
  5
15
100
AcDbSymbolTableRecord
100
AcDbRegAppTableRecord
  2
ACAD
 70
     0
  0
APPID
  5
25A
100
AcDbSymbolTableRecord
100
AcDbRegAppTableRecord
  2
CONTENTBLOCKICON
 70
     0
  0
APPID
  5
54F
100
AcDbSymbolTableRecord
100
AcDbRegAppTableRecord
  2
CONTENTTABDATA
 70
     0
  0
APPID
  5
550
100
AcDbSymbolTableRecord
100
AcDbRegAppTableRecord
  2
CONTENTCURRENTTAB
 70
     0
  0
ENDTAB
  0
TABLE
  2
DIMSTYLE
  5
16
100
AcDbSymbolTable
 70
     1
  0
DIMSTYLE
105
1D
100
AcDbSymbolTableRecord
100
AcDbDimStyleTableRecord
  2
STANDARD
 70
     0
  3

  4

  5

  6

  7

 40
1.0
 41
0.18
 42
0.0625
 43
0.38
 44
0.18
 45
0.0
 46
0.0
 47
0.0
 48
0.0
140
0.18
141
0.09
142
0.0
143
25.4
144
1.0
145
0.0
146
1.0
147
0.09
 71
     0
 72
     0
 73
     1
 74
     1
 75
     0
 76
     0
 77
     0
 78
     0
170
     0
171
     2
172
     0
173
     0
174
     0
175
     0
176
     0
177
     0
178
     0
270
     2
271
     4
272
     4
273
     2
274
     2
340
C
275
     0
280
     0
281
     0
282
     0
283
     1
284
     0
285
     0
286
     0
287
     3
288
     0
  0
ENDTAB
  0
TABLE
  2
BLOCK_RECORD
  5
1
100
AcDbSymbolTable
 70
     8
  0
BLOCK_RECORD
  5
2
100
AcDbSymbolTableRecord
100
AcDbBlockTableRecord
  2
*MODEL_SPACE
  0
BLOCK_RECORD
  5
7
100
AcDbSymbolTableRecord
100
AcDbBlockTableRecord
  2
*PAPER_SPACE
  0
BLOCK_RECORD
  5
4F7
100
AcDbSymbolTableRecord
100
AcDbBlockTableRecord
  2
*X0
  0
BLOCK_RECORD
  5
263
100
AcDbSymbolTableRecord
100
AcDbBlockTableRecord
  2
*X1
  0
BLOCK_RECORD
  5
2C1
100
AcDbSymbolTableRecord
100
AcDbBlockTableRecord
  2
*X2
  0
BLOCK_RECORD
  5
27
100
AcDbSymbolTableRecord
100
AcDbBlockTableRecord
  2
*X3
  0
BLOCK_RECORD
  5
2BB
100
AcDbSymbolTableRecord
100
AcDbBlockTableRecord
  2
90_SP79021-7180-57
1001
CONTENTBLOCKICON
1071
        0
1004
2800000020000000200000000100040000000000000200000000000000000000000000000000000000000000000080000080000000808000800000008000800080800000C0C0C000808080000000FF0000FF000000FFFF00FF000000FF00FF00FFFF0000FFFFFF00FFFFFFFFFFFFFFFFFFFFFFFFFFFFFFFF
1004
FFFFFFFFFFFFFFFFFFFFFFFFFFFFFFFFFFFFFFFFFFFFFFFFFFFFFFFFFFFFFFFFFFFFFFFFFFFFFFFFFFFFFFFFFFFFFFFFFFFFFFFFFFFFFFFFFFFFFFFFFFFFFFFFFFFFFFFFFFFFFFFFFFFFFFFFFFFFFFFFFFFFFFFFFFFFFFFFFFFFFFFFFFFFFFFFFFFFFFFFFFFFFFFFFFFFFFFFFFFFFFFFFFFFFFFFFFFFFFFF
1004
FFFFFFFFFFFFFFFF0BBBBBBBBBBBBBBBBBBBBBBBBBBBB00FBBBBBBBBBBBBBBBBBBBBBBBBBBBBBFFFBBBBBBBBBBBBBBBBBBBBBBBBBBBBBFFFBBBBBBBBBBBBBBBBBBBBBBBBBBBBBFFFBBBBBBBBBBBBBBBBBBBBBBBBBBBBBFFFBBBBBBBBBBBBBBBBBBBBBBBBBBBBBFFFBBBBBBBBBBBBBBBBBBBBBBBBBBBBBFFF
1004
BBBBBBBBBBBBBBBBBBBBBBBBBBBBBFFFBBBBBBBBBBBBBBBBBBBBBBBBBBBBBFFFB00BBBBBBBBBBBBBBBBBBBBBBBBBBFFF99FFFFFFFFFFFFFFFFFFFFFFFF990FFF0FFFFFFFFFFFFFFFFFFFFFFFFFFF0FFF0FFFFFFFFFFFFFFFFFFFFFFFFFFF0FFF0FFFFFFFFFFFFFFFFFFFFFFFFFFF0FFF0000000000000000
1004
0000000000000FFFFFFFFFFFFFFFFFFFFFFFFFFFFFFFFFFFFFFFFFFFFFFFFFFFFFFFFFFFFFFFFFFFFFFFFFFFFFFFFFFFFFFFFFFFFFFFFFFFFFFFFFFFFFFFFFFFFFFFFFFFFFFFFFFFFFFFFFFFFFFFFFFFFFFFFFFFFFFFFFFFFFFFFFFFFFFFFFFFFFFFFFFFFFFFFFFFFFFFFFFFFFFFFFFFFFFFFFFFFFFFFFFF
1004
FFFFFFFFFFFFFFFFFFFFFFFFFFFFFFFF
  0
BLOCK_RECORD
  5
1F
100
AcDbSymbolTableRecord
100
AcDbBlockTableRecord
  2
90_SP79022-7180-57
1001
CONTENTBLOCKICON
1071
        0
1004
2800000020000000200000000100040000000000000200000000000000000000000000000000000000000000000080000080000000808000800000008000800080800000C0C0C000808080000000FF0000FF000000FFFF00FF000000FF00FF00FFFF0000FFFFFF00FFFFFFFFFFFFFFFFFFFFFFFFFFFFFFFF
1004
FFFFFFFFFFFFFFFFFFFFFFFFFFFFFFFFFFFFFFFFFFFFFFFFFFFFFFFFFFFFFFFFFFFFFFFFFFFFFFFFFFFFFFFFFFFFFFFFFFFFFFFFFFFFFFFFFFFFFFFFFFFFFFFFFFFFFFFFFFFFFFFFFFFFFFFFFFFFFFFFFFFFFFFFFFFFFFFFFFFFFFFFFFFFFFFFFFFFFFFFFFFFFFFFFFFFFFFFFFFFFFFFFFFFFFFFFFFFFFFF
1004
FFFFFFFFFFFFFFFFFFFFFFFFFFFFFFFFFFFFFFFFFFFFFFFF000BBBBBBBBBBBBBBBBBBBBBBBBBB00FFFFBBBBBBBBBBBBBBBBBBBBBBBBBBFFFFFFBBBBBBBBBBBBBBBBBBBBBBBBBBFFFFFFBBBBBBBBBBBBBBBBBBBBBBBBBBFFFFFFBBBBBBBBBBBBBBBBBBBBBBBBBBFFFFFFBBBBBBBBBBBBBBBBBBBBBBBBBBFFF
1004
FFFBBBBBBBBBBBBBBBBBBBBBBBBBBFFFFFFBBBBBBBBBBBBBBBBBBBBBBBBBBFFFFFFB00BBBBBBBBBBBBBBBBBBBBB0BFFFFFF99FFFFFFFFFFFFFFFFFFFFF990FFFFFF0FFFFFFFFFFFFFFFFFFFFFFFF0FFFFFF0FFFFFFFFFFFFFFFFFFFFFFFF0FFFFFF0FFFFFFFFFFFFFFFFFFFFFFFF0FFFFFF0000000000000
1004
000000000000FFFFFFFFFFFFFFFFFFFFFFFFFFFFFFFFFFFFFFFFFFFFFFFFFFFFFFFFFFFFFFFFFFFFFFFFFFFFFFFFFFFFFFFFFFFFFFFFFFFFFFFFFFFFFFFFFFFFFFFFFFFFFFFFFFFFFFFFFFFFFFFFFFFFFFFFFFFFFFFFFFFFFFFFFFFFFFFFFFFFFFFFFFFFFFFFFFFFFFFFFFFFFFFFFFFFFFFFFFFFFFFFFFFF
1004
FFFFFFFFFFFFFFFFFFFFFFFFFFFFFFFF
  0
BLOCK_RECORD
  5
4F3
100
AcDbSymbolTableRecord
100
AcDbBlockTableRecord
  2
90_SP79021-720-57
1001
CONTENTBLOCKICON
1071
        0
1004
2800000020000000200000000100040000000000000200000000000000000000000000000000000000000000000080000080000000808000800000008000800080800000C0C0C000808080000000FF0000FF000000FFFF00FF000000FF00FF00FFFF0000FFFFFF00FFFFFFFFFF00000000000000FFFFFFFF
1004
FFFFFFFFF99999999999999FFFFFFFFFFFFFFFFFFBFFFBBFBFFFFFFFFFFFFFFFFFFFFFFFFBBBFFFFBFFFFFFFFFFFFFFFFFFFFFFFFBBFBBFBBFFFFFFFFFFFFFFFFFFFFFFFFBFFFBFBBFFFFFFFFFFFFFFFFFFFFFFFFBFBBFFFBFFFFFFFFFFFFFFFFFFFFFFFFBFBBFBBBFFFFFFFFFFFFFFFFFFFFFFFFBFFFFBF
1004
BFFFFFFFFFFFFFFFFFFFFFFFFBBBFBFFBFFFFFFFFFFFFFFFFFFFFFFFFBFBFBBFBFFFFFFFFFFFFFFFFFFFFFFFFBBFFFFBBFFFFFFFFFFFFFFFFFFFFFFFFBBFBBFFBFFFFFFFFFFFFFFFFFFFFFFFFBFFBBFBBFFFFFFFFFFFFFFFFFFFFFFFFBBFFFFBBFFFFFFFFFFFFFFFFFFFFFFFFBFBBFBFBFFFFFFFFFFFFFFF
1004
FFFFFFFFFBFFBFBBBFFFFFFFFFFFFFFFFFFFFFFFFBFBFFFFBFFFFFFFFFFFFFFFFFFFFFFFFBBBFBBFBFFFFFFFFFFFFFFFFFFFFFFFFBFFFBBFBFFFFFFFFFFFFFFFFFFFFFFFFBBBFFFFBFFFFFFFFFFFFFFFFFFFFFFFFBBBBBBBBFFFFFFFFFFFFFFFFFFFFFFFF9FFFFF90FFFFFFFFFFFFFFFFFFFFFFFF9FFFFF9
1004
0FFFFFFFFFFFFFFFFFFFFFFFF9FFFFF90FFFFFFFFFFFFFFFFFFFFFFFF9FFFFF90FFFFFFFFFFFFFFFFFFFFFFFF9FFFFF90FFFFFFFFFFFFFFFFFFFFFFFF9FFFFF90FFFFFFFFFFFFFFFFFFFFFFFF9FFFFF90FFFFFFFFFFFFFFFFFFFFFFFF9FFFFF90FFFFFFFFFFFFFFFFFFFFFFFF9FFFFF90FFFFFFFFFFFFFFF
1004
FFFFFFFFF99999990FFFFFFFFFFFFFFF
  0
BLOCK_RECORD
  5
25E
100
AcDbSymbolTableRecord
100
AcDbBlockTableRecord
  2
90_SP79022-720-57
1001
CONTENTBLOCKICON
1071
        0
1004
2800000020000000200000000100040000000000000200000000000000000000000000000000000000000000000080000080000000808000800000008000800080800000C0C0C000808080000000FF0000FF000000FFFF00FF000000FF00FF00FFFF0000FFFFFF00FFFFF000000000000000000000FFFFFF
1004
FFFFF999999999999999999999FFFFFFFFFFFFFFFFFFBFBBFFFBFFFFFFFFFFFFFFFFFFFFFFFFBFBFBBFBFFFFFFFFFFFFFFFFFFFFFFFFBBFFFBFBFFFFFFFFFFFFFFFFFFFFFFFFBBFBBFFBFFFFFFFFFFFFFFFFFFFFFFFFBFFBBFBBFFFFFFFFFFFFFFFFFFFFFFFFBBFFFFBBFFFFFFFFFFFFFFFFFFFFFFFFBFBB
1004
FBFBFFFFFFFFFFFFFFFFFFFFFFFFBFFBFBBBFFFFFFFFFFFFFFFFFFFFFFFFBFBFFFFBFFFFFFFFFFFFFFFFFFFFFFFFBBBFBBFBFFFFFFFFFFFFFFFFFFFFFFFFBFFFBBFBFFFFFFFFFFFFFFFFFFFFFFFFBBBFFFFBFFFFFFFFFFFFFFFFFFFFFFFFBBFBBFBBFFFFFFFFFFFFFFFFFFFFFFFFBFFFBFBBFFFFFFFFFFFF
1004
FFFFFFFFFFFFBBFBFFFBFFFFFFFFFFFFFFFFFFFFFFFFBFBBFBBBFFFFFFFFFFFFFFFFFFFFFFFFBFFFFBBBFFFFFFFFFFFFFFFFFFFFFFFFBFBBFFFBFFFFFFFFFFFFFFFFFFFFFFFFBFBFBBFBFFFFFFFFFFFFFFFFFFFFFFFF00000000FFFFFFFFFFFFFFFFFFFFFFFF0FFFFF90FFFFFFFFFFFFFFFFFFFFFFFF0FFF
1004
FF90FFFFFFFFFFFFFFFFFFFFFFFF0FFFFF90FFFFFFFFFFFFFFFFFFFFFFFF0FFFFF90FFFFFFFFFFFFFFFFFFFFFFFF0FFFFF90FFFFFFFFFFFFFFFFFFFFFFFF0FFFFF90FFFFFFFFFFFFFFFFFFFFFFFF0FFFFF90FFFFFFFFFFFFFFFFFFFFFFFF0FFFFF90FFFFFFFFFFFFFFFFFFFFFFFFFFFFFF90FFFFFFFFFFFF
1004
FFFFFFFFFFFF00000090FFFFFFFFFFFF
  0
ENDTAB
  0
ENDSEC
  0
SECTION
  2
BLOCKS
  0
BLOCK
  5
3
100
AcDbEntity
  8
0
100
AcDbBlockBegin
  2
*MODEL_SPACE
 70
     0
 10
0.0
 20
0.0
 30
0.0
  3
*MODEL_SPACE
  1

  0
ENDBLK
  5
6
100
AcDbEntity
  8
0
100
AcDbBlockEnd
  0
BLOCK
  5
8
100
AcDbEntity
 67
     1
  8
0
100
AcDbBlockBegin
  2
*PAPER_SPACE
 70
     0
 10
0.0
 20
0.0
 30
0.0
  3
*PAPER_SPACE
  1

  0
ENDBLK
  5
9
100
AcDbEntity
 67
     1
  8
0
100
AcDbBlockEnd
  0
BLOCK
  5
53C
100
AcDbEntity
  8
0
100
AcDbBlockBegin
  2
*X0
 70
     1
 10
0.0
 20
0.0
 30
0.0
  3
*X0
  1

  0
LINE
  5
4F8
100
AcDbEntity
  8
0
 62
     0
100
AcDbLine
 10
2590.0
 20
1309.968006
 30
0.0
 11
2589.102557
 21
1309.33961
 31
0.0
  0
LINE
  5
4F9
100
AcDbEntity
  8
0
 62
     0
100
AcDbLine
 10
2586.542707
 20
1307.547184
 30
0.0
 11
2583.982857
 21
1305.754757
 31
0.0
  0
LINE
  5
4FA
100
AcDbEntity
  8
0
 62
     0
100
AcDbLine
 10
2581.423007
 20
1303.962331
 30
0.0
 11
2578.863157
 21
1302.169904
 31
0.0
  0
LINE
  5
4FB
100
AcDbEntity
  8
0
 62
     0
100
AcDbLine
 10
2576.303306
 20
1300.377478
 30
0.0
 11
2573.743456
 21
1298.585052
 31
0.0
  0
LINE
  5
4FC
100
AcDbEntity
  8
0
 62
     0
100
AcDbLine
 10
2571.183606
 20
1296.792625
 30
0.0
 11
2570.0
 21
1295.963855
 31
0.0
  0
LINE
  5
4FD
100
AcDbEntity
  8
0
 62
     0
100
AcDbLine
 10
2590.0
 20
1306.153086
 30
0.0
 11
2588.335133
 21
1304.987333
 31
0.0
  0
LINE
  5
4FE
100
AcDbEntity
  8
0
 62
     0
100
AcDbLine
 10
2585.775283
 20
1303.194907
 30
0.0
 11
2583.215433
 21
1301.402481
 31
0.0
  0
LINE
  5
4FF
100
AcDbEntity
  8
0
 62
     0
100
AcDbLine
 10
2580.655583
 20
1299.610054
 30
0.0
 11
2578.095733
 21
1297.817628
 31
0.0
  0
LINE
  5
500
100
AcDbEntity
  8
0
 62
     0
100
AcDbLine
 10
2575.535883
 20
1296.025202
 30
0.0
 11
2572.976033
 21
1294.232775
 31
0.0
  0
LINE
  5
501
100
AcDbEntity
  8
0
 62
     0
100
AcDbLine
 10
2570.416182
 20
1292.440349
 30
0.0
 11
2570.0
 21
1292.148935
 31
0.0
  0
LINE
  5
502
100
AcDbEntity
  8
0
 62
     0
100
AcDbLine
 10
2590.0
 20
1302.338165
 30
0.0
 11
2587.56771
 21
1300.635057
 31
0.0
  0
LINE
  5
503
100
AcDbEntity
  8
0
 62
     0
100
AcDbLine
 10
2585.007859
 20
1298.842631
 30
0.0
 11
2582.448009
 21
1297.050204
 31
0.0
  0
LINE
  5
504
100
AcDbEntity
  8
0
 62
     0
100
AcDbLine
 10
2579.888159
 20
1295.257778
 30
0.0
 11
2577.328309
 21
1293.465351
 31
0.0
  0
LINE
  5
505
100
AcDbEntity
  8
0
 62
     0
100
AcDbLine
 10
2574.768459
 20
1291.672925
 30
0.0
 11
2572.208609
 21
1289.880499
 31
0.0
  0
LINE
  5
506
100
AcDbEntity
  8
0
 62
     0
100
AcDbLine
 10
2589.360136
 20
1298.075207
 30
0.0
 11
2586.800286
 21
1296.28278
 31
0.0
  0
LINE
  5
507
100
AcDbEntity
  8
0
 62
     0
100
AcDbLine
 10
2584.240436
 20
1294.490354
 30
0.0
 11
2581.680586
 21
1292.697928
 31
0.0
  0
LINE
  5
508
100
AcDbEntity
  8
0
 62
     0
100
AcDbLine
 10
2579.120735
 20
1290.905501
 30
0.0
 11
2576.560885
 21
1289.113075
 31
0.0
  0
LINE
  5
509
100
AcDbEntity
  8
0
 62
     0
100
AcDbLine
 10
2574.001035
 20
1287.320649
 30
0.0
 11
2571.441185
 21
1285.528222
 31
0.0
  0
LINE
  5
50A
100
AcDbEntity
  8
0
 62
     0
100
AcDbLine
 10
2588.592712
 20
1293.72293
 30
0.0
 11
2586.032862
 21
1291.930504
 31
0.0
  0
LINE
  5
50B
100
AcDbEntity
  8
0
 62
     0
100
AcDbLine
 10
2583.473012
 20
1290.138078
 30
0.0
 11
2580.913162
 21
1288.345651
 31
0.0
  0
LINE
  5
50C
100
AcDbEntity
  8
0
 62
     0
100
AcDbLine
 10
2578.353312
 20
1286.553225
 30
0.0
 11
2575.793462
 21
1284.760798
 31
0.0
  0
LINE
  5
50D
100
AcDbEntity
  8
0
 62
     0
100
AcDbLine
 10
2573.233611
 20
1282.968372
 30
0.0
 11
2570.673761
 21
1281.175946
 31
0.0
  0
LINE
  5
50E
100
AcDbEntity
  8
0
 62
     0
100
AcDbLine
 10
2587.825288
 20
1289.370654
 30
0.0
 11
2585.265438
 21
1287.578227
 31
0.0
  0
LINE
  5
50F
100
AcDbEntity
  8
0
 62
     0
100
AcDbLine
 10
2582.705588
 20
1285.785801
 30
0.0
 11
2580.145738
 21
1283.993375
 31
0.0
  0
LINE
  5
510
100
AcDbEntity
  8
0
 62
     0
100
AcDbLine
 10
2577.585888
 20
1282.200948
 30
0.0
 11
2575.026038
 21
1280.408522
 31
0.0
  0
LINE
  5
511
100
AcDbEntity
  8
0
 62
     0
100
AcDbLine
 10
2572.466188
 20
1278.616096
 30
0.0
 11
2570.0
 21
1276.889252
 31
0.0
  0
LINE
  5
512
100
AcDbEntity
  8
0
 62
     0
100
AcDbLine
 10
2590.0
 20
1287.078483
 30
0.0
 11
2589.617715
 21
1286.810804
 31
0.0
  0
LINE
  5
513
100
AcDbEntity
  8
0
 62
     0
100
AcDbLine
 10
2587.057865
 20
1285.018377
 30
0.0
 11
2584.498015
 21
1283.225951
 31
0.0
  0
LINE
  5
514
100
AcDbEntity
  8
0
 62
     0
100
AcDbLine
 10
2581.938164
 20
1281.433525
 30
0.0
 11
2579.378314
 21
1279.641098
 31
0.0
  0
LINE
  5
515
100
AcDbEntity
  8
0
 62
     0
100
AcDbLine
 10
2576.818464
 20
1277.848672
 30
0.0
 11
2574.258614
 21
1276.056245
 31
0.0
  0
LINE
  5
516
100
AcDbEntity
  8
0
 62
     0
100
AcDbLine
 10
2571.698764
 20
1274.263819
 30
0.0
 11
2570.0
 21
1273.074332
 31
0.0
  0
LINE
  5
517
100
AcDbEntity
  8
0
 62
     0
100
AcDbLine
 10
2590.0
 20
1283.263562
 30
0.0
 11
2588.850291
 21
1282.458527
 31
0.0
  0
LINE
  5
518
100
AcDbEntity
  8
0
 62
     0
100
AcDbLine
 10
2586.290441
 20
1280.666101
 30
0.0
 11
2583.730591
 21
1278.873674
 31
0.0
  0
LINE
  5
519
100
AcDbEntity
  8
0
 62
     0
100
AcDbLine
 10
2581.170741
 20
1277.081248
 30
0.0
 11
2578.61089
 21
1275.288822
 31
0.0
  0
LINE
  5
51A
100
AcDbEntity
  8
0
 62
     0
100
AcDbLine
 10
2576.05104
 20
1273.496395
 30
0.0
 11
2575.342114
 21
1273.0
 31
0.0
  0
LINE
  5
51B
100
AcDbEntity
  8
0
 62
     0
100
AcDbLine
 10
2590.0
 20
1279.448641
 30
0.0
 11
2588.082867
 21
1278.106251
 31
0.0
  0
LINE
  5
51C
100
AcDbEntity
  8
0
 62
     0
100
AcDbLine
 10
2585.523017
 20
1276.313824
 30
0.0
 11
2582.963167
 21
1274.521398
 31
0.0
  0
LINE
  5
51D
100
AcDbEntity
  8
0
 62
     0
100
AcDbLine
 10
2589.875294
 20
1275.5464
 30
0.0
 11
2587.315443
 21
1273.753974
 31
0.0
  0
LINE
  5
51E
100
AcDbEntity
  8
0
 62
     0
100
AcDbLine
 10
2590.0
 20
1313.782927
 30
0.0
 11
2589.869981
 21
1313.691886
 31
0.0
  0
LINE
  5
51F
100
AcDbEntity
  8
0
 62
     0
100
AcDbLine
 10
2587.310131
 20
1311.89946
 30
0.0
 11
2584.750281
 21
1310.107034
 31
0.0
  0
LINE
  5
520
100
AcDbEntity
  8
0
 62
     0
100
AcDbLine
 10
2582.190431
 20
1308.314607
 30
0.0
 11
2579.63058
 21
1306.522181
 31
0.0
  0
LINE
  5
521
100
AcDbEntity
  8
0
 62
     0
100
AcDbLine
 10
2577.07073
 20
1304.729755
 30
0.0
 11
2574.51088
 21
1302.937328
 31
0.0
  0
LINE
  5
522
100
AcDbEntity
  8
0
 62
     0
100
AcDbLine
 10
2571.95103
 20
1301.144902
 30
0.0
 11
2570.0
 21
1299.778776
 31
0.0
  0
LINE
  5
523
100
AcDbEntity
  8
0
 62
     0
100
AcDbLine
 10
2588.077555
 20
1316.251737
 30
0.0
 11
2585.517704
 21
1314.45931
 31
0.0
  0
LINE
  5
524
100
AcDbEntity
  8
0
 62
     0
100
AcDbLine
 10
2582.957854
 20
1312.666884
 30
0.0
 11
2580.398004
 21
1310.874457
 31
0.0
  0
LINE
  5
525
100
AcDbEntity
  8
0
 62
     0
100
AcDbLine
 10
2577.838154
 20
1309.082031
 30
0.0
 11
2575.278304
 21
1307.289605
 31
0.0
  0
LINE
  5
526
100
AcDbEntity
  8
0
 62
     0
100
AcDbLine
 10
2572.718454
 20
1305.497178
 30
0.0
 11
2570.158604
 21
1303.704752
 31
0.0
  0
LINE
  5
527
100
AcDbEntity
  8
0
 62
     0
100
AcDbLine
 10
2588.844978
 20
1320.604013
 30
0.0
 11
2586.285128
 21
1318.811587
 31
0.0
  0
LINE
  5
528
100
AcDbEntity
  8
0
 62
     0
100
AcDbLine
 10
2583.725278
 20
1317.01916
 30
0.0
 11
2581.165428
 21
1315.226734
 31
0.0
  0
LINE
  5
529
100
AcDbEntity
  8
0
 62
     0
100
AcDbLine
 10
2578.605578
 20
1313.434308
 30
0.0
 11
2576.045728
 21
1311.641881
 31
0.0
  0
LINE
  5
52A
100
AcDbEntity
  8
0
 62
     0
100
AcDbLine
 10
2573.485878
 20
1309.849455
 30
0.0
 11
2570.926027
 21
1308.057028
 31
0.0
  0
LINE
  5
52B
100
AcDbEntity
  8
0
 62
     0
100
AcDbLine
 10
2589.612402
 20
1324.95629
 30
0.0
 11
2587.052552
 21
1323.163863
 31
0.0
  0
LINE
  5
52C
100
AcDbEntity
  8
0
 62
     0
100
AcDbLine
 10
2584.492702
 20
1321.371437
 30
0.0
 11
2581.932852
 21
1319.57901
 31
0.0
  0
LINE
  5
52D
100
AcDbEntity
  8
0
 62
     0
100
AcDbLine
 10
2579.373002
 20
1317.786584
 30
0.0
 11
2576.813151
 21
1315.994158
 31
0.0
  0
LINE
  5
52E
100
AcDbEntity
  8
0
 62
     0
100
AcDbLine
 10
2574.253301
 20
1314.201731
 30
0.0
 11
2571.693451
 21
1312.409305
 31
0.0
  0
LINE
  5
52F
100
AcDbEntity
  8
0
 62
     0
100
AcDbLine
 10
2590.0
 20
1329.042609
 30
0.0
 11
2587.819976
 21
1327.51614
 31
0.0
  0
LINE
  5
530
100
AcDbEntity
  8
0
 62
     0
100
AcDbLine
 10
2585.260126
 20
1325.723713
 30
0.0
 11
2582.700276
 21
1323.931287
 31
0.0
  0
LINE
  5
531
100
AcDbEntity
  8
0
 62
     0
100
AcDbLine
 10
2580.140425
 20
1322.138861
 30
0.0
 11
2577.580575
 21
1320.346434
 31
0.0
  0
LINE
  5
532
100
AcDbEntity
  8
0
 62
     0
100
AcDbLine
 10
2575.020725
 20
1318.554008
 30
0.0
 11
2572.460875
 21
1316.761581
 31
0.0
  0
LINE
  5
533
100
AcDbEntity
  8
0
 62
     0
100
AcDbLine
 10
2585.919025
 20
1330.0
 30
0.0
 11
2583.467699
 21
1328.283563
 31
0.0
  0
LINE
  5
534
100
AcDbEntity
  8
0
 62
     0
100
AcDbLine
 10
2580.907849
 20
1326.491137
 30
0.0
 11
2578.347999
 21
1324.698711
 31
0.0
  0
LINE
  5
535
100
AcDbEntity
  8
0
 62
     0
100
AcDbLine
 10
2575.788149
 20
1322.906284
 30
0.0
 11
2573.228299
 21
1321.113858
 31
0.0
  0
LINE
  5
536
100
AcDbEntity
  8
0
 62
     0
100
AcDbLine
 10
2570.668449
 20
1319.321432
 30
0.0
 11
2570.0
 21
1318.853379
 31
0.0
  0
LINE
  5
537
100
AcDbEntity
  8
0
 62
     0
100
AcDbLine
 10
2580.470754
 20
1330.0
 30
0.0
 11
2579.115423
 21
1329.050987
 31
0.0
  0
LINE
  5
538
100
AcDbEntity
  8
0
 62
     0
100
AcDbLine
 10
2576.555573
 20
1327.258561
 30
0.0
 11
2573.995723
 21
1325.466134
 31
0.0
  0
LINE
  5
539
100
AcDbEntity
  8
0
 62
     0
100
AcDbLine
 10
2571.435872
 20
1323.673708
 30
0.0
 11
2570.0
 21
1322.668299
 31
0.0
  0
LINE
  5
53A
100
AcDbEntity
  8
0
 62
     0
100
AcDbLine
 10
2575.022482
 20
1330.0
 30
0.0
 11
2574.763146
 21
1329.818411
 31
0.0
  0
LINE
  5
53B
100
AcDbEntity
  8
0
 62
     0
100
AcDbLine
 10
2572.203296
 20
1328.025985
 30
0.0
 11
2570.0
 21
1326.48322
 31
0.0
  0
ENDBLK
  5
53D
100
AcDbEntity
  8
0
100
AcDbBlockEnd
  0
BLOCK
  5
2A9
100
AcDbEntity
  8
0
100
AcDbBlockBegin
  2
*X1
 70
     1
 10
0.0
 20
0.0
 30
0.0
  3
*X1
  1

  0
LINE
  5
264
100
AcDbEntity
  8
0
 62
     0
100
AcDbLine
 10
2680.0
 20
1311.947955
 30
0.0
 11
2679.217782
 21
1311.40024
 31
0.0
  0
LINE
  5
265
100
AcDbEntity
  8
0
 62
     0
100
AcDbLine
 10
2676.657932
 20
1309.607814
 30
0.0
 11
2674.098082
 21
1307.815388
 31
0.0
  0
LINE
  5
266
100
AcDbEntity
  8
0
 62
     0
100
AcDbLine
 10
2671.538232
 20
1306.022961
 30
0.0
 11
2668.978382
 21
1304.230535
 31
0.0
  0
LINE
  5
267
100
AcDbEntity
  8
0
 62
     0
100
AcDbLine
 10
2666.418532
 20
1302.438109
 30
0.0
 11
2663.858681
 21
1300.645682
 31
0.0
  0
LINE
  5
268
100
AcDbEntity
  8
0
 62
     0
100
AcDbLine
 10
2661.298831
 20
1298.853256
 30
0.0
 11
2660.0
 21
1297.943804
 31
0.0
  0
LINE
  5
269
100
AcDbEntity
  8
0
 62
     0
100
AcDbLine
 10
2680.0
 20
1308.133035
 30
0.0
 11
2678.450359
 21
1307.047964
 31
0.0
  0
LINE
  5
26A
100
AcDbEntity
  8
0
 62
     0
100
AcDbLine
 10
2675.890508
 20
1305.255538
 30
0.0
 11
2673.330658
 21
1303.463111
 31
0.0
  0
LINE
  5
26B
100
AcDbEntity
  8
0
 62
     0
100
AcDbLine
 10
2670.770808
 20
1301.670685
 30
0.0
 11
2668.210958
 21
1299.878258
 31
0.0
  0
LINE
  5
26C
100
AcDbEntity
  8
0
 62
     0
100
AcDbLine
 10
2665.651108
 20
1298.085832
 30
0.0
 11
2663.091258
 21
1296.293406
 31
0.0
  0
LINE
  5
26D
100
AcDbEntity
  8
0
 62
     0
100
AcDbLine
 10
2660.531408
 20
1294.500979
 30
0.0
 11
2660.0
 21
1294.128884
 31
0.0
  0
LINE
  5
26E
100
AcDbEntity
  8
0
 62
     0
100
AcDbLine
 10
2680.0
 20
1304.318114
 30
0.0
 11
2677.682935
 21
1302.695687
 31
0.0
  0
LINE
  5
26F
100
AcDbEntity
  8
0
 62
     0
100
AcDbLine
 10
2675.123085
 20
1300.903261
 30
0.0
 11
2672.563235
 21
1299.110835
 31
0.0
  0
LINE
  5
270
100
AcDbEntity
  8
0
 62
     0
100
AcDbLine
 10
2670.003384
 20
1297.318408
 30
0.0
 11
2667.443534
 21
1295.525982
 31
0.0
  0
LINE
  5
271
100
AcDbEntity
  8
0
 62
     0
100
AcDbLine
 10
2664.883684
 20
1293.733556
 30
0.0
 11
2662.323834
 21
1291.941129
 31
0.0
  0
LINE
  5
272
100
AcDbEntity
  8
0
 62
     0
100
AcDbLine
 10
2679.475361
 20
1300.135837
 30
0.0
 11
2676.915511
 21
1298.343411
 31
0.0
  0
LINE
  5
273
100
AcDbEntity
  8
0
 62
     0
100
AcDbLine
 10
2674.355661
 20
1296.550985
 30
0.0
 11
2671.795811
 21
1294.758558
 31
0.0
  0
LINE
  5
274
100
AcDbEntity
  8
0
 62
     0
100
AcDbLine
 10
2669.235961
 20
1292.966132
 30
0.0
 11
2666.67611
 21
1291.173705
 31
0.0
  0
LINE
  5
275
100
AcDbEntity
  8
0
 62
     0
100
AcDbLine
 10
2664.11626
 20
1289.381279
 30
0.0
 11
2661.55641
 21
1287.588853
 31
0.0
  0
LINE
  5
276
100
AcDbEntity
  8
0
 62
     0
100
AcDbLine
 10
2678.707937
 20
1295.783561
 30
0.0
 11
2676.148087
 21
1293.991134
 31
0.0
  0
LINE
  5
277
100
AcDbEntity
  8
0
 62
     0
100
AcDbLine
 10
2673.588237
 20
1292.198708
 30
0.0
 11
2671.028387
 21
1290.406282
 31
0.0
  0
LINE
  5
278
100
AcDbEntity
  8
0
 62
     0
100
AcDbLine
 10
2668.468537
 20
1288.613855
 30
0.0
 11
2665.908687
 21
1286.821429
 31
0.0
  0
LINE
  5
279
100
AcDbEntity
  8
0
 62
     0
100
AcDbLine
 10
2663.348837
 20
1285.029003
 30
0.0
 11
2660.788986
 21
1283.236576
 31
0.0
  0
LINE
  5
27A
100
AcDbEntity
  8
0
 62
     0
100
AcDbLine
 10
2677.940514
 20
1291.431284
 30
0.0
 11
2675.380663
 21
1289.638858
 31
0.0
  0
LINE
  5
27B
100
AcDbEntity
  8
0
 62
     0
100
AcDbLine
 10
2672.820813
 20
1287.846432
 30
0.0
 11
2670.260963
 21
1286.054005
 31
0.0
  0
LINE
  5
27C
100
AcDbEntity
  8
0
 62
     0
100
AcDbLine
 10
2667.701113
 20
1284.261579
 30
0.0
 11
2665.141263
 21
1282.469152
 31
0.0
  0
LINE
  5
27D
100
AcDbEntity
  8
0
 62
     0
100
AcDbLine
 10
2662.581413
 20
1280.676726
 30
0.0
 11
2660.021563
 21
1278.8843
 31
0.0
  0
LINE
  5
27E
100
AcDbEntity
  8
0
 62
     0
100
AcDbLine
 10
2680.0
 20
1289.058432
 30
0.0
 11
2679.73294
 21
1288.871434
 31
0.0
  0
LINE
  5
27F
100
AcDbEntity
  8
0
 62
     0
100
AcDbLine
 10
2677.17309
 20
1287.079008
 30
0.0
 11
2674.61324
 21
1285.286581
 31
0.0
  0
LINE
  5
280
100
AcDbEntity
  8
0
 62
     0
100
AcDbLine
 10
2672.05339
 20
1283.494155
 30
0.0
 11
2669.493539
 21
1281.701729
 31
0.0
  0
LINE
  5
281
100
AcDbEntity
  8
0
 62
     0
100
AcDbLine
 10
2666.933689
 20
1279.909302
 30
0.0
 11
2664.373839
 21
1278.116876
 31
0.0
  0
LINE
  5
282
100
AcDbEntity
  8
0
 62
     0
100
AcDbLine
 10
2661.813989
 20
1276.32445
 30
0.0
 11
2660.0
 21
1275.054281
 31
0.0
  0
LINE
  5
283
100
AcDbEntity
  8
0
 62
     0
100
AcDbLine
 10
2680.0
 20
1285.243511
 30
0.0
 11
2678.965516
 21
1284.519158
 31
0.0
  0
LINE
  5
284
100
AcDbEntity
  8
0
 62
     0
100
AcDbLine
 10
2676.405666
 20
1282.726731
 30
0.0
 11
2673.845816
 21
1280.934305
 31
0.0
  0
LINE
  5
285
100
AcDbEntity
  8
0
 62
     0
100
AcDbLine
 10
2671.285966
 20
1279.141879
 30
0.0
 11
2668.726116
 21
1277.349452
 31
0.0
  0
LINE
  5
286
100
AcDbEntity
  8
0
 62
     0
100
AcDbLine
 10
2666.166265
 20
1275.557026
 30
0.0
 11
2663.606415
 21
1273.764599
 31
0.0
  0
LINE
  5
287
100
AcDbEntity
  8
0
 62
     0
100
AcDbLine
 10
2680.0
 20
1281.42859
 30
0.0
 11
2678.198092
 21
1280.166881
 31
0.0
  0
LINE
  5
288
100
AcDbEntity
  8
0
 62
     0
100
AcDbLine
 10
2675.638242
 20
1278.374455
 30
0.0
 11
2673.078392
 21
1276.582028
 31
0.0
  0
LINE
  5
289
100
AcDbEntity
  8
0
 62
     0
100
AcDbLine
 10
2670.518542
 20
1274.789602
 30
0.0
 11
2667.962725
 21
1273.0
 31
0.0
  0
LINE
  5
28A
100
AcDbEntity
  8
0
 62
     0
100
AcDbLine
 10
2679.990519
 20
1277.607031
 30
0.0
 11
2677.430669
 21
1275.814605
 31
0.0
  0
LINE
  5
28B
100
AcDbEntity
  8
0
 62
     0
100
AcDbLine
 10
2674.870818
 20
1274.022178
 30
0.0
 11
2673.410997
 21
1273.0
 31
0.0
  0
LINE
  5
28C
100
AcDbEntity
  8
0
 62
     0
100
AcDbLine
 10
2679.223095
 20
1273.254754
 30
0.0
 11
2678.859268
 21
1273.0
 31
0.0
  0
LINE
  5
28D
100
AcDbEntity
  8
0
 62
     0
100
AcDbLine
 10
2680.0
 20
1315.762876
 30
0.0
 11
2679.985206
 21
1315.752517
 31
0.0
  0
LINE
  5
28E
100
AcDbEntity
  8
0
 62
     0
100
AcDbLine
 10
2677.425356
 20
1313.960091
 30
0.0
 11
2674.865506
 21
1312.167664
 31
0.0
  0
LINE
  5
28F
100
AcDbEntity
  8
0
 62
     0
100
AcDbLine
 10
2672.305656
 20
1310.375238
 30
0.0
 11
2669.745806
 21
1308.582811
 31
0.0
  0
LINE
  5
290
100
AcDbEntity
  8
0
 62
     0
100
AcDbLine
 10
2667.185955
 20
1306.790385
 30
0.0
 11
2664.626105
 21
1304.997959
 31
0.0
  0
LINE
  5
291
100
AcDbEntity
  8
0
 62
     0
100
AcDbLine
 10
2662.066255
 20
1303.205532
 30
0.0
 11
2660.0
 21
1301.758725
 31
0.0
  0
LINE
  5
292
100
AcDbEntity
  8
0
 62
     0
100
AcDbLine
 10
2678.19278
 20
1318.312367
 30
0.0
 11
2675.63293
 21
1316.519941
 31
0.0
  0
LINE
  5
293
100
AcDbEntity
  8
0
 62
     0
100
AcDbLine
 10
2673.073079
 20
1314.727514
 30
0.0
 11
2670.513229
 21
1312.935088
 31
0.0
  0
LINE
  5
294
100
AcDbEntity
  8
0
 62
     0
100
AcDbLine
 10
2667.953379
 20
1311.142662
 30
0.0
 11
2665.393529
 21
1309.350235
 31
0.0
  0
LINE
  5
295
100
AcDbEntity
  8
0
 62
     0
100
AcDbLine
 10
2662.833679
 20
1307.557809
 30
0.0
 11
2660.273829
 21
1305.765382
 31
0.0
  0
LINE
  5
296
100
AcDbEntity
  8
0
 62
     0
100
AcDbLine
 10
2678.960204
 20
1322.664644
 30
0.0
 11
2676.400353
 21
1320.872217
 31
0.0
  0
LINE
  5
297
100
AcDbEntity
  8
0
 62
     0
100
AcDbLine
 10
2673.840503
 20
1319.079791
 30
0.0
 11
2671.280653
 21
1317.287364
 31
0.0
  0
LINE
  5
298
100
AcDbEntity
  8
0
 62
     0
100
AcDbLine
 10
2668.720803
 20
1315.494938
 30
0.0
 11
2666.160953
 21
1313.702512
 31
0.0
  0
LINE
  5
299
100
AcDbEntity
  8
0
 62
     0
100
AcDbLine
 10
2663.601103
 20
1311.910085
 30
0.0
 11
2661.041253
 21
1310.117659
 31
0.0
  0
LINE
  5
29A
100
AcDbEntity
  8
0
 62
     0
100
AcDbLine
 10
2679.727627
 20
1327.01692
 30
0.0
 11
2677.167777
 21
1325.224494
 31
0.0
  0
LINE
  5
29B
100
AcDbEntity
  8
0
 62
     0
100
AcDbLine
 10
2674.607927
 20
1323.432067
 30
0.0
 11
2672.048077
 21
1321.639641
 31
0.0
  0
LINE
  5
29C
100
AcDbEntity
  8
0
 62
     0
100
AcDbLine
 10
2669.488227
 20
1319.847215
 30
0.0
 11
2666.928377
 21
1318.054788
 31
0.0
  0
LINE
  5
29D
100
AcDbEntity
  8
0
 62
     0
100
AcDbLine
 10
2664.368526
 20
1316.262362
 30
0.0
 11
2661.808676
 21
1314.469935
 31
0.0
  0
LINE
  5
29E
100
AcDbEntity
  8
0
 62
     0
100
AcDbLine
 10
2678.539636
 20
1330.0
 30
0.0
 11
2677.935201
 21
1329.57677
 31
0.0
  0
LINE
  5
29F
100
AcDbEntity
  8
0
 62
     0
100
AcDbLine
 10
2675.375351
 20
1327.784344
 30
0.0
 11
2672.815501
 21
1325.991917
 31
0.0
  0
LINE
  5
2A0
100
AcDbEntity
  8
0
 62
     0
100
AcDbLine
 10
2670.255651
 20
1324.199491
 30
0.0
 11
2667.6958
 21
1322.407065
 31
0.0
  0
LINE
  5
2A1
100
AcDbEntity
  8
0
 62
     0
100
AcDbLine
 10
2665.13595
 20
1320.614638
 30
0.0
 11
2662.5761
 21
1318.822212
 31
0.0
  0
LINE
  5
2A2
100
AcDbEntity
  8
0
 62
     0
100
AcDbLine
 10
2660.01625
 20
1317.029786
 30
0.0
 11
2660.0
 21
1317.018407
 31
0.0
  0
LINE
  5
2A3
100
AcDbEntity
  8
0
 62
     0
100
AcDbLine
 10
2671.023074
 20
1328.551768
 30
0.0
 11
2668.463224
 21
1326.759341
 31
0.0
  0
LINE
  5
2A4
100
AcDbEntity
  8
0
 62
     0
100
AcDbLine
 10
2665.903374
 20
1324.966915
 30
0.0
 11
2663.343524
 21
1323.174488
 31
0.0
  0
LINE
  5
2A5
100
AcDbEntity
  8
0
 62
     0
100
AcDbLine
 10
2660.783674
 20
1321.382062
 30
0.0
 11
2660.0
 21
1320.833328
 31
0.0
  0
LINE
  5
2A6
100
AcDbEntity
  8
0
 62
     0
100
AcDbLine
 10
2666.670798
 20
1329.319191
 30
0.0
 11
2664.110948
 21
1327.526765
 31
0.0
  0
LINE
  5
2A7
100
AcDbEntity
  8
0
 62
     0
100
AcDbLine
 10
2661.551098
 20
1325.734339
 30
0.0
 11
2660.0
 21
1324.648248
 31
0.0
  0
LINE
  5
2A8
100
AcDbEntity
  8
0
 62
     0
100
AcDbLine
 10
2662.194822
 20
1330.0
 30
0.0
 11
2660.0
 21
1328.463169
 31
0.0
  0
ENDBLK
  5
2AA
100
AcDbEntity
  8
0
100
AcDbBlockEnd
  0
BLOCK
  5
4E7
100
AcDbEntity
  8
0
100
AcDbBlockBegin
  2
*X2
 70
     1
 10
0.0
 20
0.0
 30
0.0
  3
*X2
  1

  0
LINE
  5
2C2
100
AcDbEntity
  8
0
 62
     0
100
AcDbLine
 10
-176.183567
 20
349.685092
 30
0.0
 11
-178.743417
 21
347.892665
 31
0.0
  0
LINE
  5
2C3
100
AcDbEntity
  8
0
 62
     0
100
AcDbLine
 10
-181.303267
 20
346.100239
 30
0.0
 11
-183.863117
 21
344.307813
 31
0.0
  0
LINE
  5
2C4
100
AcDbEntity
  8
0
 62
     0
100
AcDbLine
 10
-186.422967
 20
342.515386
 30
0.0
 11
-188.982817
 21
340.72296
 31
0.0
  0
LINE
  5
2C5
100
AcDbEntity
  8
0
 62
     0
100
AcDbLine
 10
-191.542667
 20
338.930534
 30
0.0
 11
-194.102518
 21
337.138107
 31
0.0
  0
LINE
  5
2C6
100
AcDbEntity
  8
0
 62
     0
100
AcDbLine
 10
-196.662368
 20
335.345681
 30
0.0
 11
-199.222218
 21
333.553254
 31
0.0
  0
LINE
  5
2C7
100
AcDbEntity
  8
0
 62
     0
100
AcDbLine
 10
-201.782068
 20
331.760828
 30
0.0
 11
-204.341918
 21
329.968402
 31
0.0
  0
LINE
  5
2C8
100
AcDbEntity
  8
0
 62
     0
100
AcDbLine
 10
-206.901768
 20
328.175975
 30
0.0
 11
-209.461618
 21
326.383549
 31
0.0
  0
LINE
  5
2C9
100
AcDbEntity
  8
0
 62
     0
100
AcDbLine
 10
-212.021469
 20
324.591123
 30
0.0
 11
-214.581319
 21
322.798696
 31
0.0
  0
LINE
  5
2CA
100
AcDbEntity
  8
0
 62
     0
100
AcDbLine
 10
-217.141169
 20
321.00627
 30
0.0
 11
-219.701019
 21
319.213844
 31
0.0
  0
LINE
  5
2CB
100
AcDbEntity
  8
0
 62
     0
100
AcDbLine
 10
-222.260869
 20
317.421417
 30
0.0
 11
-224.820719
 21
315.628991
 31
0.0
  0
LINE
  5
2CC
100
AcDbEntity
  8
0
 62
     0
100
AcDbLine
 10
-227.380569
 20
313.836564
 30
0.0
 11
-229.94042
 21
312.044138
 31
0.0
  0
LINE
  5
2CD
100
AcDbEntity
  8
0
 62
     0
100
AcDbLine
 10
-232.50027
 20
310.251712
 30
0.0
 11
-235.06012
 21
308.459285
 31
0.0
  0
LINE
  5
2CE
100
AcDbEntity
  8
0
 62
     0
100
AcDbLine
 10
-237.61997
 20
306.666859
 30
0.0
 11
-240.17982
 21
304.874433
 31
0.0
  0
LINE
  5
2CF
100
AcDbEntity
  8
0
 62
     0
100
AcDbLine
 10
-242.73967
 20
303.082006
 30
0.0
 11
-245.29952
 21
301.28958
 31
0.0
  0
LINE
  5
2D0
100
AcDbEntity
  8
0
 62
     0
100
AcDbLine
 10
-247.85937
 20
299.497154
 30
0.0
 11
-250.419221
 21
297.704727
 31
0.0
  0
LINE
  5
2D1
100
AcDbEntity
  8
0
 62
     0
100
AcDbLine
 10
-252.979071
 20
295.912301
 30
0.0
 11
-255.538921
 21
294.119874
 31
0.0
  0
LINE
  5
2D2
100
AcDbEntity
  8
0
 62
     0
100
AcDbLine
 10
-171.83129
 20
348.917668
 30
0.0
 11
-174.39114
 21
347.125242
 31
0.0
  0
LINE
  5
2D3
100
AcDbEntity
  8
0
 62
     0
100
AcDbLine
 10
-176.95099
 20
345.332815
 30
0.0
 11
-179.510841
 21
343.540389
 31
0.0
  0
LINE
  5
2D4
100
AcDbEntity
  8
0
 62
     0
100
AcDbLine
 10
-182.070691
 20
341.747962
 30
0.0
 11
-184.630541
 21
339.955536
 31
0.0
  0
LINE
  5
2D5
100
AcDbEntity
  8
0
 62
     0
100
AcDbLine
 10
-187.190391
 20
338.16311
 30
0.0
 11
-189.750241
 21
336.370683
 31
0.0
  0
LINE
  5
2D6
100
AcDbEntity
  8
0
 62
     0
100
AcDbLine
 10
-192.310091
 20
334.578257
 30
0.0
 11
-194.869941
 21
332.785831
 31
0.0
  0
LINE
  5
2D7
100
AcDbEntity
  8
0
 62
     0
100
AcDbLine
 10
-197.429791
 20
330.993404
 30
0.0
 11
-199.989642
 21
329.200978
 31
0.0
  0
LINE
  5
2D8
100
AcDbEntity
  8
0
 62
     0
100
AcDbLine
 10
-202.549492
 20
327.408552
 30
0.0
 11
-205.109342
 21
325.616125
 31
0.0
  0
LINE
  5
2D9
100
AcDbEntity
  8
0
 62
     0
100
AcDbLine
 10
-207.669192
 20
323.823699
 30
0.0
 11
-210.229042
 21
322.031272
 31
0.0
  0
LINE
  5
2DA
100
AcDbEntity
  8
0
 62
     0
100
AcDbLine
 10
-212.788892
 20
320.238846
 30
0.0
 11
-215.348742
 21
318.44642
 31
0.0
  0
LINE
  5
2DB
100
AcDbEntity
  8
0
 62
     0
100
AcDbLine
 10
-217.908593
 20
316.653993
 30
0.0
 11
-220.468443
 21
314.861567
 31
0.0
  0
LINE
  5
2DC
100
AcDbEntity
  8
0
 62
     0
100
AcDbLine
 10
-223.028293
 20
313.069141
 30
0.0
 11
-225.588143
 21
311.276714
 31
0.0
  0
LINE
  5
2DD
100
AcDbEntity
  8
0
 62
     0
100
AcDbLine
 10
-228.147993
 20
309.484288
 30
0.0
 11
-230.707843
 21
307.691862
 31
0.0
  0
LINE
  5
2DE
100
AcDbEntity
  8
0
 62
     0
100
AcDbLine
 10
-233.267693
 20
305.899435
 30
0.0
 11
-235.827544
 21
304.107009
 31
0.0
  0
LINE
  5
2DF
100
AcDbEntity
  8
0
 62
     0
100
AcDbLine
 10
-238.387394
 20
302.314582
 30
0.0
 11
-240.947244
 21
300.522156
 31
0.0
  0
LINE
  5
2E0
100
AcDbEntity
  8
0
 62
     0
100
AcDbLine
 10
-243.507094
 20
298.72973
 30
0.0
 11
-246.066944
 21
296.937303
 31
0.0
  0
LINE
  5
2E1
100
AcDbEntity
  8
0
 62
     0
100
AcDbLine
 10
-248.626794
 20
295.144877
 30
0.0
 11
-251.186644
 21
293.352451
 31
0.0
  0
LINE
  5
2E2
100
AcDbEntity
  8
0
 62
     0
100
AcDbLine
 10
-164.837288
 20
350.0
 30
0.0
 11
-164.919163
 21
349.942671
 31
0.0
  0
LINE
  5
2E3
100
AcDbEntity
  8
0
 62
     0
100
AcDbLine
 10
-167.479014
 20
348.150244
 30
0.0
 11
-170.038864
 21
346.357818
 31
0.0
  0
LINE
  5
2E4
100
AcDbEntity
  8
0
 62
     0
100
AcDbLine
 10
-172.598714
 20
344.565391
 30
0.0
 11
-175.158564
 21
342.772965
 31
0.0
  0
LINE
  5
2E5
100
AcDbEntity
  8
0
 62
     0
100
AcDbLine
 10
-177.718414
 20
340.980539
 30
0.0
 11
-180.278264
 21
339.188112
 31
0.0
  0
LINE
  5
2E6
100
AcDbEntity
  8
0
 62
     0
100
AcDbLine
 10
-182.838114
 20
337.395686
 30
0.0
 11
-185.397965
 21
335.60326
 31
0.0
  0
LINE
  5
2E7
100
AcDbEntity
  8
0
 62
     0
100
AcDbLine
 10
-187.957815
 20
333.810833
 30
0.0
 11
-190.517665
 21
332.018407
 31
0.0
  0
LINE
  5
2E8
100
AcDbEntity
  8
0
 62
     0
100
AcDbLine
 10
-193.077515
 20
330.225981
 30
0.0
 11
-195.637365
 21
328.433554
 31
0.0
  0
LINE
  5
2E9
100
AcDbEntity
  8
0
 62
     0
100
AcDbLine
 10
-198.197215
 20
326.641128
 30
0.0
 11
-200.757065
 21
324.848701
 31
0.0
  0
LINE
  5
2EA
100
AcDbEntity
  8
0
 62
     0
100
AcDbLine
 10
-203.316916
 20
323.056275
 30
0.0
 11
-205.876766
 21
321.263849
 31
0.0
  0
LINE
  5
2EB
100
AcDbEntity
  8
0
 62
     0
100
AcDbLine
 10
-208.436616
 20
319.471422
 30
0.0
 11
-210.996466
 21
317.678996
 31
0.0
  0
LINE
  5
2EC
100
AcDbEntity
  8
0
 62
     0
100
AcDbLine
 10
-213.556316
 20
315.88657
 30
0.0
 11
-216.116166
 21
314.094143
 31
0.0
  0
LINE
  5
2ED
100
AcDbEntity
  8
0
 62
     0
100
AcDbLine
 10
-218.676016
 20
312.301717
 30
0.0
 11
-221.235866
 21
310.509291
 31
0.0
  0
LINE
  5
2EE
100
AcDbEntity
  8
0
 62
     0
100
AcDbLine
 10
-223.795717
 20
308.716864
 30
0.0
 11
-226.355567
 21
306.924438
 31
0.0
  0
LINE
  5
2EF
100
AcDbEntity
  8
0
 62
     0
100
AcDbLine
 10
-228.915417
 20
305.132011
 30
0.0
 11
-231.475267
 21
303.339585
 31
0.0
  0
LINE
  5
2F0
100
AcDbEntity
  8
0
 62
     0
100
AcDbLine
 10
-234.035117
 20
301.547159
 30
0.0
 11
-236.594967
 21
299.754732
 31
0.0
  0
LINE
  5
2F1
100
AcDbEntity
  8
0
 62
     0
100
AcDbLine
 10
-239.154817
 20
297.962306
 30
0.0
 11
-241.714668
 21
296.16988
 31
0.0
  0
LINE
  5
2F2
100
AcDbEntity
  8
0
 62
     0
100
AcDbLine
 10
-244.274518
 20
294.377453
 30
0.0
 11
-246.241725
 21
293.0
 31
0.0
  0
LINE
  5
2F3
100
AcDbEntity
  8
0
 62
     0
100
AcDbLine
 10
-159.389017
 20
350.0
 30
0.0
 11
-160.566887
 21
349.175247
 31
0.0
  0
LINE
  5
2F4
100
AcDbEntity
  8
0
 62
     0
100
AcDbLine
 10
-163.126737
 20
347.38282
 30
0.0
 11
-165.686587
 21
345.590394
 31
0.0
  0
LINE
  5
2F5
100
AcDbEntity
  8
0
 62
     0
100
AcDbLine
 10
-168.246437
 20
343.797968
 30
0.0
 11
-170.806288
 21
342.005541
 31
0.0
  0
LINE
  5
2F6
100
AcDbEntity
  8
0
 62
     0
100
AcDbLine
 10
-173.366138
 20
340.213115
 30
0.0
 11
-175.925988
 21
338.420689
 31
0.0
  0
LINE
  5
2F7
100
AcDbEntity
  8
0
 62
     0
100
AcDbLine
 10
-178.485838
 20
336.628262
 30
0.0
 11
-181.045688
 21
334.835836
 31
0.0
  0
LINE
  5
2F8
100
AcDbEntity
  8
0
 62
     0
100
AcDbLine
 10
-183.605538
 20
333.043409
 30
0.0
 11
-186.165388
 21
331.250983
 31
0.0
  0
LINE
  5
2F9
100
AcDbEntity
  8
0
 62
     0
100
AcDbLine
 10
-188.725238
 20
329.458557
 30
0.0
 11
-191.285089
 21
327.66613
 31
0.0
  0
LINE
  5
2FA
100
AcDbEntity
  8
0
 62
     0
100
AcDbLine
 10
-193.844939
 20
325.873704
 30
0.0
 11
-196.404789
 21
324.081278
 31
0.0
  0
LINE
  5
2FB
100
AcDbEntity
  8
0
 62
     0
100
AcDbLine
 10
-198.964639
 20
322.288851
 30
0.0
 11
-201.524489
 21
320.496425
 31
0.0
  0
LINE
  5
2FC
100
AcDbEntity
  8
0
 62
     0
100
AcDbLine
 10
-204.084339
 20
318.703999
 30
0.0
 11
-206.644189
 21
316.911572
 31
0.0
  0
LINE
  5
2FD
100
AcDbEntity
  8
0
 62
     0
100
AcDbLine
 10
-209.20404
 20
315.119146
 30
0.0
 11
-211.76389
 21
313.326719
 31
0.0
  0
LINE
  5
2FE
100
AcDbEntity
  8
0
 62
     0
100
AcDbLine
 10
-214.32374
 20
311.534293
 30
0.0
 11
-216.88359
 21
309.741867
 31
0.0
  0
LINE
  5
2FF
100
AcDbEntity
  8
0
 62
     0
100
AcDbLine
 10
-219.44344
 20
307.94944
 30
0.0
 11
-222.00329
 21
306.157014
 31
0.0
  0
LINE
  5
300
100
AcDbEntity
  8
0
 62
     0
100
AcDbLine
 10
-224.56314
 20
304.364588
 30
0.0
 11
-227.122991
 21
302.572161
 31
0.0
  0
LINE
  5
301
100
AcDbEntity
  8
0
 62
     0
100
AcDbLine
 10
-229.682841
 20
300.779735
 30
0.0
 11
-232.242691
 21
298.987309
 31
0.0
  0
LINE
  5
302
100
AcDbEntity
  8
0
 62
     0
100
AcDbLine
 10
-234.802541
 20
297.194882
 30
0.0
 11
-237.362391
 21
295.402456
 31
0.0
  0
LINE
  5
303
100
AcDbEntity
  8
0
 62
     0
100
AcDbLine
 10
-239.922241
 20
293.610029
 30
0.0
 11
-240.793454
 21
293.0
 31
0.0
  0
LINE
  5
304
100
AcDbEntity
  8
0
 62
     0
100
AcDbLine
 10
-153.940746
 20
350.0
 30
0.0
 11
-156.21461
 21
348.407823
 31
0.0
  0
LINE
  5
305
100
AcDbEntity
  8
0
 62
     0
100
AcDbLine
 10
-158.774461
 20
346.615397
 30
0.0
 11
-161.334311
 21
344.82297
 31
0.0
  0
LINE
  5
306
100
AcDbEntity
  8
0
 62
     0
100
AcDbLine
 10
-163.894161
 20
343.030544
 30
0.0
 11
-166.454011
 21
341.238118
 31
0.0
  0
LINE
  5
307
100
AcDbEntity
  8
0
 62
     0
100
AcDbLine
 10
-169.013861
 20
339.445691
 30
0.0
 11
-171.573711
 21
337.653265
 31
0.0
  0
LINE
  5
308
100
AcDbEntity
  8
0
 62
     0
100
AcDbLine
 10
-174.133561
 20
335.860838
 30
0.0
 11
-176.693412
 21
334.068412
 31
0.0
  0
LINE
  5
309
100
AcDbEntity
  8
0
 62
     0
100
AcDbLine
 10
-179.253262
 20
332.275986
 30
0.0
 11
-181.813112
 21
330.483559
 31
0.0
  0
LINE
  5
30A
100
AcDbEntity
  8
0
 62
     0
100
AcDbLine
 10
-184.372962
 20
328.691133
 30
0.0
 11
-186.932812
 21
326.898707
 31
0.0
  0
LINE
  5
30B
100
AcDbEntity
  8
0
 62
     0
100
AcDbLine
 10
-189.492662
 20
325.10628
 30
0.0
 11
-192.052512
 21
323.313854
 31
0.0
  0
LINE
  5
30C
100
AcDbEntity
  8
0
 62
     0
100
AcDbLine
 10
-194.612363
 20
321.521428
 30
0.0
 11
-197.172213
 21
319.729001
 31
0.0
  0
LINE
  5
30D
100
AcDbEntity
  8
0
 62
     0
100
AcDbLine
 10
-199.732063
 20
317.936575
 30
0.0
 11
-202.291913
 21
316.144148
 31
0.0
  0
LINE
  5
30E
100
AcDbEntity
  8
0
 62
     0
100
AcDbLine
 10
-204.851763
 20
314.351722
 30
0.0
 11
-207.411613
 21
312.559296
 31
0.0
  0
LINE
  5
30F
100
AcDbEntity
  8
0
 62
     0
100
AcDbLine
 10
-209.971463
 20
310.766869
 30
0.0
 11
-212.531313
 21
308.974443
 31
0.0
  0
LINE
  5
310
100
AcDbEntity
  8
0
 62
     0
100
AcDbLine
 10
-215.091164
 20
307.182017
 30
0.0
 11
-217.651014
 21
305.38959
 31
0.0
  0
LINE
  5
311
100
AcDbEntity
  8
0
 62
     0
100
AcDbLine
 10
-220.210864
 20
303.597164
 30
0.0
 11
-222.770714
 21
301.804738
 31
0.0
  0
LINE
  5
312
100
AcDbEntity
  8
0
 62
     0
100
AcDbLine
 10
-225.330564
 20
300.012311
 30
0.0
 11
-227.890414
 21
298.219885
 31
0.0
  0
LINE
  5
313
100
AcDbEntity
  8
0
 62
     0
100
AcDbLine
 10
-230.450264
 20
296.427458
 30
0.0
 11
-233.010115
 21
294.635032
 31
0.0
  0
LINE
  5
314
100
AcDbEntity
  8
0
 62
     0
100
AcDbLine
 10
-149.302484
 20
349.432826
 30
0.0
 11
-151.862334
 21
347.640399
 31
0.0
  0
LINE
  5
315
100
AcDbEntity
  8
0
 62
     0
100
AcDbLine
 10
-154.422184
 20
345.847973
 30
0.0
 11
-156.982034
 21
344.055546
 31
0.0
  0
LINE
  5
316
100
AcDbEntity
  8
0
 62
     0
100
AcDbLine
 10
-159.541884
 20
342.26312
 30
0.0
 11
-162.101734
 21
340.470694
 31
0.0
  0
LINE
  5
317
100
AcDbEntity
  8
0
 62
     0
100
AcDbLine
 10
-164.661585
 20
338.678267
 30
0.0
 11
-167.221435
 21
336.885841
 31
0.0
  0
LINE
  5
318
100
AcDbEntity
  8
0
 62
     0
100
AcDbLine
 10
-169.781285
 20
335.093415
 30
0.0
 11
-172.341135
 21
333.300988
 31
0.0
  0
LINE
  5
319
100
AcDbEntity
  8
0
 62
     0
100
AcDbLine
 10
-174.900985
 20
331.508562
 30
0.0
 11
-177.460835
 21
329.716136
 31
0.0
  0
LINE
  5
31A
100
AcDbEntity
  8
0
 62
     0
100
AcDbLine
 10
-180.020685
 20
327.923709
 30
0.0
 11
-182.580536
 21
326.131283
 31
0.0
  0
LINE
  5
31B
100
AcDbEntity
  8
0
 62
     0
100
AcDbLine
 10
-185.140386
 20
324.338856
 30
0.0
 11
-187.700236
 21
322.54643
 31
0.0
  0
LINE
  5
31C
100
AcDbEntity
  8
0
 62
     0
100
AcDbLine
 10
-190.260086
 20
320.754004
 30
0.0
 11
-192.819936
 21
318.961577
 31
0.0
  0
LINE
  5
31D
100
AcDbEntity
  8
0
 62
     0
100
AcDbLine
 10
-195.379786
 20
317.169151
 30
0.0
 11
-197.939636
 21
315.376725
 31
0.0
  0
LINE
  5
31E
100
AcDbEntity
  8
0
 62
     0
100
AcDbLine
 10
-200.499487
 20
313.584298
 30
0.0
 11
-203.059337
 21
311.791872
 31
0.0
  0
LINE
  5
31F
100
AcDbEntity
  8
0
 62
     0
100
AcDbLine
 10
-205.619187
 20
309.999446
 30
0.0
 11
-208.179037
 21
308.207019
 31
0.0
  0
LINE
  5
320
100
AcDbEntity
  8
0
 62
     0
100
AcDbLine
 10
-210.738887
 20
306.414593
 30
0.0
 11
-213.298737
 21
304.622166
 31
0.0
  0
LINE
  5
321
100
AcDbEntity
  8
0
 62
     0
100
AcDbLine
 10
-215.858587
 20
302.82974
 30
0.0
 11
-218.418438
 21
301.037314
 31
0.0
  0
LINE
  5
322
100
AcDbEntity
  8
0
 62
     0
100
AcDbLine
 10
-220.978288
 20
299.244887
 30
0.0
 11
-223.538138
 21
297.452461
 31
0.0
  0
LINE
  5
323
100
AcDbEntity
  8
0
 62
     0
100
AcDbLine
 10
-226.097988
 20
295.660035
 30
0.0
 11
-228.657838
 21
293.867608
 31
0.0
  0
LINE
  5
324
100
AcDbEntity
  8
0
 62
     0
100
AcDbLine
 10
-144.950207
 20
348.665402
 30
0.0
 11
-147.510057
 21
346.872975
 31
0.0
  0
LINE
  5
325
100
AcDbEntity
  8
0
 62
     0
100
AcDbLine
 10
-150.069908
 20
345.080549
 30
0.0
 11
-152.629758
 21
343.288123
 31
0.0
  0
LINE
  5
326
100
AcDbEntity
  8
0
 62
     0
100
AcDbLine
 10
-155.189608
 20
341.495696
 30
0.0
 11
-157.749458
 21
339.70327
 31
0.0
  0
LINE
  5
327
100
AcDbEntity
  8
0
 62
     0
100
AcDbLine
 10
-160.309308
 20
337.910844
 30
0.0
 11
-162.869158
 21
336.118417
 31
0.0
  0
LINE
  5
328
100
AcDbEntity
  8
0
 62
     0
100
AcDbLine
 10
-165.429008
 20
334.325991
 30
0.0
 11
-167.988859
 21
332.533565
 31
0.0
  0
LINE
  5
329
100
AcDbEntity
  8
0
 62
     0
100
AcDbLine
 10
-170.548709
 20
330.741138
 30
0.0
 11
-173.108559
 21
328.948712
 31
0.0
  0
LINE
  5
32A
100
AcDbEntity
  8
0
 62
     0
100
AcDbLine
 10
-175.668409
 20
327.156285
 30
0.0
 11
-178.228259
 21
325.363859
 31
0.0
  0
LINE
  5
32B
100
AcDbEntity
  8
0
 62
     0
100
AcDbLine
 10
-180.788109
 20
323.571433
 30
0.0
 11
-183.347959
 21
321.779006
 31
0.0
  0
LINE
  5
32C
100
AcDbEntity
  8
0
 62
     0
100
AcDbLine
 10
-185.90781
 20
319.98658
 30
0.0
 11
-188.46766
 21
318.194154
 31
0.0
  0
LINE
  5
32D
100
AcDbEntity
  8
0
 62
     0
100
AcDbLine
 10
-191.02751
 20
316.401727
 30
0.0
 11
-193.58736
 21
314.609301
 31
0.0
  0
LINE
  5
32E
100
AcDbEntity
  8
0
 62
     0
100
AcDbLine
 10
-196.14721
 20
312.816875
 30
0.0
 11
-198.70706
 21
311.024448
 31
0.0
  0
LINE
  5
32F
100
AcDbEntity
  8
0
 62
     0
100
AcDbLine
 10
-201.26691
 20
309.232022
 30
0.0
 11
-203.82676
 21
307.439595
 31
0.0
  0
LINE
  5
330
100
AcDbEntity
  8
0
 62
     0
100
AcDbLine
 10
-206.386611
 20
305.647169
 30
0.0
 11
-208.946461
 21
303.854743
 31
0.0
  0
LINE
  5
331
100
AcDbEntity
  8
0
 62
     0
100
AcDbLine
 10
-211.506311
 20
302.062316
 30
0.0
 11
-214.066161
 21
300.26989
 31
0.0
  0
LINE
  5
332
100
AcDbEntity
  8
0
 62
     0
100
AcDbLine
 10
-216.626011
 20
298.477464
 30
0.0
 11
-219.185861
 21
296.685037
 31
0.0
  0
LINE
  5
333
100
AcDbEntity
  8
0
 62
     0
100
AcDbLine
 10
-221.745711
 20
294.892611
 30
0.0
 11
-224.305562
 21
293.100185
 31
0.0
  0
LINE
  5
334
100
AcDbEntity
  8
0
 62
     0
100
AcDbLine
 10
-137.595932
 20
350.0
 30
0.0
 11
-138.038081
 21
349.690404
 31
0.0
  0
LINE
  5
335
100
AcDbEntity
  8
0
 62
     0
100
AcDbLine
 10
-140.597931
 20
347.897978
 30
0.0
 11
-143.157781
 21
346.105552
 31
0.0
  0
LINE
  5
336
100
AcDbEntity
  8
0
 62
     0
100
AcDbLine
 10
-145.717631
 20
344.313125
 30
0.0
 11
-148.277481
 21
342.520699
 31
0.0
  0
LINE
  5
337
100
AcDbEntity
  8
0
 62
     0
100
AcDbLine
 10
-150.837331
 20
340.728273
 30
0.0
 11
-153.397181
 21
338.935846
 31
0.0
  0
LINE
  5
338
100
AcDbEntity
  8
0
 62
     0
100
AcDbLine
 10
-155.957032
 20
337.14342
 30
0.0
 11
-158.516882
 21
335.350993
 31
0.0
  0
LINE
  5
339
100
AcDbEntity
  8
0
 62
     0
100
AcDbLine
 10
-161.076732
 20
333.558567
 30
0.0
 11
-163.636582
 21
331.766141
 31
0.0
  0
LINE
  5
33A
100
AcDbEntity
  8
0
 62
     0
100
AcDbLine
 10
-166.196432
 20
329.973714
 30
0.0
 11
-168.756282
 21
328.181288
 31
0.0
  0
LINE
  5
33B
100
AcDbEntity
  8
0
 62
     0
100
AcDbLine
 10
-171.316132
 20
326.388862
 30
0.0
 11
-173.875983
 21
324.596435
 31
0.0
  0
LINE
  5
33C
100
AcDbEntity
  8
0
 62
     0
100
AcDbLine
 10
-176.435833
 20
322.804009
 30
0.0
 11
-178.995683
 21
321.011583
 31
0.0
  0
LINE
  5
33D
100
AcDbEntity
  8
0
 62
     0
100
AcDbLine
 10
-181.555533
 20
319.219156
 30
0.0
 11
-184.115383
 21
317.42673
 31
0.0
  0
LINE
  5
33E
100
AcDbEntity
  8
0
 62
     0
100
AcDbLine
 10
-186.675233
 20
315.634303
 30
0.0
 11
-189.235083
 21
313.841877
 31
0.0
  0
LINE
  5
33F
100
AcDbEntity
  8
0
 62
     0
100
AcDbLine
 10
-191.794934
 20
312.049451
 30
0.0
 11
-194.354784
 21
310.257024
 31
0.0
  0
LINE
  5
340
100
AcDbEntity
  8
0
 62
     0
100
AcDbLine
 10
-196.914634
 20
308.464598
 30
0.0
 11
-199.474484
 21
306.672172
 31
0.0
  0
LINE
  5
341
100
AcDbEntity
  8
0
 62
     0
100
AcDbLine
 10
-202.034334
 20
304.879745
 30
0.0
 11
-204.594184
 21
303.087319
 31
0.0
  0
LINE
  5
342
100
AcDbEntity
  8
0
 62
     0
100
AcDbLine
 10
-207.154034
 20
301.294893
 30
0.0
 11
-209.713885
 21
299.502466
 31
0.0
  0
LINE
  5
343
100
AcDbEntity
  8
0
 62
     0
100
AcDbLine
 10
-212.273735
 20
297.71004
 30
0.0
 11
-214.833585
 21
295.917613
 31
0.0
  0
LINE
  5
344
100
AcDbEntity
  8
0
 62
     0
100
AcDbLine
 10
-217.393435
 20
294.125187
 30
0.0
 11
-219.000369
 21
293.0
 31
0.0
  0
LINE
  5
345
100
AcDbEntity
  8
0
 62
     0
100
AcDbLine
 10
-132.147661
 20
350.0
 30
0.0
 11
-133.685804
 21
348.922981
 31
0.0
  0
LINE
  5
346
100
AcDbEntity
  8
0
 62
     0
100
AcDbLine
 10
-136.245654
 20
347.130554
 30
0.0
 11
-138.805504
 21
345.338128
 31
0.0
  0
LINE
  5
347
100
AcDbEntity
  8
0
 62
     0
100
AcDbLine
 10
-141.365355
 20
343.545702
 30
0.0
 11
-143.925205
 21
341.753275
 31
0.0
  0
LINE
  5
348
100
AcDbEntity
  8
0
 62
     0
100
AcDbLine
 10
-146.485055
 20
339.960849
 30
0.0
 11
-149.044905
 21
338.168422
 31
0.0
  0
LINE
  5
349
100
AcDbEntity
  8
0
 62
     0
100
AcDbLine
 10
-151.604755
 20
336.375996
 30
0.0
 11
-154.164605
 21
334.58357
 31
0.0
  0
LINE
  5
34A
100
AcDbEntity
  8
0
 62
     0
100
AcDbLine
 10
-156.724455
 20
332.791143
 30
0.0
 11
-159.284306
 21
330.998717
 31
0.0
  0
LINE
  5
34B
100
AcDbEntity
  8
0
 62
     0
100
AcDbLine
 10
-161.844156
 20
329.206291
 30
0.0
 11
-164.404006
 21
327.413864
 31
0.0
  0
LINE
  5
34C
100
AcDbEntity
  8
0
 62
     0
100
AcDbLine
 10
-166.963856
 20
325.621438
 30
0.0
 11
-169.523706
 21
323.829012
 31
0.0
  0
LINE
  5
34D
100
AcDbEntity
  8
0
 62
     0
100
AcDbLine
 10
-172.083556
 20
322.036585
 30
0.0
 11
-174.643406
 21
320.244159
 31
0.0
  0
LINE
  5
34E
100
AcDbEntity
  8
0
 62
     0
100
AcDbLine
 10
-177.203257
 20
318.451732
 30
0.0
 11
-179.763107
 21
316.659306
 31
0.0
  0
LINE
  5
34F
100
AcDbEntity
  8
0
 62
     0
100
AcDbLine
 10
-182.322957
 20
314.86688
 30
0.0
 11
-184.882807
 21
313.074453
 31
0.0
  0
LINE
  5
350
100
AcDbEntity
  8
0
 62
     0
100
AcDbLine
 10
-187.442657
 20
311.282027
 30
0.0
 11
-190.002507
 21
309.489601
 31
0.0
  0
LINE
  5
351
100
AcDbEntity
  8
0
 62
     0
100
AcDbLine
 10
-192.562357
 20
307.697174
 30
0.0
 11
-195.122207
 21
305.904748
 31
0.0
  0
LINE
  5
352
100
AcDbEntity
  8
0
 62
     0
100
AcDbLine
 10
-197.682058
 20
304.112322
 30
0.0
 11
-200.241908
 21
302.319895
 31
0.0
  0
LINE
  5
353
100
AcDbEntity
  8
0
 62
     0
100
AcDbLine
 10
-202.801758
 20
300.527469
 30
0.0
 11
-205.361608
 21
298.735042
 31
0.0
  0
LINE
  5
354
100
AcDbEntity
  8
0
 62
     0
100
AcDbLine
 10
-207.921458
 20
296.942616
 30
0.0
 11
-210.481308
 21
295.15019
 31
0.0
  0
LINE
  5
355
100
AcDbEntity
  8
0
 62
     0
100
AcDbLine
 10
-213.041158
 20
293.357763
 30
0.0
 11
-213.552097
 21
293.0
 31
0.0
  0
LINE
  5
356
100
AcDbEntity
  8
0
 62
     0
100
AcDbLine
 10
-131.893378
 20
346.36313
 30
0.0
 11
-134.453228
 21
344.570704
 31
0.0
  0
LINE
  5
357
100
AcDbEntity
  8
0
 62
     0
100
AcDbLine
 10
-137.013078
 20
342.778278
 30
0.0
 11
-139.572928
 21
340.985851
 31
0.0
  0
LINE
  5
358
100
AcDbEntity
  8
0
 62
     0
100
AcDbLine
 10
-142.132778
 20
339.193425
 30
0.0
 11
-144.692628
 21
337.400999
 31
0.0
  0
LINE
  5
359
100
AcDbEntity
  8
0
 62
     0
100
AcDbLine
 10
-147.252479
 20
335.608572
 30
0.0
 11
-149.812329
 21
333.816146
 31
0.0
  0
LINE
  5
35A
100
AcDbEntity
  8
0
 62
     0
100
AcDbLine
 10
-152.372179
 20
332.02372
 30
0.0
 11
-154.932029
 21
330.231293
 31
0.0
  0
LINE
  5
35B
100
AcDbEntity
  8
0
 62
     0
100
AcDbLine
 10
-157.491879
 20
328.438867
 30
0.0
 11
-160.051729
 21
326.64644
 31
0.0
  0
LINE
  5
35C
100
AcDbEntity
  8
0
 62
     0
100
AcDbLine
 10
-162.611579
 20
324.854014
 30
0.0
 11
-165.17143
 21
323.061588
 31
0.0
  0
LINE
  5
35D
100
AcDbEntity
  8
0
 62
     0
100
AcDbLine
 10
-167.73128
 20
321.269161
 30
0.0
 11
-170.29113
 21
319.476735
 31
0.0
  0
LINE
  5
35E
100
AcDbEntity
  8
0
 62
     0
100
AcDbLine
 10
-172.85098
 20
317.684309
 30
0.0
 11
-175.41083
 21
315.891882
 31
0.0
  0
LINE
  5
35F
100
AcDbEntity
  8
0
 62
     0
100
AcDbLine
 10
-177.97068
 20
314.099456
 30
0.0
 11
-180.53053
 21
312.30703
 31
0.0
  0
LINE
  5
360
100
AcDbEntity
  8
0
 62
     0
100
AcDbLine
 10
-183.090381
 20
310.514603
 30
0.0
 11
-185.650231
 21
308.722177
 31
0.0
  0
LINE
  5
361
100
AcDbEntity
  8
0
 62
     0
100
AcDbLine
 10
-188.210081
 20
306.92975
 30
0.0
 11
-190.769931
 21
305.137324
 31
0.0
  0
LINE
  5
362
100
AcDbEntity
  8
0
 62
     0
100
AcDbLine
 10
-193.329781
 20
303.344898
 30
0.0
 11
-195.889631
 21
301.552471
 31
0.0
  0
LINE
  5
363
100
AcDbEntity
  8
0
 62
     0
100
AcDbLine
 10
-198.449481
 20
299.760045
 30
0.0
 11
-201.009332
 21
297.967619
 31
0.0
  0
LINE
  5
364
100
AcDbEntity
  8
0
 62
     0
100
AcDbLine
 10
-203.569182
 20
296.175192
 30
0.0
 11
-206.129032
 21
294.382766
 31
0.0
  0
LINE
  5
365
100
AcDbEntity
  8
0
 62
     0
100
AcDbLine
 10
-130.0
 20
343.873967
 30
0.0
 11
-130.100951
 21
343.80328
 31
0.0
  0
LINE
  5
366
100
AcDbEntity
  8
0
 62
     0
100
AcDbLine
 10
-132.660802
 20
342.010854
 30
0.0
 11
-135.220652
 21
340.218428
 31
0.0
  0
LINE
  5
367
100
AcDbEntity
  8
0
 62
     0
100
AcDbLine
 10
-137.780502
 20
338.426001
 30
0.0
 11
-140.340352
 21
336.633575
 31
0.0
  0
LINE
  5
368
100
AcDbEntity
  8
0
 62
     0
100
AcDbLine
 10
-142.900202
 20
334.841149
 30
0.0
 11
-145.460052
 21
333.048722
 31
0.0
  0
LINE
  5
369
100
AcDbEntity
  8
0
 62
     0
100
AcDbLine
 10
-148.019902
 20
331.256296
 30
0.0
 11
-150.579753
 21
329.463869
 31
0.0
  0
LINE
  5
36A
100
AcDbEntity
  8
0
 62
     0
100
AcDbLine
 10
-153.139603
 20
327.671443
 30
0.0
 11
-155.699453
 21
325.879017
 31
0.0
  0
LINE
  5
36B
100
AcDbEntity
  8
0
 62
     0
100
AcDbLine
 10
-158.259303
 20
324.08659
 30
0.0
 11
-160.819153
 21
322.294164
 31
0.0
  0
LINE
  5
36C
100
AcDbEntity
  8
0
 62
     0
100
AcDbLine
 10
-163.379003
 20
320.501738
 30
0.0
 11
-165.938853
 21
318.709311
 31
0.0
  0
LINE
  5
36D
100
AcDbEntity
  8
0
 62
     0
100
AcDbLine
 10
-168.498704
 20
316.916885
 30
0.0
 11
-171.058554
 21
315.124459
 31
0.0
  0
LINE
  5
36E
100
AcDbEntity
  8
0
 62
     0
100
AcDbLine
 10
-173.618404
 20
313.332032
 30
0.0
 11
-176.178254
 21
311.539606
 31
0.0
  0
LINE
  5
36F
100
AcDbEntity
  8
0
 62
     0
100
AcDbLine
 10
-178.738104
 20
309.747179
 30
0.0
 11
-181.297954
 21
307.954753
 31
0.0
  0
LINE
  5
370
100
AcDbEntity
  8
0
 62
     0
100
AcDbLine
 10
-183.857804
 20
306.162327
 30
0.0
 11
-186.417654
 21
304.3699
 31
0.0
  0
LINE
  5
371
100
AcDbEntity
  8
0
 62
     0
100
AcDbLine
 10
-188.977505
 20
302.577474
 30
0.0
 11
-191.537355
 21
300.785048
 31
0.0
  0
LINE
  5
372
100
AcDbEntity
  8
0
 62
     0
100
AcDbLine
 10
-194.097205
 20
298.992621
 30
0.0
 11
-196.657055
 21
297.200195
 31
0.0
  0
LINE
  5
373
100
AcDbEntity
  8
0
 62
     0
100
AcDbLine
 10
-199.216905
 20
295.407769
 30
0.0
 11
-201.776755
 21
293.615342
 31
0.0
  0
LINE
  5
374
100
AcDbEntity
  8
0
 62
     0
100
AcDbLine
 10
-130.0
 20
340.059047
 30
0.0
 11
-130.868375
 21
339.451004
 31
0.0
  0
LINE
  5
375
100
AcDbEntity
  8
0
 62
     0
100
AcDbLine
 10
-133.428225
 20
337.658577
 30
0.0
 11
-135.988075
 21
335.866151
 31
0.0
  0
LINE
  5
376
100
AcDbEntity
  8
0
 62
     0
100
AcDbLine
 10
-138.547926
 20
334.073725
 30
0.0
 11
-141.107776
 21
332.281298
 31
0.0
  0
LINE
  5
377
100
AcDbEntity
  8
0
 62
     0
100
AcDbLine
 10
-143.667626
 20
330.488872
 30
0.0
 11
-146.227476
 21
328.696446
 31
0.0
  0
LINE
  5
378
100
AcDbEntity
  8
0
 62
     0
100
AcDbLine
 10
-148.787326
 20
326.904019
 30
0.0
 11
-151.347176
 21
325.111593
 31
0.0
  0
LINE
  5
379
100
AcDbEntity
  8
0
 62
     0
100
AcDbLine
 10
-153.907026
 20
323.319167
 30
0.0
 11
-156.466877
 21
321.52674
 31
0.0
  0
LINE
  5
37A
100
AcDbEntity
  8
0
 62
     0
100
AcDbLine
 10
-159.026727
 20
319.734314
 30
0.0
 11
-161.586577
 21
317.941887
 31
0.0
  0
LINE
  5
37B
100
AcDbEntity
  8
0
 62
     0
100
AcDbLine
 10
-164.146427
 20
316.149461
 30
0.0
 11
-166.706277
 21
314.357035
 31
0.0
  0
LINE
  5
37C
100
AcDbEntity
  8
0
 62
     0
100
AcDbLine
 10
-169.266127
 20
312.564608
 30
0.0
 11
-171.825977
 21
310.772182
 31
0.0
  0
LINE
  5
37D
100
AcDbEntity
  8
0
 62
     0
100
AcDbLine
 10
-174.385828
 20
308.979756
 30
0.0
 11
-176.945678
 21
307.187329
 31
0.0
  0
LINE
  5
37E
100
AcDbEntity
  8
0
 62
     0
100
AcDbLine
 10
-179.505528
 20
305.394903
 30
0.0
 11
-182.065378
 21
303.602477
 31
0.0
  0
LINE
  5
37F
100
AcDbEntity
  8
0
 62
     0
100
AcDbLine
 10
-184.625228
 20
301.81005
 30
0.0
 11
-187.185078
 21
300.017624
 31
0.0
  0
LINE
  5
380
100
AcDbEntity
  8
0
 62
     0
100
AcDbLine
 10
-189.744928
 20
298.225197
 30
0.0
 11
-192.304779
 21
296.432771
 31
0.0
  0
LINE
  5
381
100
AcDbEntity
  8
0
 62
     0
100
AcDbLine
 10
-194.864629
 20
294.640345
 30
0.0
 11
-197.207284
 21
293.0
 31
0.0
  0
LINE
  5
382
100
AcDbEntity
  8
0
 62
     0
100
AcDbLine
 10
-130.0
 20
336.244126
 30
0.0
 11
-131.635799
 21
335.098727
 31
0.0
  0
LINE
  5
383
100
AcDbEntity
  8
0
 62
     0
100
AcDbLine
 10
-134.195649
 20
333.306301
 30
0.0
 11
-136.755499
 21
331.513875
 31
0.0
  0
LINE
  5
384
100
AcDbEntity
  8
0
 62
     0
100
AcDbLine
 10
-139.315349
 20
329.721448
 30
0.0
 11
-141.8752
 21
327.929022
 31
0.0
  0
LINE
  5
385
100
AcDbEntity
  8
0
 62
     0
100
AcDbLine
 10
-144.43505
 20
326.136596
 30
0.0
 11
-146.9949
 21
324.344169
 31
0.0
  0
LINE
  5
386
100
AcDbEntity
  8
0
 62
     0
100
AcDbLine
 10
-149.55475
 20
322.551743
 30
0.0
 11
-152.1146
 21
320.759316
 31
0.0
  0
LINE
  5
387
100
AcDbEntity
  8
0
 62
     0
100
AcDbLine
 10
-154.67445
 20
318.96689
 30
0.0
 11
-157.2343
 21
317.174464
 31
0.0
  0
LINE
  5
388
100
AcDbEntity
  8
0
 62
     0
100
AcDbLine
 10
-159.794151
 20
315.382037
 30
0.0
 11
-162.354001
 21
313.589611
 31
0.0
  0
LINE
  5
389
100
AcDbEntity
  8
0
 62
     0
100
AcDbLine
 10
-164.913851
 20
311.797185
 30
0.0
 11
-167.473701
 21
310.004758
 31
0.0
  0
LINE
  5
38A
100
AcDbEntity
  8
0
 62
     0
100
AcDbLine
 10
-170.033551
 20
308.212332
 30
0.0
 11
-172.593401
 21
306.419906
 31
0.0
  0
LINE
  5
38B
100
AcDbEntity
  8
0
 62
     0
100
AcDbLine
 10
-175.153251
 20
304.627479
 30
0.0
 11
-177.713101
 21
302.835053
 31
0.0
  0
LINE
  5
38C
100
AcDbEntity
  8
0
 62
     0
100
AcDbLine
 10
-180.272952
 20
301.042626
 30
0.0
 11
-182.832802
 21
299.2502
 31
0.0
  0
LINE
  5
38D
100
AcDbEntity
  8
0
 62
     0
100
AcDbLine
 10
-185.392652
 20
297.457774
 30
0.0
 11
-187.952502
 21
295.665347
 31
0.0
  0
LINE
  5
38E
100
AcDbEntity
  8
0
 62
     0
100
AcDbLine
 10
-190.512352
 20
293.872921
 30
0.0
 11
-191.759012
 21
293.0
 31
0.0
  0
LINE
  5
38F
100
AcDbEntity
  8
0
 62
     0
100
AcDbLine
 10
-130.0
 20
332.429206
 30
0.0
 11
-132.403223
 21
330.746451
 31
0.0
  0
LINE
  5
390
100
AcDbEntity
  8
0
 62
     0
100
AcDbLine
 10
-134.963073
 20
328.954024
 30
0.0
 11
-137.522923
 21
327.161598
 31
0.0
  0
LINE
  5
391
100
AcDbEntity
  8
0
 62
     0
100
AcDbLine
 10
-140.082773
 20
325.369172
 30
0.0
 11
-142.642623
 21
323.576745
 31
0.0
  0
LINE
  5
392
100
AcDbEntity
  8
0
 62
     0
100
AcDbLine
 10
-145.202473
 20
321.784319
 30
0.0
 11
-147.762324
 21
319.991893
 31
0.0
  0
LINE
  5
393
100
AcDbEntity
  8
0
 62
     0
100
AcDbLine
 10
-150.322174
 20
318.199466
 30
0.0
 11
-152.882024
 21
316.40704
 31
0.0
  0
LINE
  5
394
100
AcDbEntity
  8
0
 62
     0
100
AcDbLine
 10
-155.441874
 20
314.614614
 30
0.0
 11
-158.001724
 21
312.822187
 31
0.0
  0
LINE
  5
395
100
AcDbEntity
  8
0
 62
     0
100
AcDbLine
 10
-160.561574
 20
311.029761
 30
0.0
 11
-163.121424
 21
309.237334
 31
0.0
  0
LINE
  5
396
100
AcDbEntity
  8
0
 62
     0
100
AcDbLine
 10
-165.681275
 20
307.444908
 30
0.0
 11
-168.241125
 21
305.652482
 31
0.0
  0
LINE
  5
397
100
AcDbEntity
  8
0
 62
     0
100
AcDbLine
 10
-170.800975
 20
303.860055
 30
0.0
 11
-173.360825
 21
302.067629
 31
0.0
  0
LINE
  5
398
100
AcDbEntity
  8
0
 62
     0
100
AcDbLine
 10
-175.920675
 20
300.275203
 30
0.0
 11
-178.480525
 21
298.482776
 31
0.0
  0
LINE
  5
399
100
AcDbEntity
  8
0
 62
     0
100
AcDbLine
 10
-181.040375
 20
296.69035
 30
0.0
 11
-183.600226
 21
294.897924
 31
0.0
  0
LINE
  5
39A
100
AcDbEntity
  8
0
 62
     0
100
AcDbLine
 10
-186.160076
 20
293.105497
 30
0.0
 11
-186.310741
 21
293.0
 31
0.0
  0
LINE
  5
39B
100
AcDbEntity
  8
0
 62
     0
100
AcDbLine
 10
-130.610796
 20
328.186601
 30
0.0
 11
-133.170647
 21
326.394174
 31
0.0
  0
LINE
  5
39C
100
AcDbEntity
  8
0
 62
     0
100
AcDbLine
 10
-135.730497
 20
324.601748
 30
0.0
 11
-138.290347
 21
322.809322
 31
0.0
  0
LINE
  5
39D
100
AcDbEntity
  8
0
 62
     0
100
AcDbLine
 10
-140.850197
 20
321.016895
 30
0.0
 11
-143.410047
 21
319.224469
 31
0.0
  0
LINE
  5
39E
100
AcDbEntity
  8
0
 62
     0
100
AcDbLine
 10
-145.969897
 20
317.432042
 30
0.0
 11
-148.529747
 21
315.639616
 31
0.0
  0
LINE
  5
39F
100
AcDbEntity
  8
0
 62
     0
100
AcDbLine
 10
-151.089598
 20
313.84719
 30
0.0
 11
-153.649448
 21
312.054763
 31
0.0
  0
LINE
  5
3A0
100
AcDbEntity
  8
0
 62
     0
100
AcDbLine
 10
-156.209298
 20
310.262337
 30
0.0
 11
-158.769148
 21
308.469911
 31
0.0
  0
LINE
  5
3A1
100
AcDbEntity
  8
0
 62
     0
100
AcDbLine
 10
-161.328998
 20
306.677484
 30
0.0
 11
-163.888848
 21
304.885058
 31
0.0
  0
LINE
  5
3A2
100
AcDbEntity
  8
0
 62
     0
100
AcDbLine
 10
-166.448698
 20
303.092632
 30
0.0
 11
-169.008548
 21
301.300205
 31
0.0
  0
LINE
  5
3A3
100
AcDbEntity
  8
0
 62
     0
100
AcDbLine
 10
-171.568399
 20
299.507779
 30
0.0
 11
-174.128249
 21
297.715352
 31
0.0
  0
LINE
  5
3A4
100
AcDbEntity
  8
0
 62
     0
100
AcDbLine
 10
-176.688099
 20
295.922926
 30
0.0
 11
-179.247949
 21
294.1305
 31
0.0
  0
LINE
  5
3A5
100
AcDbEntity
  8
0
 62
     0
100
AcDbLine
 10
-131.37822
 20
323.834324
 30
0.0
 11
-133.93807
 21
322.041898
 31
0.0
  0
LINE
  5
3A6
100
AcDbEntity
  8
0
 62
     0
100
AcDbLine
 10
-136.49792
 20
320.249471
 30
0.0
 11
-139.057771
 21
318.457045
 31
0.0
  0
LINE
  5
3A7
100
AcDbEntity
  8
0
 62
     0
100
AcDbLine
 10
-141.617621
 20
316.664619
 30
0.0
 11
-144.177471
 21
314.872192
 31
0.0
  0
LINE
  5
3A8
100
AcDbEntity
  8
0
 62
     0
100
AcDbLine
 10
-146.737321
 20
313.079766
 30
0.0
 11
-149.297171
 21
311.28734
 31
0.0
  0
LINE
  5
3A9
100
AcDbEntity
  8
0
 62
     0
100
AcDbLine
 10
-151.857021
 20
309.494913
 30
0.0
 11
-154.416871
 21
307.702487
 31
0.0
  0
LINE
  5
3AA
100
AcDbEntity
  8
0
 62
     0
100
AcDbLine
 10
-156.976722
 20
305.910061
 30
0.0
 11
-159.536572
 21
304.117634
 31
0.0
  0
LINE
  5
3AB
100
AcDbEntity
  8
0
 62
     0
100
AcDbLine
 10
-162.096422
 20
302.325208
 30
0.0
 11
-164.656272
 21
300.532781
 31
0.0
  0
LINE
  5
3AC
100
AcDbEntity
  8
0
 62
     0
100
AcDbLine
 10
-167.216122
 20
298.740355
 30
0.0
 11
-169.775972
 21
296.947929
 31
0.0
  0
LINE
  5
3AD
100
AcDbEntity
  8
0
 62
     0
100
AcDbLine
 10
-172.335822
 20
295.155502
 30
0.0
 11
-174.895673
 21
293.363076
 31
0.0
  0
LINE
  5
3AE
100
AcDbEntity
  8
0
 62
     0
100
AcDbLine
 10
-132.145644
 20
319.482048
 30
0.0
 11
-134.705494
 21
317.689621
 31
0.0
  0
LINE
  5
3AF
100
AcDbEntity
  8
0
 62
     0
100
AcDbLine
 10
-137.265344
 20
315.897195
 30
0.0
 11
-139.825194
 21
314.104769
 31
0.0
  0
LINE
  5
3B0
100
AcDbEntity
  8
0
 62
     0
100
AcDbLine
 10
-142.385045
 20
312.312342
 30
0.0
 11
-144.944895
 21
310.519916
 31
0.0
  0
LINE
  5
3B1
100
AcDbEntity
  8
0
 62
     0
100
AcDbLine
 10
-147.504745
 20
308.727489
 30
0.0
 11
-150.064595
 21
306.935063
 31
0.0
  0
LINE
  5
3B2
100
AcDbEntity
  8
0
 62
     0
100
AcDbLine
 10
-152.624445
 20
305.142637
 30
0.0
 11
-155.184295
 21
303.35021
 31
0.0
  0
LINE
  5
3B3
100
AcDbEntity
  8
0
 62
     0
100
AcDbLine
 10
-157.744145
 20
301.557784
 30
0.0
 11
-160.303995
 21
299.765358
 31
0.0
  0
LINE
  5
3B4
100
AcDbEntity
  8
0
 62
     0
100
AcDbLine
 10
-162.863846
 20
297.972931
 30
0.0
 11
-165.423696
 21
296.180505
 31
0.0
  0
LINE
  5
3B5
100
AcDbEntity
  8
0
 62
     0
100
AcDbLine
 10
-167.983546
 20
294.388079
 30
0.0
 11
-169.965928
 21
293.0
 31
0.0
  0
LINE
  5
3B6
100
AcDbEntity
  8
0
 62
     0
100
AcDbLine
 10
-130.0
 20
317.169523
 30
0.0
 11
-130.353218
 21
316.922198
 31
0.0
  0
LINE
  5
3B7
100
AcDbEntity
  8
0
 62
     0
100
AcDbLine
 10
-132.913068
 20
315.129771
 30
0.0
 11
-135.472918
 21
313.337345
 31
0.0
  0
LINE
  5
3B8
100
AcDbEntity
  8
0
 62
     0
100
AcDbLine
 10
-138.032768
 20
311.544918
 30
0.0
 11
-140.592618
 21
309.752492
 31
0.0
  0
LINE
  5
3B9
100
AcDbEntity
  8
0
 62
     0
100
AcDbLine
 10
-143.152468
 20
307.960066
 30
0.0
 11
-145.712318
 21
306.167639
 31
0.0
  0
LINE
  5
3BA
100
AcDbEntity
  8
0
 62
     0
100
AcDbLine
 10
-148.272169
 20
304.375213
 30
0.0
 11
-150.832019
 21
302.582787
 31
0.0
  0
LINE
  5
3BB
100
AcDbEntity
  8
0
 62
     0
100
AcDbLine
 10
-153.391869
 20
300.79036
 30
0.0
 11
-155.951719
 21
298.997934
 31
0.0
  0
LINE
  5
3BC
100
AcDbEntity
  8
0
 62
     0
100
AcDbLine
 10
-158.511569
 20
297.205508
 30
0.0
 11
-161.071419
 21
295.413081
 31
0.0
  0
LINE
  5
3BD
100
AcDbEntity
  8
0
 62
     0
100
AcDbLine
 10
-163.631269
 20
293.620655
 30
0.0
 11
-164.517656
 21
293.0
 31
0.0
  0
LINE
  5
3BE
100
AcDbEntity
  8
0
 62
     0
100
AcDbLine
 10
-130.0
 20
313.354603
 30
0.0
 11
-131.120641
 21
312.569921
 31
0.0
  0
LINE
  5
3BF
100
AcDbEntity
  8
0
 62
     0
100
AcDbLine
 10
-133.680491
 20
310.777495
 30
0.0
 11
-136.240342
 21
308.985068
 31
0.0
  0
LINE
  5
3C0
100
AcDbEntity
  8
0
 62
     0
100
AcDbLine
 10
-138.800192
 20
307.192642
 30
0.0
 11
-141.360042
 21
305.400216
 31
0.0
  0
LINE
  5
3C1
100
AcDbEntity
  8
0
 62
     0
100
AcDbLine
 10
-143.919892
 20
303.607789
 30
0.0
 11
-146.479742
 21
301.815363
 31
0.0
  0
LINE
  5
3C2
100
AcDbEntity
  8
0
 62
     0
100
AcDbLine
 10
-149.039592
 20
300.022936
 30
0.0
 11
-151.599442
 21
298.23051
 31
0.0
  0
LINE
  5
3C3
100
AcDbEntity
  8
0
 62
     0
100
AcDbLine
 10
-154.159293
 20
296.438084
 30
0.0
 11
-156.719143
 21
294.645657
 31
0.0
  0
LINE
  5
3C4
100
AcDbEntity
  8
0
 62
     0
100
AcDbLine
 10
-130.0
 20
309.539682
 30
0.0
 11
-131.888065
 21
308.217645
 31
0.0
  0
LINE
  5
3C5
100
AcDbEntity
  8
0
 62
     0
100
AcDbLine
 10
-134.447915
 20
306.425218
 30
0.0
 11
-137.007765
 21
304.632792
 31
0.0
  0
LINE
  5
3C6
100
AcDbEntity
  8
0
 62
     0
100
AcDbLine
 10
-139.567616
 20
302.840365
 30
0.0
 11
-142.127466
 21
301.047939
 31
0.0
  0
LINE
  5
3C7
100
AcDbEntity
  8
0
 62
     0
100
AcDbLine
 10
-144.687316
 20
299.255513
 30
0.0
 11
-147.247166
 21
297.463086
 31
0.0
  0
LINE
  5
3C8
100
AcDbEntity
  8
0
 62
     0
100
AcDbLine
 10
-149.807016
 20
295.67066
 30
0.0
 11
-152.366866
 21
293.878234
 31
0.0
  0
LINE
  5
3C9
100
AcDbEntity
  8
0
 62
     0
100
AcDbLine
 10
-130.095639
 20
305.657794
 30
0.0
 11
-132.655489
 21
303.865368
 31
0.0
  0
LINE
  5
3CA
100
AcDbEntity
  8
0
 62
     0
100
AcDbLine
 10
-135.215339
 20
302.072942
 30
0.0
 11
-137.775189
 21
300.280515
 31
0.0
  0
LINE
  5
3CB
100
AcDbEntity
  8
0
 62
     0
100
AcDbLine
 10
-140.335039
 20
298.488089
 30
0.0
 11
-142.894889
 21
296.695663
 31
0.0
  0
LINE
  5
3CC
100
AcDbEntity
  8
0
 62
     0
100
AcDbLine
 10
-145.45474
 20
294.903236
 30
0.0
 11
-148.01459
 21
293.11081
 31
0.0
  0
LINE
  5
3CD
100
AcDbEntity
  8
0
 62
     0
100
AcDbLine
 10
-130.863063
 20
301.305518
 30
0.0
 11
-133.422913
 21
299.513092
 31
0.0
  0
LINE
  5
3CE
100
AcDbEntity
  8
0
 62
     0
100
AcDbLine
 10
-135.982763
 20
297.720665
 30
0.0
 11
-138.542613
 21
295.928239
 31
0.0
  0
LINE
  5
3CF
100
AcDbEntity
  8
0
 62
     0
100
AcDbLine
 10
-141.102463
 20
294.135812
 30
0.0
 11
-142.724571
 21
293.0
 31
0.0
  0
LINE
  5
3D0
100
AcDbEntity
  8
0
 62
     0
100
AcDbLine
 10
-131.630486
 20
296.953241
 30
0.0
 11
-134.190336
 21
295.160815
 31
0.0
  0
LINE
  5
3D1
100
AcDbEntity
  8
0
 62
     0
100
AcDbLine
 10
-136.750187
 20
293.368389
 30
0.0
 11
-137.2763
 21
293.0
 31
0.0
  0
LINE
  5
3D2
100
AcDbEntity
  8
0
 62
     0
100
AcDbLine
 10
-181.182102
 20
350.0
 30
0.0
 11
-183.095693
 21
348.660089
 31
0.0
  0
LINE
  5
3D3
100
AcDbEntity
  8
0
 62
     0
100
AcDbLine
 10
-185.655543
 20
346.867663
 30
0.0
 11
-188.215394
 21
345.075236
 31
0.0
  0
LINE
  5
3D4
100
AcDbEntity
  8
0
 62
     0
100
AcDbLine
 10
-190.775244
 20
343.28281
 30
0.0
 11
-193.335094
 21
341.490384
 31
0.0
  0
LINE
  5
3D5
100
AcDbEntity
  8
0
 62
     0
100
AcDbLine
 10
-195.894944
 20
339.697957
 30
0.0
 11
-198.454794
 21
337.905531
 31
0.0
  0
LINE
  5
3D6
100
AcDbEntity
  8
0
 62
     0
100
AcDbLine
 10
-201.014644
 20
336.113105
 30
0.0
 11
-203.574494
 21
334.320678
 31
0.0
  0
LINE
  5
3D7
100
AcDbEntity
  8
0
 62
     0
100
AcDbLine
 10
-206.134344
 20
332.528252
 30
0.0
 11
-208.694195
 21
330.735825
 31
0.0
  0
LINE
  5
3D8
100
AcDbEntity
  8
0
 62
     0
100
AcDbLine
 10
-211.254045
 20
328.943399
 30
0.0
 11
-213.813895
 21
327.150973
 31
0.0
  0
LINE
  5
3D9
100
AcDbEntity
  8
0
 62
     0
100
AcDbLine
 10
-216.373745
 20
325.358546
 30
0.0
 11
-218.933595
 21
323.56612
 31
0.0
  0
LINE
  5
3DA
100
AcDbEntity
  8
0
 62
     0
100
AcDbLine
 10
-221.493445
 20
321.773694
 30
0.0
 11
-224.053295
 21
319.981267
 31
0.0
  0
LINE
  5
3DB
100
AcDbEntity
  8
0
 62
     0
100
AcDbLine
 10
-226.613146
 20
318.188841
 30
0.0
 11
-229.172996
 21
316.396415
 31
0.0
  0
LINE
  5
3DC
100
AcDbEntity
  8
0
 62
     0
100
AcDbLine
 10
-231.732846
 20
314.603988
 30
0.0
 11
-234.292696
 21
312.811562
 31
0.0
  0
LINE
  5
3DD
100
AcDbEntity
  8
0
 62
     0
100
AcDbLine
 10
-236.852546
 20
311.019135
 30
0.0
 11
-239.412396
 21
309.226709
 31
0.0
  0
LINE
  5
3DE
100
AcDbEntity
  8
0
 62
     0
100
AcDbLine
 10
-241.972246
 20
307.434283
 30
0.0
 11
-244.532097
 21
305.641856
 31
0.0
  0
LINE
  5
3DF
100
AcDbEntity
  8
0
 62
     0
100
AcDbLine
 10
-247.091947
 20
303.84943
 30
0.0
 11
-249.651797
 21
302.057004
 31
0.0
  0
LINE
  5
3E0
100
AcDbEntity
  8
0
 62
     0
100
AcDbLine
 10
-252.211647
 20
300.264577
 30
0.0
 11
-254.771497
 21
298.472151
 31
0.0
  0
LINE
  5
3E1
100
AcDbEntity
  8
0
 62
     0
100
AcDbLine
 10
-257.331347
 20
296.679725
 30
0.0
 11
-259.891197
 21
294.887298
 31
0.0
  0
LINE
  5
3E2
100
AcDbEntity
  8
0
 62
     0
100
AcDbLine
 10
-262.451048
 20
293.094872
 30
0.0
 11
-262.586539
 21
293.0
 31
0.0
  0
LINE
  5
3E3
100
AcDbEntity
  8
0
 62
     0
100
AcDbLine
 10
-186.630373
 20
350.0
 30
0.0
 11
-187.44797
 21
349.427513
 31
0.0
  0
LINE
  5
3E4
100
AcDbEntity
  8
0
 62
     0
100
AcDbLine
 10
-190.00782
 20
347.635087
 30
0.0
 11
-192.56767
 21
345.84266
 31
0.0
  0
LINE
  5
3E5
100
AcDbEntity
  8
0
 62
     0
100
AcDbLine
 10
-195.12752
 20
344.050234
 30
0.0
 11
-197.68737
 21
342.257807
 31
0.0
  0
LINE
  5
3E6
100
AcDbEntity
  8
0
 62
     0
100
AcDbLine
 10
-200.24722
 20
340.465381
 30
0.0
 11
-202.807071
 21
338.672955
 31
0.0
  0
LINE
  5
3E7
100
AcDbEntity
  8
0
 62
     0
100
AcDbLine
 10
-205.366921
 20
336.880528
 30
0.0
 11
-207.926771
 21
335.088102
 31
0.0
  0
LINE
  5
3E8
100
AcDbEntity
  8
0
 62
     0
100
AcDbLine
 10
-210.486621
 20
333.295676
 30
0.0
 11
-213.046471
 21
331.503249
 31
0.0
  0
LINE
  5
3E9
100
AcDbEntity
  8
0
 62
     0
100
AcDbLine
 10
-215.606321
 20
329.710823
 30
0.0
 11
-218.166171
 21
327.918397
 31
0.0
  0
LINE
  5
3EA
100
AcDbEntity
  8
0
 62
     0
100
AcDbLine
 10
-220.726022
 20
326.12597
 30
0.0
 11
-223.285872
 21
324.333544
 31
0.0
  0
LINE
  5
3EB
100
AcDbEntity
  8
0
 62
     0
100
AcDbLine
 10
-225.845722
 20
322.541117
 30
0.0
 11
-228.405572
 21
320.748691
 31
0.0
  0
LINE
  5
3EC
100
AcDbEntity
  8
0
 62
     0
100
AcDbLine
 10
-230.965422
 20
318.956265
 30
0.0
 11
-233.525272
 21
317.163838
 31
0.0
  0
LINE
  5
3ED
100
AcDbEntity
  8
0
 62
     0
100
AcDbLine
 10
-236.085122
 20
315.371412
 30
0.0
 11
-238.644973
 21
313.578986
 31
0.0
  0
LINE
  5
3EE
100
AcDbEntity
  8
0
 62
     0
100
AcDbLine
 10
-241.204823
 20
311.786559
 30
0.0
 11
-243.764673
 21
309.994133
 31
0.0
  0
LINE
  5
3EF
100
AcDbEntity
  8
0
 62
     0
100
AcDbLine
 10
-246.324523
 20
308.201707
 30
0.0
 11
-248.884373
 21
306.40928
 31
0.0
  0
LINE
  5
3F0
100
AcDbEntity
  8
0
 62
     0
100
AcDbLine
 10
-251.444223
 20
304.616854
 30
0.0
 11
-254.004073
 21
302.824427
 31
0.0
  0
LINE
  5
3F1
100
AcDbEntity
  8
0
 62
     0
100
AcDbLine
 10
-256.563923
 20
301.032001
 30
0.0
 11
-259.123774
 21
299.239575
 31
0.0
  0
LINE
  5
3F2
100
AcDbEntity
  8
0
 62
     0
100
AcDbLine
 10
-261.683624
 20
297.447148
 30
0.0
 11
-264.243474
 21
295.654722
 31
0.0
  0
LINE
  5
3F3
100
AcDbEntity
  8
0
 62
     0
100
AcDbLine
 10
-266.803324
 20
293.862296
 30
0.0
 11
-268.03481
 21
293.0
 31
0.0
  0
LINE
  5
3F4
100
AcDbEntity
  8
0
 62
     0
100
AcDbLine
 10
-194.360096
 20
348.40251
 30
0.0
 11
-196.919947
 21
346.610084
 31
0.0
  0
LINE
  5
3F5
100
AcDbEntity
  8
0
 62
     0
100
AcDbLine
 10
-199.479797
 20
344.817658
 30
0.0
 11
-202.039647
 21
343.025231
 31
0.0
  0
LINE
  5
3F6
100
AcDbEntity
  8
0
 62
     0
100
AcDbLine
 10
-204.599497
 20
341.232805
 30
0.0
 11
-207.159347
 21
339.440378
 31
0.0
  0
LINE
  5
3F7
100
AcDbEntity
  8
0
 62
     0
100
AcDbLine
 10
-209.719197
 20
337.647952
 30
0.0
 11
-212.279047
 21
335.855526
 31
0.0
  0
LINE
  5
3F8
100
AcDbEntity
  8
0
 62
     0
100
AcDbLine
 10
-214.838897
 20
334.063099
 30
0.0
 11
-217.398748
 21
332.270673
 31
0.0
  0
LINE
  5
3F9
100
AcDbEntity
  8
0
 62
     0
100
AcDbLine
 10
-219.958598
 20
330.478247
 30
0.0
 11
-222.518448
 21
328.68582
 31
0.0
  0
LINE
  5
3FA
100
AcDbEntity
  8
0
 62
     0
100
AcDbLine
 10
-225.078298
 20
326.893394
 30
0.0
 11
-227.638148
 21
325.100968
 31
0.0
  0
LINE
  5
3FB
100
AcDbEntity
  8
0
 62
     0
100
AcDbLine
 10
-230.197998
 20
323.308541
 30
0.0
 11
-232.757848
 21
321.516115
 31
0.0
  0
LINE
  5
3FC
100
AcDbEntity
  8
0
 62
     0
100
AcDbLine
 10
-235.317699
 20
319.723688
 30
0.0
 11
-237.877549
 21
317.931262
 31
0.0
  0
LINE
  5
3FD
100
AcDbEntity
  8
0
 62
     0
100
AcDbLine
 10
-240.437399
 20
316.138836
 30
0.0
 11
-242.997249
 21
314.346409
 31
0.0
  0
LINE
  5
3FE
100
AcDbEntity
  8
0
 62
     0
100
AcDbLine
 10
-245.557099
 20
312.553983
 30
0.0
 11
-248.116949
 21
310.761557
 31
0.0
  0
LINE
  5
3FF
100
AcDbEntity
  8
0
 62
     0
100
AcDbLine
 10
-250.676799
 20
308.96913
 30
0.0
 11
-253.23665
 21
307.176704
 31
0.0
  0
LINE
  5
400
100
AcDbEntity
  8
0
 62
     0
100
AcDbLine
 10
-255.7965
 20
305.384278
 30
0.0
 11
-258.35635
 21
303.591851
 31
0.0
  0
LINE
  5
401
100
AcDbEntity
  8
0
 62
     0
100
AcDbLine
 10
-260.9162
 20
301.799425
 30
0.0
 11
-263.47605
 21
300.006998
 31
0.0
  0
LINE
  5
402
100
AcDbEntity
  8
0
 62
     0
100
AcDbLine
 10
-266.0359
 20
298.214572
 30
0.0
 11
-268.59575
 21
296.422146
 31
0.0
  0
LINE
  5
403
100
AcDbEntity
  8
0
 62
     0
100
AcDbLine
 10
-271.155601
 20
294.629719
 30
0.0
 11
-273.483081
 21
293.0
 31
0.0
  0
LINE
  5
404
100
AcDbEntity
  8
0
 62
     0
100
AcDbLine
 10
-198.712373
 20
349.169934
 30
0.0
 11
-201.272223
 21
347.377508
 31
0.0
  0
LINE
  5
405
100
AcDbEntity
  8
0
 62
     0
100
AcDbLine
 10
-203.832073
 20
345.585081
 30
0.0
 11
-206.391923
 21
343.792655
 31
0.0
  0
LINE
  5
406
100
AcDbEntity
  8
0
 62
     0
100
AcDbLine
 10
-208.951773
 20
342.000229
 30
0.0
 11
-211.511624
 21
340.207802
 31
0.0
  0
LINE
  5
407
100
AcDbEntity
  8
0
 62
     0
100
AcDbLine
 10
-214.071474
 20
338.415376
 30
0.0
 11
-216.631324
 21
336.62295
 31
0.0
  0
LINE
  5
408
100
AcDbEntity
  8
0
 62
     0
100
AcDbLine
 10
-219.191174
 20
334.830523
 30
0.0
 11
-221.751024
 21
333.038097
 31
0.0
  0
LINE
  5
409
100
AcDbEntity
  8
0
 62
     0
100
AcDbLine
 10
-224.310874
 20
331.24567
 30
0.0
 11
-226.870724
 21
329.453244
 31
0.0
  0
LINE
  5
40A
100
AcDbEntity
  8
0
 62
     0
100
AcDbLine
 10
-229.430575
 20
327.660818
 30
0.0
 11
-231.990425
 21
325.868391
 31
0.0
  0
LINE
  5
40B
100
AcDbEntity
  8
0
 62
     0
100
AcDbLine
 10
-234.550275
 20
324.075965
 30
0.0
 11
-237.110125
 21
322.283539
 31
0.0
  0
LINE
  5
40C
100
AcDbEntity
  8
0
 62
     0
100
AcDbLine
 10
-239.669975
 20
320.491112
 30
0.0
 11
-242.229825
 21
318.698686
 31
0.0
  0
LINE
  5
40D
100
AcDbEntity
  8
0
 62
     0
100
AcDbLine
 10
-244.789675
 20
316.90626
 30
0.0
 11
-247.349526
 21
315.113833
 31
0.0
  0
LINE
  5
40E
100
AcDbEntity
  8
0
 62
     0
100
AcDbLine
 10
-249.909376
 20
313.321407
 30
0.0
 11
-252.469226
 21
311.52898
 31
0.0
  0
LINE
  5
40F
100
AcDbEntity
  8
0
 62
     0
100
AcDbLine
 10
-255.029076
 20
309.736554
 30
0.0
 11
-257.588926
 21
307.944128
 31
0.0
  0
LINE
  5
410
100
AcDbEntity
  8
0
 62
     0
100
AcDbLine
 10
-260.148776
 20
306.151701
 30
0.0
 11
-262.708626
 21
304.359275
 31
0.0
  0
LINE
  5
411
100
AcDbEntity
  8
0
 62
     0
100
AcDbLine
 10
-265.268476
 20
302.566849
 30
0.0
 11
-267.828327
 21
300.774422
 31
0.0
  0
LINE
  5
412
100
AcDbEntity
  8
0
 62
     0
100
AcDbLine
 10
-270.388177
 20
298.981996
 30
0.0
 11
-272.948027
 21
297.18957
 31
0.0
  0
LINE
  5
413
100
AcDbEntity
  8
0
 62
     0
100
AcDbLine
 10
-275.507877
 20
295.397143
 30
0.0
 11
-278.067727
 21
293.604717
 31
0.0
  0
LINE
  5
414
100
AcDbEntity
  8
0
 62
     0
100
AcDbLine
 10
-203.064649
 20
349.937358
 30
0.0
 11
-205.6245
 21
348.144931
 31
0.0
  0
LINE
  5
415
100
AcDbEntity
  8
0
 62
     0
100
AcDbLine
 10
-208.18435
 20
346.352505
 30
0.0
 11
-210.7442
 21
344.560079
 31
0.0
  0
LINE
  5
416
100
AcDbEntity
  8
0
 62
     0
100
AcDbLine
 10
-213.30405
 20
342.767652
 30
0.0
 11
-215.8639
 21
340.975226
 31
0.0
  0
LINE
  5
417
100
AcDbEntity
  8
0
 62
     0
100
AcDbLine
 10
-218.42375
 20
339.1828
 30
0.0
 11
-220.9836
 21
337.390373
 31
0.0
  0
LINE
  5
418
100
AcDbEntity
  8
0
 62
     0
100
AcDbLine
 10
-223.54345
 20
335.597947
 30
0.0
 11
-226.103301
 21
333.805521
 31
0.0
  0
LINE
  5
419
100
AcDbEntity
  8
0
 62
     0
100
AcDbLine
 10
-228.663151
 20
332.013094
 30
0.0
 11
-231.223001
 21
330.220668
 31
0.0
  0
LINE
  5
41A
100
AcDbEntity
  8
0
 62
     0
100
AcDbLine
 10
-233.782851
 20
328.428241
 30
0.0
 11
-236.342701
 21
326.635815
 31
0.0
  0
LINE
  5
41B
100
AcDbEntity
  8
0
 62
     0
100
AcDbLine
 10
-238.902551
 20
324.843389
 30
0.0
 11
-241.462401
 21
323.050962
 31
0.0
  0
LINE
  5
41C
100
AcDbEntity
  8
0
 62
     0
100
AcDbLine
 10
-244.022252
 20
321.258536
 30
0.0
 11
-246.582102
 21
319.46611
 31
0.0
  0
LINE
  5
41D
100
AcDbEntity
  8
0
 62
     0
100
AcDbLine
 10
-249.141952
 20
317.673683
 30
0.0
 11
-251.701802
 21
315.881257
 31
0.0
  0
LINE
  5
41E
100
AcDbEntity
  8
0
 62
     0
100
AcDbLine
 10
-254.261652
 20
314.088831
 30
0.0
 11
-256.821502
 21
312.296404
 31
0.0
  0
LINE
  5
41F
100
AcDbEntity
  8
0
 62
     0
100
AcDbLine
 10
-259.381352
 20
310.503978
 30
0.0
 11
-261.941203
 21
308.711551
 31
0.0
  0
LINE
  5
420
100
AcDbEntity
  8
0
 62
     0
100
AcDbLine
 10
-264.501053
 20
306.919125
 30
0.0
 11
-267.060903
 21
305.126699
 31
0.0
  0
LINE
  5
421
100
AcDbEntity
  8
0
 62
     0
100
AcDbLine
 10
-269.620753
 20
303.334272
 30
0.0
 11
-272.180603
 21
301.541846
 31
0.0
  0
LINE
  5
422
100
AcDbEntity
  8
0
 62
     0
100
AcDbLine
 10
-274.740453
 20
299.74942
 30
0.0
 11
-277.300303
 21
297.956993
 31
0.0
  0
LINE
  5
423
100
AcDbEntity
  8
0
 62
     0
100
AcDbLine
 10
-279.860154
 20
296.164567
 30
0.0
 11
-282.420004
 21
294.372141
 31
0.0
  0
LINE
  5
424
100
AcDbEntity
  8
0
 62
     0
100
AcDbLine
 10
-208.423458
 20
350.0
 30
0.0
 11
-209.976776
 21
348.912355
 31
0.0
  0
LINE
  5
425
100
AcDbEntity
  8
0
 62
     0
100
AcDbLine
 10
-212.536626
 20
347.119929
 30
0.0
 11
-215.096476
 21
345.327503
 31
0.0
  0
LINE
  5
426
100
AcDbEntity
  8
0
 62
     0
100
AcDbLine
 10
-217.656326
 20
343.535076
 30
0.0
 11
-220.216177
 21
341.74265
 31
0.0
  0
LINE
  5
427
100
AcDbEntity
  8
0
 62
     0
100
AcDbLine
 10
-222.776027
 20
339.950223
 30
0.0
 11
-225.335877
 21
338.157797
 31
0.0
  0
LINE
  5
428
100
AcDbEntity
  8
0
 62
     0
100
AcDbLine
 10
-227.895727
 20
336.365371
 30
0.0
 11
-230.455577
 21
334.572944
 31
0.0
  0
LINE
  5
429
100
AcDbEntity
  8
0
 62
     0
100
AcDbLine
 10
-233.015427
 20
332.780518
 30
0.0
 11
-235.575277
 21
330.988092
 31
0.0
  0
LINE
  5
42A
100
AcDbEntity
  8
0
 62
     0
100
AcDbLine
 10
-238.135128
 20
329.195665
 30
0.0
 11
-240.694978
 21
327.403239
 31
0.0
  0
LINE
  5
42B
100
AcDbEntity
  8
0
 62
     0
100
AcDbLine
 10
-243.254828
 20
325.610813
 30
0.0
 11
-245.814678
 21
323.818386
 31
0.0
  0
LINE
  5
42C
100
AcDbEntity
  8
0
 62
     0
100
AcDbLine
 10
-248.374528
 20
322.02596
 30
0.0
 11
-250.934378
 21
320.233533
 31
0.0
  0
LINE
  5
42D
100
AcDbEntity
  8
0
 62
     0
100
AcDbLine
 10
-253.494228
 20
318.441107
 30
0.0
 11
-256.054079
 21
316.648681
 31
0.0
  0
LINE
  5
42E
100
AcDbEntity
  8
0
 62
     0
100
AcDbLine
 10
-258.613929
 20
314.856254
 30
0.0
 11
-261.173779
 21
313.063828
 31
0.0
  0
LINE
  5
42F
100
AcDbEntity
  8
0
 62
     0
100
AcDbLine
 10
-263.733629
 20
311.271402
 30
0.0
 11
-266.293479
 21
309.478975
 31
0.0
  0
LINE
  5
430
100
AcDbEntity
  8
0
 62
     0
100
AcDbLine
 10
-268.853329
 20
307.686549
 30
0.0
 11
-271.413179
 21
305.894123
 31
0.0
  0
LINE
  5
431
100
AcDbEntity
  8
0
 62
     0
100
AcDbLine
 10
-273.973029
 20
304.101696
 30
0.0
 11
-276.53288
 21
302.30927
 31
0.0
  0
LINE
  5
432
100
AcDbEntity
  8
0
 62
     0
100
AcDbLine
 10
-279.09273
 20
300.516843
 30
0.0
 11
-281.65258
 21
298.724417
 31
0.0
  0
LINE
  5
433
100
AcDbEntity
  8
0
 62
     0
100
AcDbLine
 10
-284.21243
 20
296.931991
 30
0.0
 11
-286.77228
 21
295.139564
 31
0.0
  0
LINE
  5
434
100
AcDbEntity
  8
0
 62
     0
100
AcDbLine
 10
-289.33213
 20
293.347138
 30
0.0
 11
-289.827895
 21
293.0
 31
0.0
  0
LINE
  5
435
100
AcDbEntity
  8
0
 62
     0
100
AcDbLine
 10
-213.87173
 20
350.0
 30
0.0
 11
-214.329053
 21
349.679779
 31
0.0
  0
LINE
  5
436
100
AcDbEntity
  8
0
 62
     0
100
AcDbLine
 10
-216.888903
 20
347.887353
 30
0.0
 11
-219.448753
 21
346.094926
 31
0.0
  0
LINE
  5
437
100
AcDbEntity
  8
0
 62
     0
100
AcDbLine
 10
-222.008603
 20
344.3025
 30
0.0
 11
-224.568453
 21
342.510074
 31
0.0
  0
LINE
  5
438
100
AcDbEntity
  8
0
 62
     0
100
AcDbLine
 10
-227.128303
 20
340.717647
 30
0.0
 11
-229.688153
 21
338.925221
 31
0.0
  0
LINE
  5
439
100
AcDbEntity
  8
0
 62
     0
100
AcDbLine
 10
-232.248003
 20
337.132794
 30
0.0
 11
-234.807854
 21
335.340368
 31
0.0
  0
LINE
  5
43A
100
AcDbEntity
  8
0
 62
     0
100
AcDbLine
 10
-237.367704
 20
333.547942
 30
0.0
 11
-239.927554
 21
331.755515
 31
0.0
  0
LINE
  5
43B
100
AcDbEntity
  8
0
 62
     0
100
AcDbLine
 10
-242.487404
 20
329.963089
 30
0.0
 11
-245.047254
 21
328.170663
 31
0.0
  0
LINE
  5
43C
100
AcDbEntity
  8
0
 62
     0
100
AcDbLine
 10
-247.607104
 20
326.378236
 30
0.0
 11
-250.166954
 21
324.58581
 31
0.0
  0
LINE
  5
43D
100
AcDbEntity
  8
0
 62
     0
100
AcDbLine
 10
-252.726805
 20
322.793384
 30
0.0
 11
-255.286655
 21
321.000957
 31
0.0
  0
LINE
  5
43E
100
AcDbEntity
  8
0
 62
     0
100
AcDbLine
 10
-257.846505
 20
319.208531
 30
0.0
 11
-260.406355
 21
317.416104
 31
0.0
  0
LINE
  5
43F
100
AcDbEntity
  8
0
 62
     0
100
AcDbLine
 10
-262.966205
 20
315.623678
 30
0.0
 11
-265.526055
 21
313.831252
 31
0.0
  0
LINE
  5
440
100
AcDbEntity
  8
0
 62
     0
100
AcDbLine
 10
-268.085905
 20
312.038825
 30
0.0
 11
-270.645756
 21
310.246399
 31
0.0
  0
LINE
  5
441
100
AcDbEntity
  8
0
 62
     0
100
AcDbLine
 10
-273.205606
 20
308.453973
 30
0.0
 11
-275.765456
 21
306.661546
 31
0.0
  0
LINE
  5
442
100
AcDbEntity
  8
0
 62
     0
100
AcDbLine
 10
-278.325306
 20
304.86912
 30
0.0
 11
-280.885156
 21
303.076694
 31
0.0
  0
LINE
  5
443
100
AcDbEntity
  8
0
 62
     0
100
AcDbLine
 10
-283.445006
 20
301.284267
 30
0.0
 11
-286.004856
 21
299.491841
 31
0.0
  0
LINE
  5
444
100
AcDbEntity
  8
0
 62
     0
100
AcDbLine
 10
-288.564707
 20
297.699414
 30
0.0
 11
-291.124557
 21
295.906988
 31
0.0
  0
LINE
  5
445
100
AcDbEntity
  8
0
 62
     0
100
AcDbLine
 10
-293.684407
 20
294.114562
 30
0.0
 11
-295.276166
 21
293.0
 31
0.0
  0
LINE
  5
446
100
AcDbEntity
  8
0
 62
     0
100
AcDbLine
 10
-221.241179
 20
348.654776
 30
0.0
 11
-223.801029
 21
346.86235
 31
0.0
  0
LINE
  5
447
100
AcDbEntity
  8
0
 62
     0
100
AcDbLine
 10
-226.360879
 20
345.069924
 30
0.0
 11
-228.92073
 21
343.277497
 31
0.0
  0
LINE
  5
448
100
AcDbEntity
  8
0
 62
     0
100
AcDbLine
 10
-231.48058
 20
341.485071
 30
0.0
 11
-234.04043
 21
339.692645
 31
0.0
  0
LINE
  5
449
100
AcDbEntity
  8
0
 62
     0
100
AcDbLine
 10
-236.60028
 20
337.900218
 30
0.0
 11
-239.16013
 21
336.107792
 31
0.0
  0
LINE
  5
44A
100
AcDbEntity
  8
0
 62
     0
100
AcDbLine
 10
-241.71998
 20
334.315366
 30
0.0
 11
-244.27983
 21
332.522939
 31
0.0
  0
LINE
  5
44B
100
AcDbEntity
  8
0
 62
     0
100
AcDbLine
 10
-246.839681
 20
330.730513
 30
0.0
 11
-249.399531
 21
328.938086
 31
0.0
  0
LINE
  5
44C
100
AcDbEntity
  8
0
 62
     0
100
AcDbLine
 10
-251.959381
 20
327.14566
 30
0.0
 11
-254.519231
 21
325.353234
 31
0.0
  0
LINE
  5
44D
100
AcDbEntity
  8
0
 62
     0
100
AcDbLine
 10
-257.079081
 20
323.560807
 30
0.0
 11
-259.638931
 21
321.768381
 31
0.0
  0
LINE
  5
44E
100
AcDbEntity
  8
0
 62
     0
100
AcDbLine
 10
-262.198781
 20
319.975955
 30
0.0
 11
-264.758632
 21
318.183528
 31
0.0
  0
LINE
  5
44F
100
AcDbEntity
  8
0
 62
     0
100
AcDbLine
 10
-267.318482
 20
316.391102
 30
0.0
 11
-269.878332
 21
314.598676
 31
0.0
  0
LINE
  5
450
100
AcDbEntity
  8
0
 62
     0
100
AcDbLine
 10
-272.438182
 20
312.806249
 30
0.0
 11
-274.998032
 21
311.013823
 31
0.0
  0
LINE
  5
451
100
AcDbEntity
  8
0
 62
     0
100
AcDbLine
 10
-277.557882
 20
309.221396
 30
0.0
 11
-280.117732
 21
307.42897
 31
0.0
  0
LINE
  5
452
100
AcDbEntity
  8
0
 62
     0
100
AcDbLine
 10
-282.677582
 20
305.636544
 30
0.0
 11
-285.237433
 21
303.844117
 31
0.0
  0
LINE
  5
453
100
AcDbEntity
  8
0
 62
     0
100
AcDbLine
 10
-287.797283
 20
302.051691
 30
0.0
 11
-290.357133
 21
300.259265
 31
0.0
  0
LINE
  5
454
100
AcDbEntity
  8
0
 62
     0
100
AcDbLine
 10
-292.916983
 20
298.466838
 30
0.0
 11
-295.476833
 21
296.674412
 31
0.0
  0
LINE
  5
455
100
AcDbEntity
  8
0
 62
     0
100
AcDbLine
 10
-298.036683
 20
294.881986
 30
0.0
 11
-300.596533
 21
293.089559
 31
0.0
  0
LINE
  5
456
100
AcDbEntity
  8
0
 62
     0
100
AcDbLine
 10
-225.593456
 20
349.4222
 30
0.0
 11
-228.153306
 21
347.629774
 31
0.0
  0
LINE
  5
457
100
AcDbEntity
  8
0
 62
     0
100
AcDbLine
 10
-230.713156
 20
345.837347
 30
0.0
 11
-233.273006
 21
344.044921
 31
0.0
  0
LINE
  5
458
100
AcDbEntity
  8
0
 62
     0
100
AcDbLine
 10
-235.832856
 20
342.252495
 30
0.0
 11
-238.392706
 21
340.460068
 31
0.0
  0
LINE
  5
459
100
AcDbEntity
  8
0
 62
     0
100
AcDbLine
 10
-240.952556
 20
338.667642
 30
0.0
 11
-243.512407
 21
336.875216
 31
0.0
  0
LINE
  5
45A
100
AcDbEntity
  8
0
 62
     0
100
AcDbLine
 10
-246.072257
 20
335.082789
 30
0.0
 11
-248.632107
 21
333.290363
 31
0.0
  0
LINE
  5
45B
100
AcDbEntity
  8
0
 62
     0
100
AcDbLine
 10
-251.191957
 20
331.497937
 30
0.0
 11
-253.751807
 21
329.70551
 31
0.0
  0
LINE
  5
45C
100
AcDbEntity
  8
0
 62
     0
100
AcDbLine
 10
-256.311657
 20
327.913084
 30
0.0
 11
-258.871507
 21
326.120657
 31
0.0
  0
LINE
  5
45D
100
AcDbEntity
  8
0
 62
     0
100
AcDbLine
 10
-261.431358
 20
324.328231
 30
0.0
 11
-263.991208
 21
322.535805
 31
0.0
  0
LINE
  5
45E
100
AcDbEntity
  8
0
 62
     0
100
AcDbLine
 10
-266.551058
 20
320.743378
 30
0.0
 11
-269.110908
 21
318.950952
 31
0.0
  0
LINE
  5
45F
100
AcDbEntity
  8
0
 62
     0
100
AcDbLine
 10
-271.670758
 20
317.158526
 30
0.0
 11
-274.230608
 21
315.366099
 31
0.0
  0
LINE
  5
460
100
AcDbEntity
  8
0
 62
     0
100
AcDbLine
 10
-276.790458
 20
313.573673
 30
0.0
 11
-279.350309
 21
311.781247
 31
0.0
  0
LINE
  5
461
100
AcDbEntity
  8
0
 62
     0
100
AcDbLine
 10
-281.910159
 20
309.98882
 30
0.0
 11
-284.470009
 21
308.196394
 31
0.0
  0
LINE
  5
462
100
AcDbEntity
  8
0
 62
     0
100
AcDbLine
 10
-287.029859
 20
306.403967
 30
0.0
 11
-289.589709
 21
304.611541
 31
0.0
  0
LINE
  5
463
100
AcDbEntity
  8
0
 62
     0
100
AcDbLine
 10
-292.149559
 20
302.819115
 30
0.0
 11
-294.709409
 21
301.026688
 31
0.0
  0
LINE
  5
464
100
AcDbEntity
  8
0
 62
     0
100
AcDbLine
 10
-297.26926
 20
299.234262
 30
0.0
 11
-299.82911
 21
297.441836
 31
0.0
  0
LINE
  5
465
100
AcDbEntity
  8
0
 62
     0
100
AcDbLine
 10
-302.38896
 20
295.649409
 30
0.0
 11
-304.94881
 21
293.856983
 31
0.0
  0
LINE
  5
466
100
AcDbEntity
  8
0
 62
     0
100
AcDbLine
 10
-230.216543
 20
350.0
 30
0.0
 11
-232.505582
 21
348.397198
 31
0.0
  0
LINE
  5
467
100
AcDbEntity
  8
0
 62
     0
100
AcDbLine
 10
-235.065432
 20
346.604771
 30
0.0
 11
-237.625283
 21
344.812345
 31
0.0
  0
LINE
  5
468
100
AcDbEntity
  8
0
 62
     0
100
AcDbLine
 10
-240.185133
 20
343.019919
 30
0.0
 11
-242.744983
 21
341.227492
 31
0.0
  0
LINE
  5
469
100
AcDbEntity
  8
0
 62
     0
100
AcDbLine
 10
-245.304833
 20
339.435066
 30
0.0
 11
-247.864683
 21
337.642639
 31
0.0
  0
LINE
  5
46A
100
AcDbEntity
  8
0
 62
     0
100
AcDbLine
 10
-250.424533
 20
335.850213
 30
0.0
 11
-252.984383
 21
334.057787
 31
0.0
  0
LINE
  5
46B
100
AcDbEntity
  8
0
 62
     0
100
AcDbLine
 10
-255.544234
 20
332.26536
 30
0.0
 11
-258.104084
 21
330.472934
 31
0.0
  0
LINE
  5
46C
100
AcDbEntity
  8
0
 62
     0
100
AcDbLine
 10
-260.663934
 20
328.680508
 30
0.0
 11
-263.223784
 21
326.888081
 31
0.0
  0
LINE
  5
46D
100
AcDbEntity
  8
0
 62
     0
100
AcDbLine
 10
-265.783634
 20
325.095655
 30
0.0
 11
-268.343484
 21
323.303229
 31
0.0
  0
LINE
  5
46E
100
AcDbEntity
  8
0
 62
     0
100
AcDbLine
 10
-270.903334
 20
321.510802
 30
0.0
 11
-273.463185
 21
319.718376
 31
0.0
  0
LINE
  5
46F
100
AcDbEntity
  8
0
 62
     0
100
AcDbLine
 10
-276.023035
 20
317.925949
 30
0.0
 11
-278.582885
 21
316.133523
 31
0.0
  0
LINE
  5
470
100
AcDbEntity
  8
0
 62
     0
100
AcDbLine
 10
-281.142735
 20
314.341097
 30
0.0
 11
-283.702585
 21
312.54867
 31
0.0
  0
LINE
  5
471
100
AcDbEntity
  8
0
 62
     0
100
AcDbLine
 10
-286.262435
 20
310.756244
 30
0.0
 11
-288.822285
 21
308.963818
 31
0.0
  0
LINE
  5
472
100
AcDbEntity
  8
0
 62
     0
100
AcDbLine
 10
-291.382135
 20
307.171391
 30
0.0
 11
-293.941986
 21
305.378965
 31
0.0
  0
LINE
  5
473
100
AcDbEntity
  8
0
 62
     0
100
AcDbLine
 10
-296.501836
 20
303.586539
 30
0.0
 11
-299.061686
 21
301.794112
 31
0.0
  0
LINE
  5
474
100
AcDbEntity
  8
0
 62
     0
100
AcDbLine
 10
-301.621536
 20
300.001686
 30
0.0
 11
-304.181386
 21
298.209259
 31
0.0
  0
LINE
  5
475
100
AcDbEntity
  8
0
 62
     0
100
AcDbLine
 10
-306.741236
 20
296.416833
 30
0.0
 11
-309.301086
 21
294.624407
 31
0.0
  0
LINE
  5
476
100
AcDbEntity
  8
0
 62
     0
100
AcDbLine
 10
-235.664815
 20
350.0
 30
0.0
 11
-236.857859
 21
349.164621
 31
0.0
  0
LINE
  5
477
100
AcDbEntity
  8
0
 62
     0
100
AcDbLine
 10
-239.417709
 20
347.372195
 30
0.0
 11
-241.977559
 21
345.579769
 31
0.0
  0
LINE
  5
478
100
AcDbEntity
  8
0
 62
     0
100
AcDbLine
 10
-244.537409
 20
343.787342
 30
0.0
 11
-247.097259
 21
341.994916
 31
0.0
  0
LINE
  5
479
100
AcDbEntity
  8
0
 62
     0
100
AcDbLine
 10
-249.65711
 20
340.20249
 30
0.0
 11
-252.21696
 21
338.410063
 31
0.0
  0
LINE
  5
47A
100
AcDbEntity
  8
0
 62
     0
100
AcDbLine
 10
-254.77681
 20
336.617637
 30
0.0
 11
-257.33666
 21
334.825211
 31
0.0
  0
LINE
  5
47B
100
AcDbEntity
  8
0
 62
     0
100
AcDbLine
 10
-259.89651
 20
333.032784
 30
0.0
 11
-262.45636
 21
331.240358
 31
0.0
  0
LINE
  5
47C
100
AcDbEntity
  8
0
 62
     0
100
AcDbLine
 10
-265.01621
 20
329.447931
 30
0.0
 11
-267.57606
 21
327.655505
 31
0.0
  0
LINE
  5
47D
100
AcDbEntity
  8
0
 62
     0
100
AcDbLine
 10
-270.135911
 20
325.863079
 30
0.0
 11
-272.695761
 21
324.070652
 31
0.0
  0
LINE
  5
47E
100
AcDbEntity
  8
0
 62
     0
100
AcDbLine
 10
-275.255611
 20
322.278226
 30
0.0
 11
-277.815461
 21
320.4858
 31
0.0
  0
LINE
  5
47F
100
AcDbEntity
  8
0
 62
     0
100
AcDbLine
 10
-280.375311
 20
318.693373
 30
0.0
 11
-282.935161
 21
316.900947
 31
0.0
  0
LINE
  5
480
100
AcDbEntity
  8
0
 62
     0
100
AcDbLine
 10
-285.495011
 20
315.108521
 30
0.0
 11
-288.054862
 21
313.316094
 31
0.0
  0
LINE
  5
481
100
AcDbEntity
  8
0
 62
     0
100
AcDbLine
 10
-290.614712
 20
311.523668
 30
0.0
 11
-293.174562
 21
309.731241
 31
0.0
  0
LINE
  5
482
100
AcDbEntity
  8
0
 62
     0
100
AcDbLine
 10
-295.734412
 20
307.938815
 30
0.0
 11
-298.294262
 21
306.146389
 31
0.0
  0
LINE
  5
483
100
AcDbEntity
  8
0
 62
     0
100
AcDbLine
 10
-300.854112
 20
304.353962
 30
0.0
 11
-303.413962
 21
302.561536
 31
0.0
  0
LINE
  5
484
100
AcDbEntity
  8
0
 62
     0
100
AcDbLine
 10
-305.973813
 20
300.76911
 30
0.0
 11
-308.533663
 21
298.976683
 31
0.0
  0
LINE
  5
485
100
AcDbEntity
  8
0
 62
     0
100
AcDbLine
 10
-241.113086
 20
350.0
 30
0.0
 11
-241.210135
 21
349.932045
 31
0.0
  0
LINE
  5
486
100
AcDbEntity
  8
0
 62
     0
100
AcDbLine
 10
-243.769985
 20
348.139619
 30
0.0
 11
-246.329836
 21
346.347192
 31
0.0
  0
LINE
  5
487
100
AcDbEntity
  8
0
 62
     0
100
AcDbLine
 10
-248.889686
 20
344.554766
 30
0.0
 11
-251.449536
 21
342.76234
 31
0.0
  0
LINE
  5
488
100
AcDbEntity
  8
0
 62
     0
100
AcDbLine
 10
-254.009386
 20
340.969913
 30
0.0
 11
-256.569236
 21
339.177487
 31
0.0
  0
LINE
  5
489
100
AcDbEntity
  8
0
 62
     0
100
AcDbLine
 10
-259.129086
 20
337.385061
 30
0.0
 11
-261.688936
 21
335.592634
 31
0.0
  0
LINE
  5
48A
100
AcDbEntity
  8
0
 62
     0
100
AcDbLine
 10
-264.248787
 20
333.800208
 30
0.0
 11
-266.808637
 21
332.007782
 31
0.0
  0
LINE
  5
48B
100
AcDbEntity
  8
0
 62
     0
100
AcDbLine
 10
-269.368487
 20
330.215355
 30
0.0
 11
-271.928337
 21
328.422929
 31
0.0
  0
LINE
  5
48C
100
AcDbEntity
  8
0
 62
     0
100
AcDbLine
 10
-274.488187
 20
326.630502
 30
0.0
 11
-277.048037
 21
324.838076
 31
0.0
  0
LINE
  5
48D
100
AcDbEntity
  8
0
 62
     0
100
AcDbLine
 10
-279.607887
 20
323.04565
 30
0.0
 11
-282.167738
 21
321.253223
 31
0.0
  0
LINE
  5
48E
100
AcDbEntity
  8
0
 62
     0
100
AcDbLine
 10
-284.727588
 20
319.460797
 30
0.0
 11
-287.287438
 21
317.668371
 31
0.0
  0
LINE
  5
48F
100
AcDbEntity
  8
0
 62
     0
100
AcDbLine
 10
-289.847288
 20
315.875944
 30
0.0
 11
-292.407138
 21
314.083518
 31
0.0
  0
LINE
  5
490
100
AcDbEntity
  8
0
 62
     0
100
AcDbLine
 10
-294.966988
 20
312.291092
 30
0.0
 11
-297.526838
 21
310.498665
 31
0.0
  0
LINE
  5
491
100
AcDbEntity
  8
0
 62
     0
100
AcDbLine
 10
-300.086688
 20
308.706239
 30
0.0
 11
-302.646539
 21
306.913812
 31
0.0
  0
LINE
  5
492
100
AcDbEntity
  8
0
 62
     0
100
AcDbLine
 10
-305.206389
 20
305.121386
 30
0.0
 11
-307.766239
 21
303.32896
 31
0.0
  0
LINE
  5
493
100
AcDbEntity
  8
0
 62
     0
100
AcDbLine
 10
-248.122262
 20
348.907043
 30
0.0
 11
-250.682112
 21
347.114616
 31
0.0
  0
LINE
  5
494
100
AcDbEntity
  8
0
 62
     0
100
AcDbLine
 10
-253.241962
 20
345.32219
 30
0.0
 11
-255.801812
 21
343.529764
 31
0.0
  0
LINE
  5
495
100
AcDbEntity
  8
0
 62
     0
100
AcDbLine
 10
-258.361663
 20
341.737337
 30
0.0
 11
-260.921513
 21
339.944911
 31
0.0
  0
LINE
  5
496
100
AcDbEntity
  8
0
 62
     0
100
AcDbLine
 10
-263.481363
 20
338.152484
 30
0.0
 11
-266.041213
 21
336.360058
 31
0.0
  0
LINE
  5
497
100
AcDbEntity
  8
0
 62
     0
100
AcDbLine
 10
-268.601063
 20
334.567632
 30
0.0
 11
-271.160913
 21
332.775205
 31
0.0
  0
LINE
  5
498
100
AcDbEntity
  8
0
 62
     0
100
AcDbLine
 10
-273.720763
 20
330.982779
 30
0.0
 11
-276.280613
 21
329.190353
 31
0.0
  0
LINE
  5
499
100
AcDbEntity
  8
0
 62
     0
100
AcDbLine
 10
-278.840464
 20
327.397926
 30
0.0
 11
-281.400314
 21
325.6055
 31
0.0
  0
LINE
  5
49A
100
AcDbEntity
  8
0
 62
     0
100
AcDbLine
 10
-283.960164
 20
323.813074
 30
0.0
 11
-286.520014
 21
322.020647
 31
0.0
  0
LINE
  5
49B
100
AcDbEntity
  8
0
 62
     0
100
AcDbLine
 10
-289.079864
 20
320.228221
 30
0.0
 11
-291.639714
 21
318.435794
 31
0.0
  0
LINE
  5
49C
100
AcDbEntity
  8
0
 62
     0
100
AcDbLine
 10
-294.199564
 20
316.643368
 30
0.0
 11
-296.759415
 21
314.850942
 31
0.0
  0
LINE
  5
49D
100
AcDbEntity
  8
0
 62
     0
100
AcDbLine
 10
-299.319265
 20
313.058515
 30
0.0
 11
-301.879115
 21
311.266089
 31
0.0
  0
LINE
  5
49E
100
AcDbEntity
  8
0
 62
     0
100
AcDbLine
 10
-304.438965
 20
309.473663
 30
0.0
 11
-306.998815
 21
307.681236
 31
0.0
  0
LINE
  5
49F
100
AcDbEntity
  8
0
 62
     0
100
AcDbLine
 10
-309.558665
 20
305.88881
 30
0.0
 11
-310.0
 21
305.579784
 31
0.0
  0
LINE
  5
4A0
100
AcDbEntity
  8
0
 62
     0
100
AcDbLine
 10
-252.474538
 20
349.674466
 30
0.0
 11
-255.034389
 21
347.88204
 31
0.0
  0
LINE
  5
4A1
100
AcDbEntity
  8
0
 62
     0
100
AcDbLine
 10
-257.594239
 20
346.089614
 30
0.0
 11
-260.154089
 21
344.297187
 31
0.0
  0
LINE
  5
4A2
100
AcDbEntity
  8
0
 62
     0
100
AcDbLine
 10
-262.713939
 20
342.504761
 30
0.0
 11
-265.273789
 21
340.712335
 31
0.0
  0
LINE
  5
4A3
100
AcDbEntity
  8
0
 62
     0
100
AcDbLine
 10
-267.833639
 20
338.919908
 30
0.0
 11
-270.393489
 21
337.127482
 31
0.0
  0
LINE
  5
4A4
100
AcDbEntity
  8
0
 62
     0
100
AcDbLine
 10
-272.95334
 20
335.335055
 30
0.0
 11
-275.51319
 21
333.542629
 31
0.0
  0
LINE
  5
4A5
100
AcDbEntity
  8
0
 62
     0
100
AcDbLine
 10
-278.07304
 20
331.750203
 30
0.0
 11
-280.63289
 21
329.957776
 31
0.0
  0
LINE
  5
4A6
100
AcDbEntity
  8
0
 62
     0
100
AcDbLine
 10
-283.19274
 20
328.16535
 30
0.0
 11
-285.75259
 21
326.372924
 31
0.0
  0
LINE
  5
4A7
100
AcDbEntity
  8
0
 62
     0
100
AcDbLine
 10
-288.31244
 20
324.580497
 30
0.0
 11
-290.872291
 21
322.788071
 31
0.0
  0
LINE
  5
4A8
100
AcDbEntity
  8
0
 62
     0
100
AcDbLine
 10
-293.432141
 20
320.995645
 30
0.0
 11
-295.991991
 21
319.203218
 31
0.0
  0
LINE
  5
4A9
100
AcDbEntity
  8
0
 62
     0
100
AcDbLine
 10
-298.551841
 20
317.410792
 30
0.0
 11
-301.111691
 21
315.618365
 31
0.0
  0
LINE
  5
4AA
100
AcDbEntity
  8
0
 62
     0
100
AcDbLine
 10
-303.671541
 20
313.825939
 30
0.0
 11
-306.231391
 21
312.033513
 31
0.0
  0
LINE
  5
4AB
100
AcDbEntity
  8
0
 62
     0
100
AcDbLine
 10
-308.791241
 20
310.241086
 30
0.0
 11
-310.0
 21
309.394705
 31
0.0
  0
LINE
  5
4AC
100
AcDbEntity
  8
0
 62
     0
100
AcDbLine
 10
-257.457899
 20
350.0
 30
0.0
 11
-259.386665
 21
348.649464
 31
0.0
  0
LINE
  5
4AD
100
AcDbEntity
  8
0
 62
     0
100
AcDbLine
 10
-261.946515
 20
346.857037
 30
0.0
 11
-264.506365
 21
345.064611
 31
0.0
  0
LINE
  5
4AE
100
AcDbEntity
  8
0
 62
     0
100
AcDbLine
 10
-267.066216
 20
343.272185
 30
0.0
 11
-269.626066
 21
341.479758
 31
0.0
  0
LINE
  5
4AF
100
AcDbEntity
  8
0
 62
     0
100
AcDbLine
 10
-272.185916
 20
339.687332
 30
0.0
 11
-274.745766
 21
337.894906
 31
0.0
  0
LINE
  5
4B0
100
AcDbEntity
  8
0
 62
     0
100
AcDbLine
 10
-277.305616
 20
336.102479
 30
0.0
 11
-279.865466
 21
334.310053
 31
0.0
  0
LINE
  5
4B1
100
AcDbEntity
  8
0
 62
     0
100
AcDbLine
 10
-282.425316
 20
332.517627
 30
0.0
 11
-284.985166
 21
330.7252
 31
0.0
  0
LINE
  5
4B2
100
AcDbEntity
  8
0
 62
     0
100
AcDbLine
 10
-287.545017
 20
328.932774
 30
0.0
 11
-290.104867
 21
327.140347
 31
0.0
  0
LINE
  5
4B3
100
AcDbEntity
  8
0
 62
     0
100
AcDbLine
 10
-292.664717
 20
325.347921
 30
0.0
 11
-295.224567
 21
323.555495
 31
0.0
  0
LINE
  5
4B4
100
AcDbEntity
  8
0
 62
     0
100
AcDbLine
 10
-297.784417
 20
321.763068
 30
0.0
 11
-300.344267
 21
319.970642
 31
0.0
  0
LINE
  5
4B5
100
AcDbEntity
  8
0
 62
     0
100
AcDbLine
 10
-302.904117
 20
318.178216
 30
0.0
 11
-305.463968
 21
316.385789
 31
0.0
  0
LINE
  5
4B6
100
AcDbEntity
  8
0
 62
     0
100
AcDbLine
 10
-308.023818
 20
314.593363
 30
0.0
 11
-310.0
 21
313.209625
 31
0.0
  0
LINE
  5
4B7
100
AcDbEntity
  8
0
 62
     0
100
AcDbLine
 10
-262.906171
 20
350.0
 30
0.0
 11
-263.738942
 21
349.416888
 31
0.0
  0
LINE
  5
4B8
100
AcDbEntity
  8
0
 62
     0
100
AcDbLine
 10
-266.298792
 20
347.624461
 30
0.0
 11
-268.858642
 21
345.832035
 31
0.0
  0
LINE
  5
4B9
100
AcDbEntity
  8
0
 62
     0
100
AcDbLine
 10
-271.418492
 20
344.039608
 30
0.0
 11
-273.978342
 21
342.247182
 31
0.0
  0
LINE
  5
4BA
100
AcDbEntity
  8
0
 62
     0
100
AcDbLine
 10
-276.538192
 20
340.454756
 30
0.0
 11
-279.098042
 21
338.662329
 31
0.0
  0
LINE
  5
4BB
100
AcDbEntity
  8
0
 62
     0
100
AcDbLine
 10
-281.657893
 20
336.869903
 30
0.0
 11
-284.217743
 21
335.077477
 31
0.0
  0
LINE
  5
4BC
100
AcDbEntity
  8
0
 62
     0
100
AcDbLine
 10
-286.777593
 20
333.28505
 30
0.0
 11
-289.337443
 21
331.492624
 31
0.0
  0
LINE
  5
4BD
100
AcDbEntity
  8
0
 62
     0
100
AcDbLine
 10
-291.897293
 20
329.700198
 30
0.0
 11
-294.457143
 21
327.907771
 31
0.0
  0
LINE
  5
4BE
100
AcDbEntity
  8
0
 62
     0
100
AcDbLine
 10
-297.016993
 20
326.115345
 30
0.0
 11
-299.576844
 21
324.322918
 31
0.0
  0
LINE
  5
4BF
100
AcDbEntity
  8
0
 62
     0
100
AcDbLine
 10
-302.136694
 20
322.530492
 30
0.0
 11
-304.696544
 21
320.738066
 31
0.0
  0
LINE
  5
4C0
100
AcDbEntity
  8
0
 62
     0
100
AcDbLine
 10
-307.256394
 20
318.945639
 30
0.0
 11
-309.816244
 21
317.153213
 31
0.0
  0
LINE
  5
4C1
100
AcDbEntity
  8
0
 62
     0
100
AcDbLine
 10
-270.651068
 20
348.391885
 30
0.0
 11
-273.210918
 21
346.599459
 31
0.0
  0
LINE
  5
4C2
100
AcDbEntity
  8
0
 62
     0
100
AcDbLine
 10
-275.770769
 20
344.807032
 30
0.0
 11
-278.330619
 21
343.014606
 31
0.0
  0
LINE
  5
4C3
100
AcDbEntity
  8
0
 62
     0
100
AcDbLine
 10
-280.890469
 20
341.22218
 30
0.0
 11
-283.450319
 21
339.429753
 31
0.0
  0
LINE
  5
4C4
100
AcDbEntity
  8
0
 62
     0
100
AcDbLine
 10
-286.010169
 20
337.637327
 30
0.0
 11
-288.570019
 21
335.8449
 31
0.0
  0
LINE
  5
4C5
100
AcDbEntity
  8
0
 62
     0
100
AcDbLine
 10
-291.129869
 20
334.052474
 30
0.0
 11
-293.689719
 21
332.260048
 31
0.0
  0
LINE
  5
4C6
100
AcDbEntity
  8
0
 62
     0
100
AcDbLine
 10
-296.24957
 20
330.467621
 30
0.0
 11
-298.80942
 21
328.675195
 31
0.0
  0
LINE
  5
4C7
100
AcDbEntity
  8
0
 62
     0
100
AcDbLine
 10
-301.36927
 20
326.882769
 30
0.0
 11
-303.92912
 21
325.090342
 31
0.0
  0
LINE
  5
4C8
100
AcDbEntity
  8
0
 62
     0
100
AcDbLine
 10
-306.48897
 20
323.297916
 30
0.0
 11
-309.04882
 21
321.50549
 31
0.0
  0
LINE
  5
4C9
100
AcDbEntity
  8
0
 62
     0
100
AcDbLine
 10
-275.003345
 20
349.159309
 30
0.0
 11
-277.563195
 21
347.366882
 31
0.0
  0
LINE
  5
4CA
100
AcDbEntity
  8
0
 62
     0
100
AcDbLine
 10
-280.123045
 20
345.574456
 30
0.0
 11
-282.682895
 21
343.78203
 31
0.0
  0
LINE
  5
4CB
100
AcDbEntity
  8
0
 62
     0
100
AcDbLine
 10
-285.242745
 20
341.989603
 30
0.0
 11
-287.802595
 21
340.197177
 31
0.0
  0
LINE
  5
4CC
100
AcDbEntity
  8
0
 62
     0
100
AcDbLine
 10
-290.362446
 20
338.404751
 30
0.0
 11
-292.922296
 21
336.612324
 31
0.0
  0
LINE
  5
4CD
100
AcDbEntity
  8
0
 62
     0
100
AcDbLine
 10
-295.482146
 20
334.819898
 30
0.0
 11
-298.041996
 21
333.027471
 31
0.0
  0
LINE
  5
4CE
100
AcDbEntity
  8
0
 62
     0
100
AcDbLine
 10
-300.601846
 20
331.235045
 30
0.0
 11
-303.161696
 21
329.442619
 31
0.0
  0
LINE
  5
4CF
100
AcDbEntity
  8
0
 62
     0
100
AcDbLine
 10
-305.721546
 20
327.650192
 30
0.0
 11
-308.281397
 21
325.857766
 31
0.0
  0
LINE
  5
4D0
100
AcDbEntity
  8
0
 62
     0
100
AcDbLine
 10
-279.355621
 20
349.926733
 30
0.0
 11
-281.915471
 21
348.134306
 31
0.0
  0
LINE
  5
4D1
100
AcDbEntity
  8
0
 62
     0
100
AcDbLine
 10
-284.475322
 20
346.34188
 30
0.0
 11
-287.035172
 21
344.549453
 31
0.0
  0
LINE
  5
4D2
100
AcDbEntity
  8
0
 62
     0
100
AcDbLine
 10
-289.595022
 20
342.757027
 30
0.0
 11
-292.154872
 21
340.964601
 31
0.0
  0
LINE
  5
4D3
100
AcDbEntity
  8
0
 62
     0
100
AcDbLine
 10
-294.714722
 20
339.172174
 30
0.0
 11
-297.274572
 21
337.379748
 31
0.0
  0
LINE
  5
4D4
100
AcDbEntity
  8
0
 62
     0
100
AcDbLine
 10
-299.834422
 20
335.587322
 30
0.0
 11
-302.394272
 21
333.794895
 31
0.0
  0
LINE
  5
4D5
100
AcDbEntity
  8
0
 62
     0
100
AcDbLine
 10
-304.954123
 20
332.002469
 30
0.0
 11
-307.513973
 21
330.210043
 31
0.0
  0
LINE
  5
4D6
100
AcDbEntity
  8
0
 62
     0
100
AcDbLine
 10
-284.699256
 20
350.0
 30
0.0
 11
-286.267748
 21
348.90173
 31
0.0
  0
LINE
  5
4D7
100
AcDbEntity
  8
0
 62
     0
100
AcDbLine
 10
-288.827598
 20
347.109304
 30
0.0
 11
-291.387448
 21
345.316877
 31
0.0
  0
LINE
  5
4D8
100
AcDbEntity
  8
0
 62
     0
100
AcDbLine
 10
-293.947298
 20
343.524451
 30
0.0
 11
-296.507148
 21
341.732024
 31
0.0
  0
LINE
  5
4D9
100
AcDbEntity
  8
0
 62
     0
100
AcDbLine
 10
-299.066999
 20
339.939598
 30
0.0
 11
-301.626849
 21
338.147172
 31
0.0
  0
LINE
  5
4DA
100
AcDbEntity
  8
0
 62
     0
100
AcDbLine
 10
-304.186699
 20
336.354745
 30
0.0
 11
-306.746549
 21
334.562319
 31
0.0
  0
LINE
  5
4DB
100
AcDbEntity
  8
0
 62
     0
100
AcDbLine
 10
-309.306399
 20
332.769893
 30
0.0
 11
-310.0
 21
332.284228
 31
0.0
  0
LINE
  5
4DC
100
AcDbEntity
  8
0
 62
     0
100
AcDbLine
 10
-290.147527
 20
350.0
 30
0.0
 11
-290.620024
 21
349.669154
 31
0.0
  0
LINE
  5
4DD
100
AcDbEntity
  8
0
 62
     0
100
AcDbLine
 10
-293.179875
 20
347.876727
 30
0.0
 11
-295.739725
 21
346.084301
 31
0.0
  0
LINE
  5
4DE
100
AcDbEntity
  8
0
 62
     0
100
AcDbLine
 10
-298.299575
 20
344.291875
 30
0.0
 11
-300.859425
 21
342.499448
 31
0.0
  0
LINE
  5
4DF
100
AcDbEntity
  8
0
 62
     0
100
AcDbLine
 10
-303.419275
 20
340.707022
 30
0.0
 11
-305.979125
 21
338.914596
 31
0.0
  0
LINE
  5
4E0
100
AcDbEntity
  8
0
 62
     0
100
AcDbLine
 10
-308.538975
 20
337.122169
 30
0.0
 11
-310.0
 21
336.099149
 31
0.0
  0
LINE
  5
4E1
100
AcDbEntity
  8
0
 62
     0
100
AcDbLine
 10
-297.532151
 20
348.644151
 30
0.0
 11
-300.092001
 21
346.851725
 31
0.0
  0
LINE
  5
4E2
100
AcDbEntity
  8
0
 62
     0
100
AcDbLine
 10
-302.651851
 20
345.059298
 30
0.0
 11
-305.211701
 21
343.266872
 31
0.0
  0
LINE
  5
4E3
100
AcDbEntity
  8
0
 62
     0
100
AcDbLine
 10
-307.771552
 20
341.474446
 30
0.0
 11
-310.0
 21
339.914069
 31
0.0
  0
LINE
  5
4E4
100
AcDbEntity
  8
0
 62
     0
100
AcDbLine
 10
-301.884428
 20
349.411575
 30
0.0
 11
-304.444278
 21
347.619149
 31
0.0
  0
LINE
  5
4E5
100
AcDbEntity
  8
0
 62
     0
100
AcDbLine
 10
-307.004128
 20
345.826722
 30
0.0
 11
-309.563978
 21
344.034296
 31
0.0
  0
LINE
  5
4E6
100
AcDbEntity
  8
0
 62
     0
100
AcDbLine
 10
-306.492341
 20
350.0
 30
0.0
 11
-308.796554
 21
348.386572
 31
0.0
  0
ENDBLK
  5
4E8
100
AcDbEntity
  8
0
100
AcDbBlockEnd
  0
BLOCK
  5
24F
100
AcDbEntity
  8
0
100
AcDbBlockBegin
  2
*X3
 70
     1
 10
0.0
 20
0.0
 30
0.0
  3
*X3
  1

  0
LINE
  5
28
100
AcDbEntity
  8
0
 62
     0
100
AcDbLine
 10
-174.088516
 20
210.0
 30
0.0
 11
-176.419895
 21
208.367551
 31
0.0
  0
LINE
  5
29
100
AcDbEntity
  8
0
 62
     0
100
AcDbLine
 10
-178.979745
 20
206.575125
 30
0.0
 11
-181.539595
 21
204.782698
 31
0.0
  0
LINE
  5
2A
100
AcDbEntity
  8
0
 62
     0
100
AcDbLine
 10
-184.099445
 20
202.990272
 30
0.0
 11
-186.659295
 21
201.197846
 31
0.0
  0
LINE
  5
2B
100
AcDbEntity
  8
0
 62
     0
100
AcDbLine
 10
-189.219145
 20
199.405419
 30
0.0
 11
-191.778996
 21
197.612993
 31
0.0
  0
LINE
  5
2C
100
AcDbEntity
  8
0
 62
     0
100
AcDbLine
 10
-194.338846
 20
195.820567
 30
0.0
 11
-196.898696
 21
194.02814
 31
0.0
  0
LINE
  5
2D
100
AcDbEntity
  8
0
 62
     0
100
AcDbLine
 10
-199.458546
 20
192.235714
 30
0.0
 11
-202.018396
 21
190.443287
 31
0.0
  0
LINE
  5
2E
100
AcDbEntity
  8
0
 62
     0
100
AcDbLine
 10
-204.578246
 20
188.650861
 30
0.0
 11
-207.138096
 21
186.858435
 31
0.0
  0
LINE
  5
2F
100
AcDbEntity
  8
0
 62
     0
100
AcDbLine
 10
-209.697947
 20
185.066008
 30
0.0
 11
-212.257797
 21
183.273582
 31
0.0
  0
LINE
  5
30
100
AcDbEntity
  8
0
 62
     0
100
AcDbLine
 10
-214.817647
 20
181.481156
 30
0.0
 11
-217.377497
 21
179.688729
 31
0.0
  0
LINE
  5
31
100
AcDbEntity
  8
0
 62
     0
100
AcDbLine
 10
-219.937347
 20
177.896303
 30
0.0
 11
-222.497197
 21
176.103877
 31
0.0
  0
LINE
  5
32
100
AcDbEntity
  8
0
 62
     0
100
AcDbLine
 10
-225.057047
 20
174.31145
 30
0.0
 11
-227.616898
 21
172.519024
 31
0.0
  0
LINE
  5
33
100
AcDbEntity
  8
0
 62
     0
100
AcDbLine
 10
-230.176748
 20
170.726597
 30
0.0
 11
-232.736598
 21
168.934171
 31
0.0
  0
LINE
  5
34
100
AcDbEntity
  8
0
 62
     0
100
AcDbLine
 10
-235.296448
 20
167.141745
 30
0.0
 11
-237.856298
 21
165.349318
 31
0.0
  0
LINE
  5
35
100
AcDbEntity
  8
0
 62
     0
100
AcDbLine
 10
-240.416148
 20
163.556892
 30
0.0
 11
-242.975998
 21
161.764466
 31
0.0
  0
LINE
  5
36
100
AcDbEntity
  8
0
 62
     0
100
AcDbLine
 10
-245.535848
 20
159.972039
 30
0.0
 11
-248.095699
 21
158.179613
 31
0.0
  0
LINE
  5
37
100
AcDbEntity
  8
0
 62
     0
100
AcDbLine
 10
-250.655549
 20
156.387187
 30
0.0
 11
-253.215399
 21
154.59476
 31
0.0
  0
LINE
  5
38
100
AcDbEntity
  8
0
 62
     0
100
AcDbLine
 10
-169.507768
 20
209.392554
 30
0.0
 11
-172.067618
 21
207.600127
 31
0.0
  0
LINE
  5
39
100
AcDbEntity
  8
0
 62
     0
100
AcDbLine
 10
-174.627468
 20
205.807701
 30
0.0
 11
-177.187319
 21
204.015275
 31
0.0
  0
LINE
  5
3A
100
AcDbEntity
  8
0
 62
     0
100
AcDbLine
 10
-179.747169
 20
202.222848
 30
0.0
 11
-182.307019
 21
200.430422
 31
0.0
  0
LINE
  5
3B
100
AcDbEntity
  8
0
 62
     0
100
AcDbLine
 10
-184.866869
 20
198.637996
 30
0.0
 11
-187.426719
 21
196.845569
 31
0.0
  0
LINE
  5
3C
100
AcDbEntity
  8
0
 62
     0
100
AcDbLine
 10
-189.986569
 20
195.053143
 30
0.0
 11
-192.546419
 21
193.260716
 31
0.0
  0
LINE
  5
3D
100
AcDbEntity
  8
0
 62
     0
100
AcDbLine
 10
-195.106269
 20
191.46829
 30
0.0
 11
-197.66612
 21
189.675864
 31
0.0
  0
LINE
  5
3E
100
AcDbEntity
  8
0
 62
     0
100
AcDbLine
 10
-200.22597
 20
187.883437
 30
0.0
 11
-202.78582
 21
186.091011
 31
0.0
  0
LINE
  5
3F
100
AcDbEntity
  8
0
 62
     0
100
AcDbLine
 10
-205.34567
 20
184.298585
 30
0.0
 11
-207.90552
 21
182.506158
 31
0.0
  0
LINE
  5
40
100
AcDbEntity
  8
0
 62
     0
100
AcDbLine
 10
-210.46537
 20
180.713732
 30
0.0
 11
-213.02522
 21
178.921306
 31
0.0
  0
LINE
  5
41
100
AcDbEntity
  8
0
 62
     0
100
AcDbLine
 10
-215.585071
 20
177.128879
 30
0.0
 11
-218.144921
 21
175.336453
 31
0.0
  0
LINE
  5
42
100
AcDbEntity
  8
0
 62
     0
100
AcDbLine
 10
-220.704771
 20
173.544026
 30
0.0
 11
-223.264621
 21
171.7516
 31
0.0
  0
LINE
  5
43
100
AcDbEntity
  8
0
 62
     0
100
AcDbLine
 10
-225.824471
 20
169.959174
 30
0.0
 11
-228.384321
 21
168.166747
 31
0.0
  0
LINE
  5
44
100
AcDbEntity
  8
0
 62
     0
100
AcDbLine
 10
-230.944171
 20
166.374321
 30
0.0
 11
-233.504022
 21
164.581895
 31
0.0
  0
LINE
  5
45
100
AcDbEntity
  8
0
 62
     0
100
AcDbLine
 10
-236.063872
 20
162.789468
 30
0.0
 11
-238.623722
 21
160.997042
 31
0.0
  0
LINE
  5
46
100
AcDbEntity
  8
0
 62
     0
100
AcDbLine
 10
-241.183572
 20
159.204616
 30
0.0
 11
-243.743422
 21
157.412189
 31
0.0
  0
LINE
  5
47
100
AcDbEntity
  8
0
 62
     0
100
AcDbLine
 10
-246.303272
 20
155.619763
 30
0.0
 11
-248.863122
 21
153.827336
 31
0.0
  0
LINE
  5
48
100
AcDbEntity
  8
0
 62
     0
100
AcDbLine
 10
-165.155492
 20
208.62513
 30
0.0
 11
-167.715342
 21
206.832704
 31
0.0
  0
LINE
  5
49
100
AcDbEntity
  8
0
 62
     0
100
AcDbLine
 10
-170.275192
 20
205.040277
 30
0.0
 11
-172.835042
 21
203.247851
 31
0.0
  0
LINE
  5
4A
100
AcDbEntity
  8
0
 62
     0
100
AcDbLine
 10
-175.394892
 20
201.455424
 30
0.0
 11
-177.954742
 21
199.662998
 31
0.0
  0
LINE
  5
4B
100
AcDbEntity
  8
0
 62
     0
100
AcDbLine
 10
-180.514592
 20
197.870572
 30
0.0
 11
-183.074443
 21
196.078145
 31
0.0
  0
LINE
  5
4C
100
AcDbEntity
  8
0
 62
     0
100
AcDbLine
 10
-185.634293
 20
194.285719
 30
0.0
 11
-188.194143
 21
192.493293
 31
0.0
  0
LINE
  5
4D
100
AcDbEntity
  8
0
 62
     0
100
AcDbLine
 10
-190.753993
 20
190.700866
 30
0.0
 11
-193.313843
 21
188.90844
 31
0.0
  0
LINE
  5
4E
100
AcDbEntity
  8
0
 62
     0
100
AcDbLine
 10
-195.873693
 20
187.116014
 30
0.0
 11
-198.433543
 21
185.323587
 31
0.0
  0
LINE
  5
4F
100
AcDbEntity
  8
0
 62
     0
100
AcDbLine
 10
-200.993394
 20
183.531161
 30
0.0
 11
-203.553244
 21
181.738734
 31
0.0
  0
LINE
  5
50
100
AcDbEntity
  8
0
 62
     0
100
AcDbLine
 10
-206.113094
 20
179.946308
 30
0.0
 11
-208.672944
 21
178.153882
 31
0.0
  0
LINE
  5
51
100
AcDbEntity
  8
0
 62
     0
100
AcDbLine
 10
-211.232794
 20
176.361455
 30
0.0
 11
-213.792644
 21
174.569029
 31
0.0
  0
LINE
  5
52
100
AcDbEntity
  8
0
 62
     0
100
AcDbLine
 10
-216.352494
 20
172.776603
 30
0.0
 11
-218.912345
 21
170.984176
 31
0.0
  0
LINE
  5
53
100
AcDbEntity
  8
0
 62
     0
100
AcDbLine
 10
-221.472195
 20
169.19175
 30
0.0
 11
-224.032045
 21
167.399324
 31
0.0
  0
LINE
  5
54
100
AcDbEntity
  8
0
 62
     0
100
AcDbLine
 10
-226.591895
 20
165.606897
 30
0.0
 11
-229.151745
 21
163.814471
 31
0.0
  0
LINE
  5
55
100
AcDbEntity
  8
0
 62
     0
100
AcDbLine
 10
-231.711595
 20
162.022044
 30
0.0
 11
-234.271445
 21
160.229618
 31
0.0
  0
LINE
  5
56
100
AcDbEntity
  8
0
 62
     0
100
AcDbLine
 10
-236.831295
 20
158.437192
 30
0.0
 11
-239.391146
 21
156.644765
 31
0.0
  0
LINE
  5
57
100
AcDbEntity
  8
0
 62
     0
100
AcDbLine
 10
-241.950996
 20
154.852339
 30
0.0
 11
-244.510846
 21
153.059913
 31
0.0
  0
LINE
  5
58
100
AcDbEntity
  8
0
 62
     0
100
AcDbLine
 10
-157.743702
 20
210.0
 30
0.0
 11
-158.243365
 21
209.650133
 31
0.0
  0
LINE
  5
59
100
AcDbEntity
  8
0
 62
     0
100
AcDbLine
 10
-160.803215
 20
207.857706
 30
0.0
 11
-163.363065
 21
206.06528
 31
0.0
  0
LINE
  5
5A
100
AcDbEntity
  8
0
 62
     0
100
AcDbLine
 10
-165.922915
 20
204.272853
 30
0.0
 11
-168.482766
 21
202.480427
 31
0.0
  0
LINE
  5
5B
100
AcDbEntity
  8
0
 62
     0
100
AcDbLine
 10
-171.042616
 20
200.688001
 30
0.0
 11
-173.602466
 21
198.895574
 31
0.0
  0
LINE
  5
5C
100
AcDbEntity
  8
0
 62
     0
100
AcDbLine
 10
-176.162316
 20
197.103148
 30
0.0
 11
-178.722166
 21
195.310722
 31
0.0
  0
LINE
  5
5D
100
AcDbEntity
  8
0
 62
     0
100
AcDbLine
 10
-181.282016
 20
193.518295
 30
0.0
 11
-183.841866
 21
191.725869
 31
0.0
  0
LINE
  5
5E
100
AcDbEntity
  8
0
 62
     0
100
AcDbLine
 10
-186.401716
 20
189.933443
 30
0.0
 11
-188.961567
 21
188.141016
 31
0.0
  0
LINE
  5
5F
100
AcDbEntity
  8
0
 62
     0
100
AcDbLine
 10
-191.521417
 20
186.34859
 30
0.0
 11
-194.081267
 21
184.556163
 31
0.0
  0
LINE
  5
60
100
AcDbEntity
  8
0
 62
     0
100
AcDbLine
 10
-196.641117
 20
182.763737
 30
0.0
 11
-199.200967
 21
180.971311
 31
0.0
  0
LINE
  5
61
100
AcDbEntity
  8
0
 62
     0
100
AcDbLine
 10
-201.760817
 20
179.178884
 30
0.0
 11
-204.320667
 21
177.386458
 31
0.0
  0
LINE
  5
62
100
AcDbEntity
  8
0
 62
     0
100
AcDbLine
 10
-206.880518
 20
175.594032
 30
0.0
 11
-209.440368
 21
173.801605
 31
0.0
  0
LINE
  5
63
100
AcDbEntity
  8
0
 62
     0
100
AcDbLine
 10
-212.000218
 20
172.009179
 30
0.0
 11
-214.560068
 21
170.216753
 31
0.0
  0
LINE
  5
64
100
AcDbEntity
  8
0
 62
     0
100
AcDbLine
 10
-217.119918
 20
168.424326
 30
0.0
 11
-219.679768
 21
166.6319
 31
0.0
  0
LINE
  5
65
100
AcDbEntity
  8
0
 62
     0
100
AcDbLine
 10
-222.239618
 20
164.839473
 30
0.0
 11
-224.799469
 21
163.047047
 31
0.0
  0
LINE
  5
66
100
AcDbEntity
  8
0
 62
     0
100
AcDbLine
 10
-227.359319
 20
161.254621
 30
0.0
 11
-229.919169
 21
159.462194
 31
0.0
  0
LINE
  5
67
100
AcDbEntity
  8
0
 62
     0
100
AcDbLine
 10
-232.479019
 20
157.669768
 30
0.0
 11
-235.038869
 21
155.877342
 31
0.0
  0
LINE
  5
68
100
AcDbEntity
  8
0
 62
     0
100
AcDbLine
 10
-237.598719
 20
154.084915
 30
0.0
 11
-239.148139
 21
153.0
 31
0.0
  0
LINE
  5
69
100
AcDbEntity
  8
0
 62
     0
100
AcDbLine
 10
-152.295431
 20
210.0
 30
0.0
 11
-153.891088
 21
208.882709
 31
0.0
  0
LINE
  5
6A
100
AcDbEntity
  8
0
 62
     0
100
AcDbLine
 10
-156.450939
 20
207.090282
 30
0.0
 11
-159.010789
 21
205.297856
 31
0.0
  0
LINE
  5
6B
100
AcDbEntity
  8
0
 62
     0
100
AcDbLine
 10
-161.570639
 20
203.50543
 30
0.0
 11
-164.130489
 21
201.713003
 31
0.0
  0
LINE
  5
6C
100
AcDbEntity
  8
0
 62
     0
100
AcDbLine
 10
-166.690339
 20
199.920577
 30
0.0
 11
-169.250189
 21
198.128151
 31
0.0
  0
LINE
  5
6D
100
AcDbEntity
  8
0
 62
     0
100
AcDbLine
 10
-171.810039
 20
196.335724
 30
0.0
 11
-174.36989
 21
194.543298
 31
0.0
  0
LINE
  5
6E
100
AcDbEntity
  8
0
 62
     0
100
AcDbLine
 10
-176.92974
 20
192.750871
 30
0.0
 11
-179.48959
 21
190.958445
 31
0.0
  0
LINE
  5
6F
100
AcDbEntity
  8
0
 62
     0
100
AcDbLine
 10
-182.04944
 20
189.166019
 30
0.0
 11
-184.60929
 21
187.373592
 31
0.0
  0
LINE
  5
70
100
AcDbEntity
  8
0
 62
     0
100
AcDbLine
 10
-187.16914
 20
185.581166
 30
0.0
 11
-189.72899
 21
183.78874
 31
0.0
  0
LINE
  5
71
100
AcDbEntity
  8
0
 62
     0
100
AcDbLine
 10
-192.288841
 20
181.996313
 30
0.0
 11
-194.848691
 21
180.203887
 31
0.0
  0
LINE
  5
72
100
AcDbEntity
  8
0
 62
     0
100
AcDbLine
 10
-197.408541
 20
178.411461
 30
0.0
 11
-199.968391
 21
176.619034
 31
0.0
  0
LINE
  5
73
100
AcDbEntity
  8
0
 62
     0
100
AcDbLine
 10
-202.528241
 20
174.826608
 30
0.0
 11
-205.088091
 21
173.034181
 31
0.0
  0
LINE
  5
74
100
AcDbEntity
  8
0
 62
     0
100
AcDbLine
 10
-207.647941
 20
171.241755
 30
0.0
 11
-210.207792
 21
169.449329
 31
0.0
  0
LINE
  5
75
100
AcDbEntity
  8
0
 62
     0
100
AcDbLine
 10
-212.767642
 20
167.656902
 30
0.0
 11
-215.327492
 21
165.864476
 31
0.0
  0
LINE
  5
76
100
AcDbEntity
  8
0
 62
     0
100
AcDbLine
 10
-217.887342
 20
164.07205
 30
0.0
 11
-220.447192
 21
162.279623
 31
0.0
  0
LINE
  5
77
100
AcDbEntity
  8
0
 62
     0
100
AcDbLine
 10
-223.007042
 20
160.487197
 30
0.0
 11
-225.566892
 21
158.694771
 31
0.0
  0
LINE
  5
78
100
AcDbEntity
  8
0
 62
     0
100
AcDbLine
 10
-228.126742
 20
156.902344
 30
0.0
 11
-230.686593
 21
155.109918
 31
0.0
  0
LINE
  5
79
100
AcDbEntity
  8
0
 62
     0
100
AcDbLine
 10
-233.246443
 20
153.317491
 30
0.0
 11
-233.699868
 21
153.0
 31
0.0
  0
LINE
  5
7A
100
AcDbEntity
  8
0
 62
     0
100
AcDbLine
 10
-146.978962
 20
209.907711
 30
0.0
 11
-149.538812
 21
208.115285
 31
0.0
  0
LINE
  5
7B
100
AcDbEntity
  8
0
 62
     0
100
AcDbLine
 10
-152.098662
 20
206.322859
 30
0.0
 11
-154.658512
 21
204.530432
 31
0.0
  0
LINE
  5
7C
100
AcDbEntity
  8
0
 62
     0
100
AcDbLine
 10
-157.218362
 20
202.738006
 30
0.0
 11
-159.778213
 21
200.94558
 31
0.0
  0
LINE
  5
7D
100
AcDbEntity
  8
0
 62
     0
100
AcDbLine
 10
-162.338063
 20
199.153153
 30
0.0
 11
-164.897913
 21
197.360727
 31
0.0
  0
LINE
  5
7E
100
AcDbEntity
  8
0
 62
     0
100
AcDbLine
 10
-167.457763
 20
195.5683
 30
0.0
 11
-170.017613
 21
193.775874
 31
0.0
  0
LINE
  5
7F
100
AcDbEntity
  8
0
 62
     0
100
AcDbLine
 10
-172.577463
 20
191.983448
 30
0.0
 11
-175.137313
 21
190.191021
 31
0.0
  0
LINE
  5
80
100
AcDbEntity
  8
0
 62
     0
100
AcDbLine
 10
-177.697163
 20
188.398595
 30
0.0
 11
-180.257014
 21
186.606169
 31
0.0
  0
LINE
  5
81
100
AcDbEntity
  8
0
 62
     0
100
AcDbLine
 10
-182.816864
 20
184.813742
 30
0.0
 11
-185.376714
 21
183.021316
 31
0.0
  0
LINE
  5
82
100
AcDbEntity
  8
0
 62
     0
100
AcDbLine
 10
-187.936564
 20
181.22889
 30
0.0
 11
-190.496414
 21
179.436463
 31
0.0
  0
LINE
  5
83
100
AcDbEntity
  8
0
 62
     0
100
AcDbLine
 10
-193.056264
 20
177.644037
 30
0.0
 11
-195.616114
 21
175.85161
 31
0.0
  0
LINE
  5
84
100
AcDbEntity
  8
0
 62
     0
100
AcDbLine
 10
-198.175965
 20
174.059184
 30
0.0
 11
-200.735815
 21
172.266758
 31
0.0
  0
LINE
  5
85
100
AcDbEntity
  8
0
 62
     0
100
AcDbLine
 10
-203.295665
 20
170.474331
 30
0.0
 11
-205.855515
 21
168.681905
 31
0.0
  0
LINE
  5
86
100
AcDbEntity
  8
0
 62
     0
100
AcDbLine
 10
-208.415365
 20
166.889479
 30
0.0
 11
-210.975215
 21
165.097052
 31
0.0
  0
LINE
  5
87
100
AcDbEntity
  8
0
 62
     0
100
AcDbLine
 10
-213.535065
 20
163.304626
 30
0.0
 11
-216.094916
 21
161.5122
 31
0.0
  0
LINE
  5
88
100
AcDbEntity
  8
0
 62
     0
100
AcDbLine
 10
-218.654766
 20
159.719773
 30
0.0
 11
-221.214616
 21
157.927347
 31
0.0
  0
LINE
  5
89
100
AcDbEntity
  8
0
 62
     0
100
AcDbLine
 10
-223.774466
 20
156.13492
 30
0.0
 11
-226.334316
 21
154.342494
 31
0.0
  0
LINE
  5
8A
100
AcDbEntity
  8
0
 62
     0
100
AcDbLine
 10
-142.626685
 20
209.140288
 30
0.0
 11
-145.186535
 21
207.347861
 31
0.0
  0
LINE
  5
8B
100
AcDbEntity
  8
0
 62
     0
100
AcDbLine
 10
-147.746386
 20
205.555435
 30
0.0
 11
-150.306236
 21
203.763008
 31
0.0
  0
LINE
  5
8C
100
AcDbEntity
  8
0
 62
     0
100
AcDbLine
 10
-152.866086
 20
201.970582
 30
0.0
 11
-155.425936
 21
200.178156
 31
0.0
  0
LINE
  5
8D
100
AcDbEntity
  8
0
 62
     0
100
AcDbLine
 10
-157.985786
 20
198.385729
 30
0.0
 11
-160.545636
 21
196.593303
 31
0.0
  0
LINE
  5
8E
100
AcDbEntity
  8
0
 62
     0
100
AcDbLine
 10
-163.105486
 20
194.800877
 30
0.0
 11
-165.665337
 21
193.00845
 31
0.0
  0
LINE
  5
8F
100
AcDbEntity
  8
0
 62
     0
100
AcDbLine
 10
-168.225187
 20
191.216024
 30
0.0
 11
-170.785037
 21
189.423598
 31
0.0
  0
LINE
  5
90
100
AcDbEntity
  8
0
 62
     0
100
AcDbLine
 10
-173.344887
 20
187.631171
 30
0.0
 11
-175.904737
 21
185.838745
 31
0.0
  0
LINE
  5
91
100
AcDbEntity
  8
0
 62
     0
100
AcDbLine
 10
-178.464587
 20
184.046318
 30
0.0
 11
-181.024437
 21
182.253892
 31
0.0
  0
LINE
  5
92
100
AcDbEntity
  8
0
 62
     0
100
AcDbLine
 10
-183.584288
 20
180.461466
 30
0.0
 11
-186.144138
 21
178.669039
 31
0.0
  0
LINE
  5
93
100
AcDbEntity
  8
0
 62
     0
100
AcDbLine
 10
-188.703988
 20
176.876613
 30
0.0
 11
-191.263838
 21
175.084187
 31
0.0
  0
LINE
  5
94
100
AcDbEntity
  8
0
 62
     0
100
AcDbLine
 10
-193.823688
 20
173.29176
 30
0.0
 11
-196.383538
 21
171.499334
 31
0.0
  0
LINE
  5
95
100
AcDbEntity
  8
0
 62
     0
100
AcDbLine
 10
-198.943388
 20
169.706908
 30
0.0
 11
-201.503238
 21
167.914481
 31
0.0
  0
LINE
  5
96
100
AcDbEntity
  8
0
 62
     0
100
AcDbLine
 10
-204.063089
 20
166.122055
 30
0.0
 11
-206.622939
 21
164.329628
 31
0.0
  0
LINE
  5
97
100
AcDbEntity
  8
0
 62
     0
100
AcDbLine
 10
-209.182789
 20
162.537202
 30
0.0
 11
-211.742639
 21
160.744776
 31
0.0
  0
LINE
  5
98
100
AcDbEntity
  8
0
 62
     0
100
AcDbLine
 10
-214.302489
 20
158.952349
 30
0.0
 11
-216.862339
 21
157.159923
 31
0.0
  0
LINE
  5
99
100
AcDbEntity
  8
0
 62
     0
100
AcDbLine
 10
-219.422189
 20
155.367497
 30
0.0
 11
-221.98204
 21
153.57507
 31
0.0
  0
LINE
  5
9A
100
AcDbEntity
  8
0
 62
     0
100
AcDbLine
 10
-138.274409
 20
208.372864
 30
0.0
 11
-140.834259
 21
206.580437
 31
0.0
  0
LINE
  5
9B
100
AcDbEntity
  8
0
 62
     0
100
AcDbLine
 10
-143.394109
 20
204.788011
 30
0.0
 11
-145.953959
 21
202.995585
 31
0.0
  0
LINE
  5
9C
100
AcDbEntity
  8
0
 62
     0
100
AcDbLine
 10
-148.513809
 20
201.203158
 30
0.0
 11
-151.07366
 21
199.410732
 31
0.0
  0
LINE
  5
9D
100
AcDbEntity
  8
0
 62
     0
100
AcDbLine
 10
-153.63351
 20
197.618306
 30
0.0
 11
-156.19336
 21
195.825879
 31
0.0
  0
LINE
  5
9E
100
AcDbEntity
  8
0
 62
     0
100
AcDbLine
 10
-158.75321
 20
194.033453
 30
0.0
 11
-161.31306
 21
192.241027
 31
0.0
  0
LINE
  5
9F
100
AcDbEntity
  8
0
 62
     0
100
AcDbLine
 10
-163.87291
 20
190.4486
 30
0.0
 11
-166.43276
 21
188.656174
 31
0.0
  0
LINE
  5
A0
100
AcDbEntity
  8
0
 62
     0
100
AcDbLine
 10
-168.99261
 20
186.863747
 30
0.0
 11
-171.552461
 21
185.071321
 31
0.0
  0
LINE
  5
A1
100
AcDbEntity
  8
0
 62
     0
100
AcDbLine
 10
-174.112311
 20
183.278895
 30
0.0
 11
-176.672161
 21
181.486468
 31
0.0
  0
LINE
  5
A2
100
AcDbEntity
  8
0
 62
     0
100
AcDbLine
 10
-179.232011
 20
179.694042
 30
0.0
 11
-181.791861
 21
177.901616
 31
0.0
  0
LINE
  5
A3
100
AcDbEntity
  8
0
 62
     0
100
AcDbLine
 10
-184.351711
 20
176.109189
 30
0.0
 11
-186.911561
 21
174.316763
 31
0.0
  0
LINE
  5
A4
100
AcDbEntity
  8
0
 62
     0
100
AcDbLine
 10
-189.471412
 20
172.524337
 30
0.0
 11
-192.031262
 21
170.73191
 31
0.0
  0
LINE
  5
A5
100
AcDbEntity
  8
0
 62
     0
100
AcDbLine
 10
-194.591112
 20
168.939484
 30
0.0
 11
-197.150962
 21
167.147057
 31
0.0
  0
LINE
  5
A6
100
AcDbEntity
  8
0
 62
     0
100
AcDbLine
 10
-199.710812
 20
165.354631
 30
0.0
 11
-202.270662
 21
163.562205
 31
0.0
  0
LINE
  5
A7
100
AcDbEntity
  8
0
 62
     0
100
AcDbLine
 10
-204.830512
 20
161.769778
 30
0.0
 11
-207.390363
 21
159.977352
 31
0.0
  0
LINE
  5
A8
100
AcDbEntity
  8
0
 62
     0
100
AcDbLine
 10
-209.950213
 20
158.184926
 30
0.0
 11
-212.510063
 21
156.392499
 31
0.0
  0
LINE
  5
A9
100
AcDbEntity
  8
0
 62
     0
100
AcDbLine
 10
-215.069913
 20
154.600073
 30
0.0
 11
-217.355054
 21
153.0
 31
0.0
  0
LINE
  5
AA
100
AcDbEntity
  8
0
 62
     0
100
AcDbLine
 10
-130.502346
 20
210.0
 30
0.0
 11
-131.362282
 21
209.397866
 31
0.0
  0
LINE
  5
AB
100
AcDbEntity
  8
0
 62
     0
100
AcDbLine
 10
-133.922132
 20
207.60544
 30
0.0
 11
-136.481982
 21
205.813014
 31
0.0
  0
LINE
  5
AC
100
AcDbEntity
  8
0
 62
     0
100
AcDbLine
 10
-139.041833
 20
204.020587
 30
0.0
 11
-141.601683
 21
202.228161
 31
0.0
  0
LINE
  5
AD
100
AcDbEntity
  8
0
 62
     0
100
AcDbLine
 10
-144.161533
 20
200.435735
 30
0.0
 11
-146.721383
 21
198.643308
 31
0.0
  0
LINE
  5
AE
100
AcDbEntity
  8
0
 62
     0
100
AcDbLine
 10
-149.281233
 20
196.850882
 30
0.0
 11
-151.841083
 21
195.058455
 31
0.0
  0
LINE
  5
AF
100
AcDbEntity
  8
0
 62
     0
100
AcDbLine
 10
-154.400933
 20
193.266029
 30
0.0
 11
-156.960784
 21
191.473603
 31
0.0
  0
LINE
  5
B0
100
AcDbEntity
  8
0
 62
     0
100
AcDbLine
 10
-159.520634
 20
189.681176
 30
0.0
 11
-162.080484
 21
187.88875
 31
0.0
  0
LINE
  5
B1
100
AcDbEntity
  8
0
 62
     0
100
AcDbLine
 10
-164.640334
 20
186.096324
 30
0.0
 11
-167.200184
 21
184.303897
 31
0.0
  0
LINE
  5
B2
100
AcDbEntity
  8
0
 62
     0
100
AcDbLine
 10
-169.760034
 20
182.511471
 30
0.0
 11
-172.319884
 21
180.719045
 31
0.0
  0
LINE
  5
B3
100
AcDbEntity
  8
0
 62
     0
100
AcDbLine
 10
-174.879735
 20
178.926618
 30
0.0
 11
-177.439585
 21
177.134192
 31
0.0
  0
LINE
  5
B4
100
AcDbEntity
  8
0
 62
     0
100
AcDbLine
 10
-179.999435
 20
175.341765
 30
0.0
 11
-182.559285
 21
173.549339
 31
0.0
  0
LINE
  5
B5
100
AcDbEntity
  8
0
 62
     0
100
AcDbLine
 10
-185.119135
 20
171.756913
 30
0.0
 11
-187.678985
 21
169.964486
 31
0.0
  0
LINE
  5
B6
100
AcDbEntity
  8
0
 62
     0
100
AcDbLine
 10
-190.238835
 20
168.17206
 30
0.0
 11
-192.798685
 21
166.379634
 31
0.0
  0
LINE
  5
B7
100
AcDbEntity
  8
0
 62
     0
100
AcDbLine
 10
-195.358536
 20
164.587207
 30
0.0
 11
-197.918386
 21
162.794781
 31
0.0
  0
LINE
  5
B8
100
AcDbEntity
  8
0
 62
     0
100
AcDbLine
 10
-200.478236
 20
161.002355
 30
0.0
 11
-203.038086
 21
159.209928
 31
0.0
  0
LINE
  5
B9
100
AcDbEntity
  8
0
 62
     0
100
AcDbLine
 10
-205.597936
 20
157.417502
 30
0.0
 11
-208.157786
 21
155.625075
 31
0.0
  0
LINE
  5
BA
100
AcDbEntity
  8
0
 62
     0
100
AcDbLine
 10
-210.717636
 20
153.832649
 30
0.0
 11
-211.906783
 21
153.0
 31
0.0
  0
LINE
  5
BB
100
AcDbEntity
  8
0
 62
     0
100
AcDbLine
 10
-130.0
 20
206.536826
 30
0.0
 11
-132.129706
 21
205.04559
 31
0.0
  0
LINE
  5
BC
100
AcDbEntity
  8
0
 62
     0
100
AcDbLine
 10
-134.689556
 20
203.253164
 30
0.0
 11
-137.249406
 21
201.460737
 31
0.0
  0
LINE
  5
BD
100
AcDbEntity
  8
0
 62
     0
100
AcDbLine
 10
-139.809256
 20
199.668311
 30
0.0
 11
-142.369106
 21
197.875884
 31
0.0
  0
LINE
  5
BE
100
AcDbEntity
  8
0
 62
     0
100
AcDbLine
 10
-144.928957
 20
196.083458
 30
0.0
 11
-147.488807
 21
194.291032
 31
0.0
  0
LINE
  5
BF
100
AcDbEntity
  8
0
 62
     0
100
AcDbLine
 10
-150.048657
 20
192.498605
 30
0.0
 11
-152.608507
 21
190.706179
 31
0.0
  0
LINE
  5
C0
100
AcDbEntity
  8
0
 62
     0
100
AcDbLine
 10
-155.168357
 20
188.913753
 30
0.0
 11
-157.728207
 21
187.121326
 31
0.0
  0
LINE
  5
C1
100
AcDbEntity
  8
0
 62
     0
100
AcDbLine
 10
-160.288057
 20
185.3289
 30
0.0
 11
-162.847908
 21
183.536474
 31
0.0
  0
LINE
  5
C2
100
AcDbEntity
  8
0
 62
     0
100
AcDbLine
 10
-165.407758
 20
181.744047
 30
0.0
 11
-167.967608
 21
179.951621
 31
0.0
  0
LINE
  5
C3
100
AcDbEntity
  8
0
 62
     0
100
AcDbLine
 10
-170.527458
 20
178.159194
 30
0.0
 11
-173.087308
 21
176.366768
 31
0.0
  0
LINE
  5
C4
100
AcDbEntity
  8
0
 62
     0
100
AcDbLine
 10
-175.647158
 20
174.574342
 30
0.0
 11
-178.207008
 21
172.781915
 31
0.0
  0
LINE
  5
C5
100
AcDbEntity
  8
0
 62
     0
100
AcDbLine
 10
-180.766859
 20
170.989489
 30
0.0
 11
-183.326709
 21
169.197063
 31
0.0
  0
LINE
  5
C6
100
AcDbEntity
  8
0
 62
     0
100
AcDbLine
 10
-185.886559
 20
167.404636
 30
0.0
 11
-188.446409
 21
165.61221
 31
0.0
  0
LINE
  5
C7
100
AcDbEntity
  8
0
 62
     0
100
AcDbLine
 10
-191.006259
 20
163.819784
 30
0.0
 11
-193.566109
 21
162.027357
 31
0.0
  0
LINE
  5
C8
100
AcDbEntity
  8
0
 62
     0
100
AcDbLine
 10
-196.125959
 20
160.234931
 30
0.0
 11
-198.68581
 21
158.442504
 31
0.0
  0
LINE
  5
C9
100
AcDbEntity
  8
0
 62
     0
100
AcDbLine
 10
-201.24566
 20
156.650078
 30
0.0
 11
-203.80551
 21
154.857652
 31
0.0
  0
LINE
  5
CA
100
AcDbEntity
  8
0
 62
     0
100
AcDbLine
 10
-206.36536
 20
153.065225
 30
0.0
 11
-206.458511
 21
153.0
 31
0.0
  0
LINE
  5
CB
100
AcDbEntity
  8
0
 62
     0
100
AcDbLine
 10
-130.33728
 20
202.48574
 30
0.0
 11
-132.89713
 21
200.693313
 31
0.0
  0
LINE
  5
CC
100
AcDbEntity
  8
0
 62
     0
100
AcDbLine
 10
-135.45698
 20
198.900887
 30
0.0
 11
-138.01683
 21
197.108461
 31
0.0
  0
LINE
  5
CD
100
AcDbEntity
  8
0
 62
     0
100
AcDbLine
 10
-140.57668
 20
195.316034
 30
0.0
 11
-143.13653
 21
193.523608
 31
0.0
  0
LINE
  5
CE
100
AcDbEntity
  8
0
 62
     0
100
AcDbLine
 10
-145.69638
 20
191.731182
 30
0.0
 11
-148.256231
 21
189.938755
 31
0.0
  0
LINE
  5
CF
100
AcDbEntity
  8
0
 62
     0
100
AcDbLine
 10
-150.816081
 20
188.146329
 30
0.0
 11
-153.375931
 21
186.353902
 31
0.0
  0
LINE
  5
D0
100
AcDbEntity
  8
0
 62
     0
100
AcDbLine
 10
-155.935781
 20
184.561476
 30
0.0
 11
-158.495631
 21
182.76905
 31
0.0
  0
LINE
  5
D1
100
AcDbEntity
  8
0
 62
     0
100
AcDbLine
 10
-161.055481
 20
180.976623
 30
0.0
 11
-163.615331
 21
179.184197
 31
0.0
  0
LINE
  5
D2
100
AcDbEntity
  8
0
 62
     0
100
AcDbLine
 10
-166.175182
 20
177.391771
 30
0.0
 11
-168.735032
 21
175.599344
 31
0.0
  0
LINE
  5
D3
100
AcDbEntity
  8
0
 62
     0
100
AcDbLine
 10
-171.294882
 20
173.806918
 30
0.0
 11
-173.854732
 21
172.014492
 31
0.0
  0
LINE
  5
D4
100
AcDbEntity
  8
0
 62
     0
100
AcDbLine
 10
-176.414582
 20
170.222065
 30
0.0
 11
-178.974432
 21
168.429639
 31
0.0
  0
LINE
  5
D5
100
AcDbEntity
  8
0
 62
     0
100
AcDbLine
 10
-181.534282
 20
166.637212
 30
0.0
 11
-184.094132
 21
164.844786
 31
0.0
  0
LINE
  5
D6
100
AcDbEntity
  8
0
 62
     0
100
AcDbLine
 10
-186.653983
 20
163.05236
 30
0.0
 11
-189.213833
 21
161.259933
 31
0.0
  0
LINE
  5
D7
100
AcDbEntity
  8
0
 62
     0
100
AcDbLine
 10
-191.773683
 20
159.467507
 30
0.0
 11
-194.333533
 21
157.675081
 31
0.0
  0
LINE
  5
D8
100
AcDbEntity
  8
0
 62
     0
100
AcDbLine
 10
-196.893383
 20
155.882654
 30
0.0
 11
-199.453233
 21
154.090228
 31
0.0
  0
LINE
  5
D9
100
AcDbEntity
  8
0
 62
     0
100
AcDbLine
 10
-131.104703
 20
198.133463
 30
0.0
 11
-133.664553
 21
196.341037
 31
0.0
  0
LINE
  5
DA
100
AcDbEntity
  8
0
 62
     0
100
AcDbLine
 10
-136.224404
 20
194.548611
 30
0.0
 11
-138.784254
 21
192.756184
 31
0.0
  0
LINE
  5
DB
100
AcDbEntity
  8
0
 62
     0
100
AcDbLine
 10
-141.344104
 20
190.963758
 30
0.0
 11
-143.903954
 21
189.171331
 31
0.0
  0
LINE
  5
DC
100
AcDbEntity
  8
0
 62
     0
100
AcDbLine
 10
-146.463804
 20
187.378905
 30
0.0
 11
-149.023654
 21
185.586479
 31
0.0
  0
LINE
  5
DD
100
AcDbEntity
  8
0
 62
     0
100
AcDbLine
 10
-151.583504
 20
183.794052
 30
0.0
 11
-154.143355
 21
182.001626
 31
0.0
  0
LINE
  5
DE
100
AcDbEntity
  8
0
 62
     0
100
AcDbLine
 10
-156.703205
 20
180.2092
 30
0.0
 11
-159.263055
 21
178.416773
 31
0.0
  0
LINE
  5
DF
100
AcDbEntity
  8
0
 62
     0
100
AcDbLine
 10
-161.822905
 20
176.624347
 30
0.0
 11
-164.382755
 21
174.831921
 31
0.0
  0
LINE
  5
E0
100
AcDbEntity
  8
0
 62
     0
100
AcDbLine
 10
-166.942605
 20
173.039494
 30
0.0
 11
-169.502455
 21
171.247068
 31
0.0
  0
LINE
  5
E1
100
AcDbEntity
  8
0
 62
     0
100
AcDbLine
 10
-172.062306
 20
169.454641
 30
0.0
 11
-174.622156
 21
167.662215
 31
0.0
  0
LINE
  5
E2
100
AcDbEntity
  8
0
 62
     0
100
AcDbLine
 10
-177.182006
 20
165.869789
 30
0.0
 11
-179.741856
 21
164.077362
 31
0.0
  0
LINE
  5
E3
100
AcDbEntity
  8
0
 62
     0
100
AcDbLine
 10
-182.301706
 20
162.284936
 30
0.0
 11
-184.861556
 21
160.49251
 31
0.0
  0
LINE
  5
E4
100
AcDbEntity
  8
0
 62
     0
100
AcDbLine
 10
-187.421406
 20
158.700083
 30
0.0
 11
-189.981257
 21
156.907657
 31
0.0
  0
LINE
  5
E5
100
AcDbEntity
  8
0
 62
     0
100
AcDbLine
 10
-192.541107
 20
155.115231
 30
0.0
 11
-195.100957
 21
153.322804
 31
0.0
  0
LINE
  5
E6
100
AcDbEntity
  8
0
 62
     0
100
AcDbLine
 10
-131.872127
 20
193.781187
 30
0.0
 11
-134.431977
 21
191.98876
 31
0.0
  0
LINE
  5
E7
100
AcDbEntity
  8
0
 62
     0
100
AcDbLine
 10
-136.991827
 20
190.196334
 30
0.0
 11
-139.551678
 21
188.403908
 31
0.0
  0
LINE
  5
E8
100
AcDbEntity
  8
0
 62
     0
100
AcDbLine
 10
-142.111528
 20
186.611481
 30
0.0
 11
-144.671378
 21
184.819055
 31
0.0
  0
LINE
  5
E9
100
AcDbEntity
  8
0
 62
     0
100
AcDbLine
 10
-147.231228
 20
183.026629
 30
0.0
 11
-149.791078
 21
181.234202
 31
0.0
  0
LINE
  5
EA
100
AcDbEntity
  8
0
 62
     0
100
AcDbLine
 10
-152.350928
 20
179.441776
 30
0.0
 11
-154.910778
 21
177.649349
 31
0.0
  0
LINE
  5
EB
100
AcDbEntity
  8
0
 62
     0
100
AcDbLine
 10
-157.470629
 20
175.856923
 30
0.0
 11
-160.030479
 21
174.064497
 31
0.0
  0
LINE
  5
EC
100
AcDbEntity
  8
0
 62
     0
100
AcDbLine
 10
-162.590329
 20
172.27207
 30
0.0
 11
-165.150179
 21
170.479644
 31
0.0
  0
LINE
  5
ED
100
AcDbEntity
  8
0
 62
     0
100
AcDbLine
 10
-167.710029
 20
168.687218
 30
0.0
 11
-170.269879
 21
166.894791
 31
0.0
  0
LINE
  5
EE
100
AcDbEntity
  8
0
 62
     0
100
AcDbLine
 10
-172.829729
 20
165.102365
 30
0.0
 11
-175.389579
 21
163.309939
 31
0.0
  0
LINE
  5
EF
100
AcDbEntity
  8
0
 62
     0
100
AcDbLine
 10
-177.94943
 20
161.517512
 30
0.0
 11
-180.50928
 21
159.725086
 31
0.0
  0
LINE
  5
F0
100
AcDbEntity
  8
0
 62
     0
100
AcDbLine
 10
-183.06913
 20
157.932659
 30
0.0
 11
-185.62898
 21
156.140233
 31
0.0
  0
LINE
  5
F1
100
AcDbEntity
  8
0
 62
     0
100
AcDbLine
 10
-188.18883
 20
154.347807
 30
0.0
 11
-190.113698
 21
153.0
 31
0.0
  0
LINE
  5
F2
100
AcDbEntity
  8
0
 62
     0
100
AcDbLine
 10
-130.0
 20
191.277144
 30
0.0
 11
-130.079701
 21
191.221337
 31
0.0
  0
LINE
  5
F3
100
AcDbEntity
  8
0
 62
     0
100
AcDbLine
 10
-132.639551
 20
189.42891
 30
0.0
 11
-135.199401
 21
187.636484
 31
0.0
  0
LINE
  5
F4
100
AcDbEntity
  8
0
 62
     0
100
AcDbLine
 10
-137.759251
 20
185.844058
 30
0.0
 11
-140.319101
 21
184.051631
 31
0.0
  0
LINE
  5
F5
100
AcDbEntity
  8
0
 62
     0
100
AcDbLine
 10
-142.878951
 20
182.259205
 30
0.0
 11
-145.438802
 21
180.466778
 31
0.0
  0
LINE
  5
F6
100
AcDbEntity
  8
0
 62
     0
100
AcDbLine
 10
-147.998652
 20
178.674352
 30
0.0
 11
-150.558502
 21
176.881926
 31
0.0
  0
LINE
  5
F7
100
AcDbEntity
  8
0
 62
     0
100
AcDbLine
 10
-153.118352
 20
175.089499
 30
0.0
 11
-155.678202
 21
173.297073
 31
0.0
  0
LINE
  5
F8
100
AcDbEntity
  8
0
 62
     0
100
AcDbLine
 10
-158.238052
 20
171.504647
 30
0.0
 11
-160.797902
 21
169.71222
 31
0.0
  0
LINE
  5
F9
100
AcDbEntity
  8
0
 62
     0
100
AcDbLine
 10
-163.357753
 20
167.919794
 30
0.0
 11
-165.917603
 21
166.127368
 31
0.0
  0
LINE
  5
FA
100
AcDbEntity
  8
0
 62
     0
100
AcDbLine
 10
-168.477453
 20
164.334941
 30
0.0
 11
-171.037303
 21
162.542515
 31
0.0
  0
LINE
  5
FB
100
AcDbEntity
  8
0
 62
     0
100
AcDbLine
 10
-173.597153
 20
160.750088
 30
0.0
 11
-176.157003
 21
158.957662
 31
0.0
  0
LINE
  5
FC
100
AcDbEntity
  8
0
 62
     0
100
AcDbLine
 10
-178.716853
 20
157.165236
 30
0.0
 11
-181.276704
 21
155.372809
 31
0.0
  0
LINE
  5
FD
100
AcDbEntity
  8
0
 62
     0
100
AcDbLine
 10
-183.836554
 20
153.580383
 30
0.0
 11
-184.665426
 21
153.0
 31
0.0
  0
LINE
  5
FE
100
AcDbEntity
  8
0
 62
     0
100
AcDbLine
 10
-130.0
 20
187.462223
 30
0.0
 11
-130.847125
 21
186.86906
 31
0.0
  0
LINE
  5
FF
100
AcDbEntity
  8
0
 62
     0
100
AcDbLine
 10
-133.406975
 20
185.076634
 30
0.0
 11
-135.966825
 21
183.284207
 31
0.0
  0
LINE
  5
100
100
AcDbEntity
  8
0
 62
     0
100
AcDbLine
 10
-138.526675
 20
181.491781
 30
0.0
 11
-141.086525
 21
179.699355
 31
0.0
  0
LINE
  5
101
100
AcDbEntity
  8
0
 62
     0
100
AcDbLine
 10
-143.646375
 20
177.906928
 30
0.0
 11
-146.206225
 21
176.114502
 31
0.0
  0
LINE
  5
102
100
AcDbEntity
  8
0
 62
     0
100
AcDbLine
 10
-148.766076
 20
174.322076
 30
0.0
 11
-151.325926
 21
172.529649
 31
0.0
  0
LINE
  5
103
100
AcDbEntity
  8
0
 62
     0
100
AcDbLine
 10
-153.885776
 20
170.737223
 30
0.0
 11
-156.445626
 21
168.944796
 31
0.0
  0
LINE
  5
104
100
AcDbEntity
  8
0
 62
     0
100
AcDbLine
 10
-159.005476
 20
167.15237
 30
0.0
 11
-161.565326
 21
165.359944
 31
0.0
  0
LINE
  5
105
100
AcDbEntity
  8
0
 62
     0
100
AcDbLine
 10
-164.125176
 20
163.567517
 30
0.0
 11
-166.685026
 21
161.775091
 31
0.0
  0
LINE
  5
106
100
AcDbEntity
  8
0
 62
     0
100
AcDbLine
 10
-169.244877
 20
159.982665
 30
0.0
 11
-171.804727
 21
158.190238
 31
0.0
  0
LINE
  5
107
100
AcDbEntity
  8
0
 62
     0
100
AcDbLine
 10
-174.364577
 20
156.397812
 30
0.0
 11
-176.924427
 21
154.605386
 31
0.0
  0
LINE
  5
108
100
AcDbEntity
  8
0
 62
     0
100
AcDbLine
 10
-130.0
 20
183.647303
 30
0.0
 11
-131.614548
 21
182.516784
 31
0.0
  0
LINE
  5
109
100
AcDbEntity
  8
0
 62
     0
100
AcDbLine
 10
-134.174398
 20
180.724357
 30
0.0
 11
-136.734249
 21
178.931931
 31
0.0
  0
LINE
  5
10A
100
AcDbEntity
  8
0
 62
     0
100
AcDbLine
 10
-139.294099
 20
177.139505
 30
0.0
 11
-141.853949
 21
175.347078
 31
0.0
  0
LINE
  5
10B
100
AcDbEntity
  8
0
 62
     0
100
AcDbLine
 10
-144.413799
 20
173.554652
 30
0.0
 11
-146.973649
 21
171.762225
 31
0.0
  0
LINE
  5
10C
100
AcDbEntity
  8
0
 62
     0
100
AcDbLine
 10
-149.533499
 20
169.969799
 30
0.0
 11
-152.093349
 21
168.177373
 31
0.0
  0
LINE
  5
10D
100
AcDbEntity
  8
0
 62
     0
100
AcDbLine
 10
-154.6532
 20
166.384946
 30
0.0
 11
-157.21305
 21
164.59252
 31
0.0
  0
LINE
  5
10E
100
AcDbEntity
  8
0
 62
     0
100
AcDbLine
 10
-159.7729
 20
162.800094
 30
0.0
 11
-162.33275
 21
161.007667
 31
0.0
  0
LINE
  5
10F
100
AcDbEntity
  8
0
 62
     0
100
AcDbLine
 10
-164.8926
 20
159.215241
 30
0.0
 11
-167.45245
 21
157.422815
 31
0.0
  0
LINE
  5
110
100
AcDbEntity
  8
0
 62
     0
100
AcDbLine
 10
-170.0123
 20
155.630388
 30
0.0
 11
-172.572151
 21
153.837962
 31
0.0
  0
LINE
  5
111
100
AcDbEntity
  8
0
 62
     0
100
AcDbLine
 10
-130.0
 20
179.832382
 30
0.0
 11
-132.381972
 21
178.164507
 31
0.0
  0
LINE
  5
112
100
AcDbEntity
  8
0
 62
     0
100
AcDbLine
 10
-134.941822
 20
176.372081
 30
0.0
 11
-137.501672
 21
174.579654
 31
0.0
  0
LINE
  5
113
100
AcDbEntity
  8
0
 62
     0
100
AcDbLine
 10
-140.061523
 20
172.787228
 30
0.0
 11
-142.621373
 21
170.994802
 31
0.0
  0
LINE
  5
114
100
AcDbEntity
  8
0
 62
     0
100
AcDbLine
 10
-145.181223
 20
169.202375
 30
0.0
 11
-147.741073
 21
167.409949
 31
0.0
  0
LINE
  5
115
100
AcDbEntity
  8
0
 62
     0
100
AcDbLine
 10
-150.300923
 20
165.617523
 30
0.0
 11
-152.860773
 21
163.825096
 31
0.0
  0
LINE
  5
116
100
AcDbEntity
  8
0
 62
     0
100
AcDbLine
 10
-155.420623
 20
162.03267
 30
0.0
 11
-157.980473
 21
160.240243
 31
0.0
  0
LINE
  5
117
100
AcDbEntity
  8
0
 62
     0
100
AcDbLine
 10
-160.540324
 20
158.447817
 30
0.0
 11
-163.100174
 21
156.655391
 31
0.0
  0
LINE
  5
118
100
AcDbEntity
  8
0
 62
     0
100
AcDbLine
 10
-165.660024
 20
154.862964
 30
0.0
 11
-168.219874
 21
153.070538
 31
0.0
  0
LINE
  5
119
100
AcDbEntity
  8
0
 62
     0
100
AcDbLine
 10
-130.589546
 20
175.604657
 30
0.0
 11
-133.149396
 21
173.812231
 31
0.0
  0
LINE
  5
11A
100
AcDbEntity
  8
0
 62
     0
100
AcDbLine
 10
-135.709246
 20
172.019804
 30
0.0
 11
-138.269096
 21
170.227378
 31
0.0
  0
LINE
  5
11B
100
AcDbEntity
  8
0
 62
     0
100
AcDbLine
 10
-140.828946
 20
168.434952
 30
0.0
 11
-143.388796
 21
166.642525
 31
0.0
  0
LINE
  5
11C
100
AcDbEntity
  8
0
 62
     0
100
AcDbLine
 10
-145.948647
 20
164.850099
 30
0.0
 11
-148.508497
 21
163.057672
 31
0.0
  0
LINE
  5
11D
100
AcDbEntity
  8
0
 62
     0
100
AcDbLine
 10
-151.068347
 20
161.265246
 30
0.0
 11
-153.628197
 21
159.47282
 31
0.0
  0
LINE
  5
11E
100
AcDbEntity
  8
0
 62
     0
100
AcDbLine
 10
-156.188047
 20
157.680393
 30
0.0
 11
-158.747897
 21
155.887967
 31
0.0
  0
LINE
  5
11F
100
AcDbEntity
  8
0
 62
     0
100
AcDbLine
 10
-161.307747
 20
154.095541
 30
0.0
 11
-162.872342
 21
153.0
 31
0.0
  0
LINE
  5
120
100
AcDbEntity
  8
0
 62
     0
100
AcDbLine
 10
-131.35697
 20
171.25238
 30
0.0
 11
-133.91682
 21
169.459954
 31
0.0
  0
LINE
  5
121
100
AcDbEntity
  8
0
 62
     0
100
AcDbLine
 10
-136.47667
 20
167.667528
 30
0.0
 11
-139.03652
 21
165.875101
 31
0.0
  0
LINE
  5
122
100
AcDbEntity
  8
0
 62
     0
100
AcDbLine
 10
-141.59637
 20
164.082675
 30
0.0
 11
-144.15622
 21
162.290249
 31
0.0
  0
LINE
  5
123
100
AcDbEntity
  8
0
 62
     0
100
AcDbLine
 10
-146.71607
 20
160.497822
 30
0.0
 11
-149.27592
 21
158.705396
 31
0.0
  0
LINE
  5
124
100
AcDbEntity
  8
0
 62
     0
100
AcDbLine
 10
-151.835771
 20
156.91297
 30
0.0
 11
-154.395621
 21
155.120543
 31
0.0
  0
LINE
  5
125
100
AcDbEntity
  8
0
 62
     0
100
AcDbLine
 10
-156.955471
 20
153.328117
 30
0.0
 11
-157.42407
 21
153.0
 31
0.0
  0
LINE
  5
126
100
AcDbEntity
  8
0
 62
     0
100
AcDbLine
 10
-132.124393
 20
166.900104
 30
0.0
 11
-134.684243
 21
165.107678
 31
0.0
  0
LINE
  5
127
100
AcDbEntity
  8
0
 62
     0
100
AcDbLine
 10
-137.244094
 20
163.315251
 30
0.0
 11
-139.803944
 21
161.522825
 31
0.0
  0
LINE
  5
128
100
AcDbEntity
  8
0
 62
     0
100
AcDbLine
 10
-142.363794
 20
159.730399
 30
0.0
 11
-144.923644
 21
157.937972
 31
0.0
  0
LINE
  5
129
100
AcDbEntity
  8
0
 62
     0
100
AcDbLine
 10
-147.483494
 20
156.145546
 30
0.0
 11
-150.043344
 21
154.353119
 31
0.0
  0
LINE
  5
12A
100
AcDbEntity
  8
0
 62
     0
100
AcDbLine
 10
-130.0
 20
164.5727
 30
0.0
 11
-130.331967
 21
164.340254
 31
0.0
  0
LINE
  5
12B
100
AcDbEntity
  8
0
 62
     0
100
AcDbLine
 10
-132.891817
 20
162.547827
 30
0.0
 11
-135.451667
 21
160.755401
 31
0.0
  0
LINE
  5
12C
100
AcDbEntity
  8
0
 62
     0
100
AcDbLine
 10
-138.011517
 20
158.962975
 30
0.0
 11
-140.571367
 21
157.170548
 31
0.0
  0
LINE
  5
12D
100
AcDbEntity
  8
0
 62
     0
100
AcDbLine
 10
-143.131218
 20
155.378122
 30
0.0
 11
-145.691068
 21
153.585696
 31
0.0
  0
LINE
  5
12E
100
AcDbEntity
  8
0
 62
     0
100
AcDbLine
 10
-130.0
 20
160.757779
 30
0.0
 11
-131.099391
 21
159.987977
 31
0.0
  0
LINE
  5
12F
100
AcDbEntity
  8
0
 62
     0
100
AcDbLine
 10
-133.659241
 20
158.195551
 30
0.0
 11
-136.219091
 21
156.403125
 31
0.0
  0
LINE
  5
130
100
AcDbEntity
  8
0
 62
     0
100
AcDbLine
 10
-138.778941
 20
154.610698
 30
0.0
 11
-141.079257
 21
153.0
 31
0.0
  0
LINE
  5
131
100
AcDbEntity
  8
0
 62
     0
100
AcDbLine
 10
-130.0
 20
156.942858
 30
0.0
 11
-131.866814
 21
155.635701
 31
0.0
  0
LINE
  5
132
100
AcDbEntity
  8
0
 62
     0
100
AcDbLine
 10
-134.426665
 20
153.843274
 30
0.0
 11
-135.630985
 21
153.0
 31
0.0
  0
LINE
  5
133
100
AcDbEntity
  8
0
 62
     0
100
AcDbLine
 10
-130.074388
 20
153.075851
 30
0.0
 11
-130.182714
 21
153.0
 31
0.0
  0
LINE
  5
134
100
AcDbEntity
  8
0
 62
     0
100
AcDbLine
 10
-179.536787
 20
210.0
 30
0.0
 11
-180.772171
 21
209.134975
 31
0.0
  0
LINE
  5
135
100
AcDbEntity
  8
0
 62
     0
100
AcDbLine
 10
-183.332021
 20
207.342549
 30
0.0
 11
-185.891872
 21
205.550122
 31
0.0
  0
LINE
  5
136
100
AcDbEntity
  8
0
 62
     0
100
AcDbLine
 10
-188.451722
 20
203.757696
 30
0.0
 11
-191.011572
 21
201.965269
 31
0.0
  0
LINE
  5
137
100
AcDbEntity
  8
0
 62
     0
100
AcDbLine
 10
-193.571422
 20
200.172843
 30
0.0
 11
-196.131272
 21
198.380417
 31
0.0
  0
LINE
  5
138
100
AcDbEntity
  8
0
 62
     0
100
AcDbLine
 10
-198.691122
 20
196.58799
 30
0.0
 11
-201.250972
 21
194.795564
 31
0.0
  0
LINE
  5
139
100
AcDbEntity
  8
0
 62
     0
100
AcDbLine
 10
-203.810822
 20
193.003138
 30
0.0
 11
-206.370673
 21
191.210711
 31
0.0
  0
LINE
  5
13A
100
AcDbEntity
  8
0
 62
     0
100
AcDbLine
 10
-208.930523
 20
189.418285
 30
0.0
 11
-211.490373
 21
187.625859
 31
0.0
  0
LINE
  5
13B
100
AcDbEntity
  8
0
 62
     0
100
AcDbLine
 10
-214.050223
 20
185.833432
 30
0.0
 11
-216.610073
 21
184.041006
 31
0.0
  0
LINE
  5
13C
100
AcDbEntity
  8
0
 62
     0
100
AcDbLine
 10
-219.169923
 20
182.248579
 30
0.0
 11
-221.729773
 21
180.456153
 31
0.0
  0
LINE
  5
13D
100
AcDbEntity
  8
0
 62
     0
100
AcDbLine
 10
-224.289624
 20
178.663727
 30
0.0
 11
-226.849474
 21
176.8713
 31
0.0
  0
LINE
  5
13E
100
AcDbEntity
  8
0
 62
     0
100
AcDbLine
 10
-229.409324
 20
175.078874
 30
0.0
 11
-231.969174
 21
173.286448
 31
0.0
  0
LINE
  5
13F
100
AcDbEntity
  8
0
 62
     0
100
AcDbLine
 10
-234.529024
 20
171.494021
 30
0.0
 11
-237.088874
 21
169.701595
 31
0.0
  0
LINE
  5
140
100
AcDbEntity
  8
0
 62
     0
100
AcDbLine
 10
-239.648724
 20
167.909169
 30
0.0
 11
-242.208575
 21
166.116742
 31
0.0
  0
LINE
  5
141
100
AcDbEntity
  8
0
 62
     0
100
AcDbLine
 10
-244.768425
 20
164.324316
 30
0.0
 11
-247.328275
 21
162.531889
 31
0.0
  0
LINE
  5
142
100
AcDbEntity
  8
0
 62
     0
100
AcDbLine
 10
-249.888125
 20
160.739463
 30
0.0
 11
-252.447975
 21
158.947037
 31
0.0
  0
LINE
  5
143
100
AcDbEntity
  8
0
 62
     0
100
AcDbLine
 10
-255.007825
 20
157.15461
 30
0.0
 11
-257.567675
 21
155.362184
 31
0.0
  0
LINE
  5
144
100
AcDbEntity
  8
0
 62
     0
100
AcDbLine
 10
-260.127526
 20
153.569758
 30
0.0
 11
-260.941224
 21
153.0
 31
0.0
  0
LINE
  5
145
100
AcDbEntity
  8
0
 62
     0
100
AcDbLine
 10
-184.985059
 20
210.0
 30
0.0
 11
-185.124448
 21
209.902399
 31
0.0
  0
LINE
  5
146
100
AcDbEntity
  8
0
 62
     0
100
AcDbLine
 10
-187.684298
 20
208.109972
 30
0.0
 11
-190.244148
 21
206.317546
 31
0.0
  0
LINE
  5
147
100
AcDbEntity
  8
0
 62
     0
100
AcDbLine
 10
-192.803998
 20
204.52512
 30
0.0
 11
-195.363848
 21
202.732693
 31
0.0
  0
LINE
  5
148
100
AcDbEntity
  8
0
 62
     0
100
AcDbLine
 10
-197.923698
 20
200.940267
 30
0.0
 11
-200.483549
 21
199.147841
 31
0.0
  0
LINE
  5
149
100
AcDbEntity
  8
0
 62
     0
100
AcDbLine
 10
-203.043399
 20
197.355414
 30
0.0
 11
-205.603249
 21
195.562988
 31
0.0
  0
LINE
  5
14A
100
AcDbEntity
  8
0
 62
     0
100
AcDbLine
 10
-208.163099
 20
193.770561
 30
0.0
 11
-210.722949
 21
191.978135
 31
0.0
  0
LINE
  5
14B
100
AcDbEntity
  8
0
 62
     0
100
AcDbLine
 10
-213.282799
 20
190.185709
 30
0.0
 11
-215.842649
 21
188.393282
 31
0.0
  0
LINE
  5
14C
100
AcDbEntity
  8
0
 62
     0
100
AcDbLine
 10
-218.4025
 20
186.600856
 30
0.0
 11
-220.96235
 21
184.80843
 31
0.0
  0
LINE
  5
14D
100
AcDbEntity
  8
0
 62
     0
100
AcDbLine
 10
-223.5222
 20
183.016003
 30
0.0
 11
-226.08205
 21
181.223577
 31
0.0
  0
LINE
  5
14E
100
AcDbEntity
  8
0
 62
     0
100
AcDbLine
 10
-228.6419
 20
179.431151
 30
0.0
 11
-231.20175
 21
177.638724
 31
0.0
  0
LINE
  5
14F
100
AcDbEntity
  8
0
 62
     0
100
AcDbLine
 10
-233.7616
 20
175.846298
 30
0.0
 11
-236.321451
 21
174.053871
 31
0.0
  0
LINE
  5
150
100
AcDbEntity
  8
0
 62
     0
100
AcDbLine
 10
-238.881301
 20
172.261445
 30
0.0
 11
-241.441151
 21
170.469019
 31
0.0
  0
LINE
  5
151
100
AcDbEntity
  8
0
 62
     0
100
AcDbLine
 10
-244.001001
 20
168.676592
 30
0.0
 11
-246.560851
 21
166.884166
 31
0.0
  0
LINE
  5
152
100
AcDbEntity
  8
0
 62
     0
100
AcDbLine
 10
-249.120701
 20
165.09174
 30
0.0
 11
-251.680551
 21
163.299313
 31
0.0
  0
LINE
  5
153
100
AcDbEntity
  8
0
 62
     0
100
AcDbLine
 10
-254.240401
 20
161.506887
 30
0.0
 11
-256.800252
 21
159.714461
 31
0.0
  0
LINE
  5
154
100
AcDbEntity
  8
0
 62
     0
100
AcDbLine
 10
-259.360102
 20
157.922034
 30
0.0
 11
-261.919952
 21
156.129608
 31
0.0
  0
LINE
  5
155
100
AcDbEntity
  8
0
 62
     0
100
AcDbLine
 10
-264.479802
 20
154.337181
 30
0.0
 11
-266.389495
 21
153.0
 31
0.0
  0
LINE
  5
156
100
AcDbEntity
  8
0
 62
     0
100
AcDbLine
 10
-192.036574
 20
208.877396
 30
0.0
 11
-194.596425
 21
207.08497
 31
0.0
  0
LINE
  5
157
100
AcDbEntity
  8
0
 62
     0
100
AcDbLine
 10
-197.156275
 20
205.292543
 30
0.0
 11
-199.716125
 21
203.500117
 31
0.0
  0
LINE
  5
158
100
AcDbEntity
  8
0
 62
     0
100
AcDbLine
 10
-202.275975
 20
201.707691
 30
0.0
 11
-204.835825
 21
199.915264
 31
0.0
  0
LINE
  5
159
100
AcDbEntity
  8
0
 62
     0
100
AcDbLine
 10
-207.395675
 20
198.122838
 30
0.0
 11
-209.955525
 21
196.330412
 31
0.0
  0
LINE
  5
15A
100
AcDbEntity
  8
0
 62
     0
100
AcDbLine
 10
-212.515375
 20
194.537985
 30
0.0
 11
-215.075226
 21
192.745559
 31
0.0
  0
LINE
  5
15B
100
AcDbEntity
  8
0
 62
     0
100
AcDbLine
 10
-217.635076
 20
190.953132
 30
0.0
 11
-220.194926
 21
189.160706
 31
0.0
  0
LINE
  5
15C
100
AcDbEntity
  8
0
 62
     0
100
AcDbLine
 10
-222.754776
 20
187.36828
 30
0.0
 11
-225.314626
 21
185.575853
 31
0.0
  0
LINE
  5
15D
100
AcDbEntity
  8
0
 62
     0
100
AcDbLine
 10
-227.874476
 20
183.783427
 30
0.0
 11
-230.434326
 21
181.991001
 31
0.0
  0
LINE
  5
15E
100
AcDbEntity
  8
0
 62
     0
100
AcDbLine
 10
-232.994177
 20
180.198574
 30
0.0
 11
-235.554027
 21
178.406148
 31
0.0
  0
LINE
  5
15F
100
AcDbEntity
  8
0
 62
     0
100
AcDbLine
 10
-238.113877
 20
176.613722
 30
0.0
 11
-240.673727
 21
174.821295
 31
0.0
  0
LINE
  5
160
100
AcDbEntity
  8
0
 62
     0
100
AcDbLine
 10
-243.233577
 20
173.028869
 30
0.0
 11
-245.793427
 21
171.236442
 31
0.0
  0
LINE
  5
161
100
AcDbEntity
  8
0
 62
     0
100
AcDbLine
 10
-248.353277
 20
169.444016
 30
0.0
 11
-250.913128
 21
167.65159
 31
0.0
  0
LINE
  5
162
100
AcDbEntity
  8
0
 62
     0
100
AcDbLine
 10
-253.472978
 20
165.859163
 30
0.0
 11
-256.032828
 21
164.066737
 31
0.0
  0
LINE
  5
163
100
AcDbEntity
  8
0
 62
     0
100
AcDbLine
 10
-258.592678
 20
162.274311
 30
0.0
 11
-261.152528
 21
160.481884
 31
0.0
  0
LINE
  5
164
100
AcDbEntity
  8
0
 62
     0
100
AcDbLine
 10
-263.712378
 20
158.689458
 30
0.0
 11
-266.272228
 21
156.897032
 31
0.0
  0
LINE
  5
165
100
AcDbEntity
  8
0
 62
     0
100
AcDbLine
 10
-268.832079
 20
155.104605
 30
0.0
 11
-271.391929
 21
153.312179
 31
0.0
  0
LINE
  5
166
100
AcDbEntity
  8
0
 62
     0
100
AcDbLine
 10
-196.388851
 20
209.64482
 30
0.0
 11
-198.948701
 21
207.852394
 31
0.0
  0
LINE
  5
167
100
AcDbEntity
  8
0
 62
     0
100
AcDbLine
 10
-201.508551
 20
206.059967
 30
0.0
 11
-204.068401
 21
204.267541
 31
0.0
  0
LINE
  5
168
100
AcDbEntity
  8
0
 62
     0
100
AcDbLine
 10
-206.628251
 20
202.475114
 30
0.0
 11
-209.188102
 21
200.682688
 31
0.0
  0
LINE
  5
169
100
AcDbEntity
  8
0
 62
     0
100
AcDbLine
 10
-211.747952
 20
198.890262
 30
0.0
 11
-214.307802
 21
197.097835
 31
0.0
  0
LINE
  5
16A
100
AcDbEntity
  8
0
 62
     0
100
AcDbLine
 10
-216.867652
 20
195.305409
 30
0.0
 11
-219.427502
 21
193.512983
 31
0.0
  0
LINE
  5
16B
100
AcDbEntity
  8
0
 62
     0
100
AcDbLine
 10
-221.987352
 20
191.720556
 30
0.0
 11
-224.547202
 21
189.92813
 31
0.0
  0
LINE
  5
16C
100
AcDbEntity
  8
0
 62
     0
100
AcDbLine
 10
-227.107053
 20
188.135704
 30
0.0
 11
-229.666903
 21
186.343277
 31
0.0
  0
LINE
  5
16D
100
AcDbEntity
  8
0
 62
     0
100
AcDbLine
 10
-232.226753
 20
184.550851
 30
0.0
 11
-234.786603
 21
182.758424
 31
0.0
  0
LINE
  5
16E
100
AcDbEntity
  8
0
 62
     0
100
AcDbLine
 10
-237.346453
 20
180.965998
 30
0.0
 11
-239.906303
 21
179.173572
 31
0.0
  0
LINE
  5
16F
100
AcDbEntity
  8
0
 62
     0
100
AcDbLine
 10
-242.466153
 20
177.381145
 30
0.0
 11
-245.026004
 21
175.588719
 31
0.0
  0
LINE
  5
170
100
AcDbEntity
  8
0
 62
     0
100
AcDbLine
 10
-247.585854
 20
173.796293
 30
0.0
 11
-250.145704
 21
172.003866
 31
0.0
  0
LINE
  5
171
100
AcDbEntity
  8
0
 62
     0
100
AcDbLine
 10
-252.705554
 20
170.21144
 30
0.0
 11
-255.265404
 21
168.419014
 31
0.0
  0
LINE
  5
172
100
AcDbEntity
  8
0
 62
     0
100
AcDbLine
 10
-257.825254
 20
166.626587
 30
0.0
 11
-260.385104
 21
164.834161
 31
0.0
  0
LINE
  5
173
100
AcDbEntity
  8
0
 62
     0
100
AcDbLine
 10
-262.944954
 20
163.041734
 30
0.0
 11
-265.504805
 21
161.249308
 31
0.0
  0
LINE
  5
174
100
AcDbEntity
  8
0
 62
     0
100
AcDbLine
 10
-268.064655
 20
159.456882
 30
0.0
 11
-270.624505
 21
157.664455
 31
0.0
  0
LINE
  5
175
100
AcDbEntity
  8
0
 62
     0
100
AcDbLine
 10
-273.184355
 20
155.872029
 30
0.0
 11
-275.744205
 21
154.079603
 31
0.0
  0
LINE
  5
176
100
AcDbEntity
  8
0
 62
     0
100
AcDbLine
 10
-201.329872
 20
210.0
 30
0.0
 11
-203.300978
 21
208.619817
 31
0.0
  0
LINE
  5
177
100
AcDbEntity
  8
0
 62
     0
100
AcDbLine
 10
-205.860828
 20
206.827391
 30
0.0
 11
-208.420678
 21
205.034965
 31
0.0
  0
LINE
  5
178
100
AcDbEntity
  8
0
 62
     0
100
AcDbLine
 10
-210.980528
 20
203.242538
 30
0.0
 11
-213.540378
 21
201.450112
 31
0.0
  0
LINE
  5
179
100
AcDbEntity
  8
0
 62
     0
100
AcDbLine
 10
-216.100228
 20
199.657685
 30
0.0
 11
-218.660078
 21
197.865259
 31
0.0
  0
LINE
  5
17A
100
AcDbEntity
  8
0
 62
     0
100
AcDbLine
 10
-221.219928
 20
196.072833
 30
0.0
 11
-223.779779
 21
194.280406
 31
0.0
  0
LINE
  5
17B
100
AcDbEntity
  8
0
 62
     0
100
AcDbLine
 10
-226.339629
 20
192.48798
 30
0.0
 11
-228.899479
 21
190.695554
 31
0.0
  0
LINE
  5
17C
100
AcDbEntity
  8
0
 62
     0
100
AcDbLine
 10
-231.459329
 20
188.903127
 30
0.0
 11
-234.019179
 21
187.110701
 31
0.0
  0
LINE
  5
17D
100
AcDbEntity
  8
0
 62
     0
100
AcDbLine
 10
-236.579029
 20
185.318275
 30
0.0
 11
-239.138879
 21
183.525848
 31
0.0
  0
LINE
  5
17E
100
AcDbEntity
  8
0
 62
     0
100
AcDbLine
 10
-241.69873
 20
181.733422
 30
0.0
 11
-244.25858
 21
179.940995
 31
0.0
  0
LINE
  5
17F
100
AcDbEntity
  8
0
 62
     0
100
AcDbLine
 10
-246.81843
 20
178.148569
 30
0.0
 11
-249.37828
 21
176.356143
 31
0.0
  0
LINE
  5
180
100
AcDbEntity
  8
0
 62
     0
100
AcDbLine
 10
-251.93813
 20
174.563716
 30
0.0
 11
-254.49798
 21
172.77129
 31
0.0
  0
LINE
  5
181
100
AcDbEntity
  8
0
 62
     0
100
AcDbLine
 10
-257.05783
 20
170.978864
 30
0.0
 11
-259.617681
 21
169.186437
 31
0.0
  0
LINE
  5
182
100
AcDbEntity
  8
0
 62
     0
100
AcDbLine
 10
-262.177531
 20
167.394011
 30
0.0
 11
-264.737381
 21
165.601585
 31
0.0
  0
LINE
  5
183
100
AcDbEntity
  8
0
 62
     0
100
AcDbLine
 10
-267.297231
 20
163.809158
 30
0.0
 11
-269.857081
 21
162.016732
 31
0.0
  0
LINE
  5
184
100
AcDbEntity
  8
0
 62
     0
100
AcDbLine
 10
-272.416931
 20
160.224305
 30
0.0
 11
-274.976781
 21
158.431879
 31
0.0
  0
LINE
  5
185
100
AcDbEntity
  8
0
 62
     0
100
AcDbLine
 10
-277.536632
 20
156.639453
 30
0.0
 11
-280.096482
 21
154.847026
 31
0.0
  0
LINE
  5
186
100
AcDbEntity
  8
0
 62
     0
100
AcDbLine
 10
-282.656332
 20
153.0546
 30
0.0
 11
-282.734309
 21
153.0
 31
0.0
  0
LINE
  5
187
100
AcDbEntity
  8
0
 62
     0
100
AcDbLine
 10
-206.778144
 20
210.0
 30
0.0
 11
-207.653254
 21
209.387241
 31
0.0
  0
LINE
  5
188
100
AcDbEntity
  8
0
 62
     0
100
AcDbLine
 10
-210.213104
 20
207.594815
 30
0.0
 11
-212.772954
 21
205.802388
 31
0.0
  0
LINE
  5
189
100
AcDbEntity
  8
0
 62
     0
100
AcDbLine
 10
-215.332804
 20
204.009962
 30
0.0
 11
-217.892655
 21
202.217536
 31
0.0
  0
LINE
  5
18A
100
AcDbEntity
  8
0
 62
     0
100
AcDbLine
 10
-220.452505
 20
200.425109
 30
0.0
 11
-223.012355
 21
198.632683
 31
0.0
  0
LINE
  5
18B
100
AcDbEntity
  8
0
 62
     0
100
AcDbLine
 10
-225.572205
 20
196.840257
 30
0.0
 11
-228.132055
 21
195.04783
 31
0.0
  0
LINE
  5
18C
100
AcDbEntity
  8
0
 62
     0
100
AcDbLine
 10
-230.691905
 20
193.255404
 30
0.0
 11
-233.251755
 21
191.462977
 31
0.0
  0
LINE
  5
18D
100
AcDbEntity
  8
0
 62
     0
100
AcDbLine
 10
-235.811606
 20
189.670551
 30
0.0
 11
-238.371456
 21
187.878125
 31
0.0
  0
LINE
  5
18E
100
AcDbEntity
  8
0
 62
     0
100
AcDbLine
 10
-240.931306
 20
186.085698
 30
0.0
 11
-243.491156
 21
184.293272
 31
0.0
  0
LINE
  5
18F
100
AcDbEntity
  8
0
 62
     0
100
AcDbLine
 10
-246.051006
 20
182.500846
 30
0.0
 11
-248.610856
 21
180.708419
 31
0.0
  0
LINE
  5
190
100
AcDbEntity
  8
0
 62
     0
100
AcDbLine
 10
-251.170706
 20
178.915993
 30
0.0
 11
-253.730557
 21
177.123567
 31
0.0
  0
LINE
  5
191
100
AcDbEntity
  8
0
 62
     0
100
AcDbLine
 10
-256.290407
 20
175.33114
 30
0.0
 11
-258.850257
 21
173.538714
 31
0.0
  0
LINE
  5
192
100
AcDbEntity
  8
0
 62
     0
100
AcDbLine
 10
-261.410107
 20
171.746287
 30
0.0
 11
-263.969957
 21
169.953861
 31
0.0
  0
LINE
  5
193
100
AcDbEntity
  8
0
 62
     0
100
AcDbLine
 10
-266.529807
 20
168.161435
 30
0.0
 11
-269.089657
 21
166.369008
 31
0.0
  0
LINE
  5
194
100
AcDbEntity
  8
0
 62
     0
100
AcDbLine
 10
-271.649507
 20
164.576582
 30
0.0
 11
-274.209358
 21
162.784156
 31
0.0
  0
LINE
  5
195
100
AcDbEntity
  8
0
 62
     0
100
AcDbLine
 10
-276.769208
 20
160.991729
 30
0.0
 11
-279.329058
 21
159.199303
 31
0.0
  0
LINE
  5
196
100
AcDbEntity
  8
0
 62
     0
100
AcDbLine
 10
-281.888908
 20
157.406877
 30
0.0
 11
-284.448758
 21
155.61445
 31
0.0
  0
LINE
  5
197
100
AcDbEntity
  8
0
 62
     0
100
AcDbLine
 10
-287.008608
 20
153.822024
 30
0.0
 11
-288.18258
 21
153.0
 31
0.0
  0
LINE
  5
198
100
AcDbEntity
  8
0
 62
     0
100
AcDbLine
 10
-214.565381
 20
208.362238
 30
0.0
 11
-217.125231
 21
206.569812
 31
0.0
  0
LINE
  5
199
100
AcDbEntity
  8
0
 62
     0
100
AcDbLine
 10
-219.685081
 20
204.777386
 30
0.0
 11
-222.244931
 21
202.984959
 31
0.0
  0
LINE
  5
19A
100
AcDbEntity
  8
0
 62
     0
100
AcDbLine
 10
-224.804781
 20
201.192533
 30
0.0
 11
-227.364631
 21
199.400107
 31
0.0
  0
LINE
  5
19B
100
AcDbEntity
  8
0
 62
     0
100
AcDbLine
 10
-229.924481
 20
197.60768
 30
0.0
 11
-232.484332
 21
195.815254
 31
0.0
  0
LINE
  5
19C
100
AcDbEntity
  8
0
 62
     0
100
AcDbLine
 10
-235.044182
 20
194.022828
 30
0.0
 11
-237.604032
 21
192.230401
 31
0.0
  0
LINE
  5
19D
100
AcDbEntity
  8
0
 62
     0
100
AcDbLine
 10
-240.163882
 20
190.437975
 30
0.0
 11
-242.723732
 21
188.645548
 31
0.0
  0
LINE
  5
19E
100
AcDbEntity
  8
0
 62
     0
100
AcDbLine
 10
-245.283582
 20
186.853122
 30
0.0
 11
-247.843432
 21
185.060696
 31
0.0
  0
LINE
  5
19F
100
AcDbEntity
  8
0
 62
     0
100
AcDbLine
 10
-250.403283
 20
183.268269
 30
0.0
 11
-252.963133
 21
181.475843
 31
0.0
  0
LINE
  5
1A0
100
AcDbEntity
  8
0
 62
     0
100
AcDbLine
 10
-255.522983
 20
179.683417
 30
0.0
 11
-258.082833
 21
177.89099
 31
0.0
  0
LINE
  5
1A1
100
AcDbEntity
  8
0
 62
     0
100
AcDbLine
 10
-260.642683
 20
176.098564
 30
0.0
 11
-263.202533
 21
174.306138
 31
0.0
  0
LINE
  5
1A2
100
AcDbEntity
  8
0
 62
     0
100
AcDbLine
 10
-265.762383
 20
172.513711
 30
0.0
 11
-268.322234
 21
170.721285
 31
0.0
  0
LINE
  5
1A3
100
AcDbEntity
  8
0
 62
     0
100
AcDbLine
 10
-270.882084
 20
168.928858
 30
0.0
 11
-273.441934
 21
167.136432
 31
0.0
  0
LINE
  5
1A4
100
AcDbEntity
  8
0
 62
     0
100
AcDbLine
 10
-276.001784
 20
165.344006
 30
0.0
 11
-278.561634
 21
163.551579
 31
0.0
  0
LINE
  5
1A5
100
AcDbEntity
  8
0
 62
     0
100
AcDbLine
 10
-281.121484
 20
161.759153
 30
0.0
 11
-283.681334
 21
159.966727
 31
0.0
  0
LINE
  5
1A6
100
AcDbEntity
  8
0
 62
     0
100
AcDbLine
 10
-286.241185
 20
158.1743
 30
0.0
 11
-288.801035
 21
156.381874
 31
0.0
  0
LINE
  5
1A7
100
AcDbEntity
  8
0
 62
     0
100
AcDbLine
 10
-291.360885
 20
154.589448
 30
0.0
 11
-293.630851
 21
153.0
 31
0.0
  0
LINE
  5
1A8
100
AcDbEntity
  8
0
 62
     0
100
AcDbLine
 10
-218.917657
 20
209.129662
 30
0.0
 11
-221.477507
 21
207.337236
 31
0.0
  0
LINE
  5
1A9
100
AcDbEntity
  8
0
 62
     0
100
AcDbLine
 10
-224.037357
 20
205.54481
 30
0.0
 11
-226.597208
 21
203.752383
 31
0.0
  0
LINE
  5
1AA
100
AcDbEntity
  8
0
 62
     0
100
AcDbLine
 10
-229.157058
 20
201.959957
 30
0.0
 11
-231.716908
 21
200.16753
 31
0.0
  0
LINE
  5
1AB
100
AcDbEntity
  8
0
 62
     0
100
AcDbLine
 10
-234.276758
 20
198.375104
 30
0.0
 11
-236.836608
 21
196.582678
 31
0.0
  0
LINE
  5
1AC
100
AcDbEntity
  8
0
 62
     0
100
AcDbLine
 10
-239.396458
 20
194.790251
 30
0.0
 11
-241.956308
 21
192.997825
 31
0.0
  0
LINE
  5
1AD
100
AcDbEntity
  8
0
 62
     0
100
AcDbLine
 10
-244.516159
 20
191.205399
 30
0.0
 11
-247.076009
 21
189.412972
 31
0.0
  0
LINE
  5
1AE
100
AcDbEntity
  8
0
 62
     0
100
AcDbLine
 10
-249.635859
 20
187.620546
 30
0.0
 11
-252.195709
 21
185.82812
 31
0.0
  0
LINE
  5
1AF
100
AcDbEntity
  8
0
 62
     0
100
AcDbLine
 10
-254.755559
 20
184.035693
 30
0.0
 11
-257.315409
 21
182.243267
 31
0.0
  0
LINE
  5
1B0
100
AcDbEntity
  8
0
 62
     0
100
AcDbLine
 10
-259.875259
 20
180.45084
 30
0.0
 11
-262.43511
 21
178.658414
 31
0.0
  0
LINE
  5
1B1
100
AcDbEntity
  8
0
 62
     0
100
AcDbLine
 10
-264.99496
 20
176.865988
 30
0.0
 11
-267.55481
 21
175.073561
 31
0.0
  0
LINE
  5
1B2
100
AcDbEntity
  8
0
 62
     0
100
AcDbLine
 10
-270.11466
 20
173.281135
 30
0.0
 11
-272.67451
 21
171.488709
 31
0.0
  0
LINE
  5
1B3
100
AcDbEntity
  8
0
 62
     0
100
AcDbLine
 10
-275.23436
 20
169.696282
 30
0.0
 11
-277.79421
 21
167.903856
 31
0.0
  0
LINE
  5
1B4
100
AcDbEntity
  8
0
 62
     0
100
AcDbLine
 10
-280.35406
 20
166.11143
 30
0.0
 11
-282.913911
 21
164.319003
 31
0.0
  0
LINE
  5
1B5
100
AcDbEntity
  8
0
 62
     0
100
AcDbLine
 10
-285.473761
 20
162.526577
 30
0.0
 11
-288.033611
 21
160.73415
 31
0.0
  0
LINE
  5
1B6
100
AcDbEntity
  8
0
 62
     0
100
AcDbLine
 10
-290.593461
 20
158.941724
 30
0.0
 11
-293.153311
 21
157.149298
 31
0.0
  0
LINE
  5
1B7
100
AcDbEntity
  8
0
 62
     0
100
AcDbLine
 10
-295.713161
 20
155.356871
 30
0.0
 11
-298.273011
 21
153.564445
 31
0.0
  0
LINE
  5
1B8
100
AcDbEntity
  8
0
 62
     0
100
AcDbLine
 10
-223.269934
 20
209.897086
 30
0.0
 11
-225.829784
 21
208.10466
 31
0.0
  0
LINE
  5
1B9
100
AcDbEntity
  8
0
 62
     0
100
AcDbLine
 10
-228.389634
 20
206.312233
 30
0.0
 11
-230.949484
 21
204.519807
 31
0.0
  0
LINE
  5
1BA
100
AcDbEntity
  8
0
 62
     0
100
AcDbLine
 10
-233.509334
 20
202.727381
 30
0.0
 11
-236.069184
 21
200.934954
 31
0.0
  0
LINE
  5
1BB
100
AcDbEntity
  8
0
 62
     0
100
AcDbLine
 10
-238.629035
 20
199.142528
 30
0.0
 11
-241.188885
 21
197.350101
 31
0.0
  0
LINE
  5
1BC
100
AcDbEntity
  8
0
 62
     0
100
AcDbLine
 10
-243.748735
 20
195.557675
 30
0.0
 11
-246.308585
 21
193.765249
 31
0.0
  0
LINE
  5
1BD
100
AcDbEntity
  8
0
 62
     0
100
AcDbLine
 10
-248.868435
 20
191.972822
 30
0.0
 11
-251.428285
 21
190.180396
 31
0.0
  0
LINE
  5
1BE
100
AcDbEntity
  8
0
 62
     0
100
AcDbLine
 10
-253.988135
 20
188.38797
 30
0.0
 11
-256.547985
 21
186.595543
 31
0.0
  0
LINE
  5
1BF
100
AcDbEntity
  8
0
 62
     0
100
AcDbLine
 10
-259.107836
 20
184.803117
 30
0.0
 11
-261.667686
 21
183.010691
 31
0.0
  0
LINE
  5
1C0
100
AcDbEntity
  8
0
 62
     0
100
AcDbLine
 10
-264.227536
 20
181.218264
 30
0.0
 11
-266.787386
 21
179.425838
 31
0.0
  0
LINE
  5
1C1
100
AcDbEntity
  8
0
 62
     0
100
AcDbLine
 10
-269.347236
 20
177.633411
 30
0.0
 11
-271.907086
 21
175.840985
 31
0.0
  0
LINE
  5
1C2
100
AcDbEntity
  8
0
 62
     0
100
AcDbLine
 10
-274.466936
 20
174.048559
 30
0.0
 11
-277.026787
 21
172.256132
 31
0.0
  0
LINE
  5
1C3
100
AcDbEntity
  8
0
 62
     0
100
AcDbLine
 10
-279.586637
 20
170.463706
 30
0.0
 11
-282.146487
 21
168.67128
 31
0.0
  0
LINE
  5
1C4
100
AcDbEntity
  8
0
 62
     0
100
AcDbLine
 10
-284.706337
 20
166.878853
 30
0.0
 11
-287.266187
 21
165.086427
 31
0.0
  0
LINE
  5
1C5
100
AcDbEntity
  8
0
 62
     0
100
AcDbLine
 10
-289.826037
 20
163.294001
 30
0.0
 11
-292.385887
 21
161.501574
 31
0.0
  0
LINE
  5
1C6
100
AcDbEntity
  8
0
 62
     0
100
AcDbLine
 10
-294.945738
 20
159.709148
 30
0.0
 11
-297.505588
 21
157.916721
 31
0.0
  0
LINE
  5
1C7
100
AcDbEntity
  8
0
 62
     0
100
AcDbLine
 10
-300.065438
 20
156.124295
 30
0.0
 11
-302.625288
 21
154.331869
 31
0.0
  0
LINE
  5
1C8
100
AcDbEntity
  8
0
 62
     0
100
AcDbLine
 10
-228.571229
 20
210.0
 30
0.0
 11
-230.18206
 21
208.872083
 31
0.0
  0
LINE
  5
1C9
100
AcDbEntity
  8
0
 62
     0
100
AcDbLine
 10
-232.74191
 20
207.079657
 30
0.0
 11
-235.301761
 21
205.287231
 31
0.0
  0
LINE
  5
1CA
100
AcDbEntity
  8
0
 62
     0
100
AcDbLine
 10
-237.861611
 20
203.494804
 30
0.0
 11
-240.421461
 21
201.702378
 31
0.0
  0
LINE
  5
1CB
100
AcDbEntity
  8
0
 62
     0
100
AcDbLine
 10
-242.981311
 20
199.909952
 30
0.0
 11
-245.541161
 21
198.117525
 31
0.0
  0
LINE
  5
1CC
100
AcDbEntity
  8
0
 62
     0
100
AcDbLine
 10
-248.101011
 20
196.325099
 30
0.0
 11
-250.660861
 21
194.532673
 31
0.0
  0
LINE
  5
1CD
100
AcDbEntity
  8
0
 62
     0
100
AcDbLine
 10
-253.220712
 20
192.740246
 30
0.0
 11
-255.780562
 21
190.94782
 31
0.0
  0
LINE
  5
1CE
100
AcDbEntity
  8
0
 62
     0
100
AcDbLine
 10
-258.340412
 20
189.155393
 30
0.0
 11
-260.900262
 21
187.362967
 31
0.0
  0
LINE
  5
1CF
100
AcDbEntity
  8
0
 62
     0
100
AcDbLine
 10
-263.460112
 20
185.570541
 30
0.0
 11
-266.019962
 21
183.778114
 31
0.0
  0
LINE
  5
1D0
100
AcDbEntity
  8
0
 62
     0
100
AcDbLine
 10
-268.579812
 20
181.985688
 30
0.0
 11
-271.139663
 21
180.193262
 31
0.0
  0
LINE
  5
1D1
100
AcDbEntity
  8
0
 62
     0
100
AcDbLine
 10
-273.699513
 20
178.400835
 30
0.0
 11
-276.259363
 21
176.608409
 31
0.0
  0
LINE
  5
1D2
100
AcDbEntity
  8
0
 62
     0
100
AcDbLine
 10
-278.819213
 20
174.815983
 30
0.0
 11
-281.379063
 21
173.023556
 31
0.0
  0
LINE
  5
1D3
100
AcDbEntity
  8
0
 62
     0
100
AcDbLine
 10
-283.938913
 20
171.23113
 30
0.0
 11
-286.498763
 21
169.438703
 31
0.0
  0
LINE
  5
1D4
100
AcDbEntity
  8
0
 62
     0
100
AcDbLine
 10
-289.058613
 20
167.646277
 30
0.0
 11
-291.618464
 21
165.853851
 31
0.0
  0
LINE
  5
1D5
100
AcDbEntity
  8
0
 62
     0
100
AcDbLine
 10
-294.178314
 20
164.061424
 30
0.0
 11
-296.738164
 21
162.268998
 31
0.0
  0
LINE
  5
1D6
100
AcDbEntity
  8
0
 62
     0
100
AcDbLine
 10
-299.298014
 20
160.476572
 30
0.0
 11
-301.857864
 21
158.684145
 31
0.0
  0
LINE
  5
1D7
100
AcDbEntity
  8
0
 62
     0
100
AcDbLine
 10
-304.417714
 20
156.891719
 30
0.0
 11
-306.977564
 21
155.099293
 31
0.0
  0
LINE
  5
1D8
100
AcDbEntity
  8
0
 62
     0
100
AcDbLine
 10
-309.537415
 20
153.306866
 30
0.0
 11
-309.975665
 21
153.0
 31
0.0
  0
LINE
  5
1D9
100
AcDbEntity
  8
0
 62
     0
100
AcDbLine
 10
-234.0195
 20
210.0
 30
0.0
 11
-234.534337
 21
209.639507
 31
0.0
  0
LINE
  5
1DA
100
AcDbEntity
  8
0
 62
     0
100
AcDbLine
 10
-237.094187
 20
207.847081
 30
0.0
 11
-239.654037
 21
206.054654
 31
0.0
  0
LINE
  5
1DB
100
AcDbEntity
  8
0
 62
     0
100
AcDbLine
 10
-242.213887
 20
204.262228
 30
0.0
 11
-244.773737
 21
202.469802
 31
0.0
  0
LINE
  5
1DC
100
AcDbEntity
  8
0
 62
     0
100
AcDbLine
 10
-247.333588
 20
200.677375
 30
0.0
 11
-249.893438
 21
198.884949
 31
0.0
  0
LINE
  5
1DD
100
AcDbEntity
  8
0
 62
     0
100
AcDbLine
 10
-252.453288
 20
197.092523
 30
0.0
 11
-255.013138
 21
195.300096
 31
0.0
  0
LINE
  5
1DE
100
AcDbEntity
  8
0
 62
     0
100
AcDbLine
 10
-257.572988
 20
193.50767
 30
0.0
 11
-260.132838
 21
191.715244
 31
0.0
  0
LINE
  5
1DF
100
AcDbEntity
  8
0
 62
     0
100
AcDbLine
 10
-262.692688
 20
189.922817
 30
0.0
 11
-265.252538
 21
188.130391
 31
0.0
  0
LINE
  5
1E0
100
AcDbEntity
  8
0
 62
     0
100
AcDbLine
 10
-267.812389
 20
186.337964
 30
0.0
 11
-270.372239
 21
184.545538
 31
0.0
  0
LINE
  5
1E1
100
AcDbEntity
  8
0
 62
     0
100
AcDbLine
 10
-272.932089
 20
182.753112
 30
0.0
 11
-275.491939
 21
180.960685
 31
0.0
  0
LINE
  5
1E2
100
AcDbEntity
  8
0
 62
     0
100
AcDbLine
 10
-278.051789
 20
179.168259
 30
0.0
 11
-280.611639
 21
177.375833
 31
0.0
  0
LINE
  5
1E3
100
AcDbEntity
  8
0
 62
     0
100
AcDbLine
 10
-283.171489
 20
175.583406
 30
0.0
 11
-285.73134
 21
173.79098
 31
0.0
  0
LINE
  5
1E4
100
AcDbEntity
  8
0
 62
     0
100
AcDbLine
 10
-288.29119
 20
171.998554
 30
0.0
 11
-290.85104
 21
170.206127
 31
0.0
  0
LINE
  5
1E5
100
AcDbEntity
  8
0
 62
     0
100
AcDbLine
 10
-293.41089
 20
168.413701
 30
0.0
 11
-295.97074
 21
166.621274
 31
0.0
  0
LINE
  5
1E6
100
AcDbEntity
  8
0
 62
     0
100
AcDbLine
 10
-298.53059
 20
164.828848
 30
0.0
 11
-301.09044
 21
163.036422
 31
0.0
  0
LINE
  5
1E7
100
AcDbEntity
  8
0
 62
     0
100
AcDbLine
 10
-303.650291
 20
161.243995
 30
0.0
 11
-306.210141
 21
159.451569
 31
0.0
  0
LINE
  5
1E8
100
AcDbEntity
  8
0
 62
     0
100
AcDbLine
 10
-308.769991
 20
157.659143
 30
0.0
 11
-310.0
 21
156.797881
 31
0.0
  0
LINE
  5
1E9
100
AcDbEntity
  8
0
 62
     0
100
AcDbLine
 10
-241.446463
 20
208.614505
 30
0.0
 11
-244.006314
 21
206.822078
 31
0.0
  0
LINE
  5
1EA
100
AcDbEntity
  8
0
 62
     0
100
AcDbLine
 10
-246.566164
 20
205.029652
 30
0.0
 11
-249.126014
 21
203.237226
 31
0.0
  0
LINE
  5
1EB
100
AcDbEntity
  8
0
 62
     0
100
AcDbLine
 10
-251.685864
 20
201.444799
 30
0.0
 11
-254.245714
 21
199.652373
 31
0.0
  0
LINE
  5
1EC
100
AcDbEntity
  8
0
 62
     0
100
AcDbLine
 10
-256.805564
 20
197.859946
 30
0.0
 11
-259.365414
 21
196.06752
 31
0.0
  0
LINE
  5
1ED
100
AcDbEntity
  8
0
 62
     0
100
AcDbLine
 10
-261.925265
 20
194.275094
 30
0.0
 11
-264.485115
 21
192.482667
 31
0.0
  0
LINE
  5
1EE
100
AcDbEntity
  8
0
 62
     0
100
AcDbLine
 10
-267.044965
 20
190.690241
 30
0.0
 11
-269.604815
 21
188.897815
 31
0.0
  0
LINE
  5
1EF
100
AcDbEntity
  8
0
 62
     0
100
AcDbLine
 10
-272.164665
 20
187.105388
 30
0.0
 11
-274.724515
 21
185.312962
 31
0.0
  0
LINE
  5
1F0
100
AcDbEntity
  8
0
 62
     0
100
AcDbLine
 10
-277.284365
 20
183.520536
 30
0.0
 11
-279.844216
 21
181.728109
 31
0.0
  0
LINE
  5
1F1
100
AcDbEntity
  8
0
 62
     0
100
AcDbLine
 10
-282.404066
 20
179.935683
 30
0.0
 11
-284.963916
 21
178.143256
 31
0.0
  0
LINE
  5
1F2
100
AcDbEntity
  8
0
 62
     0
100
AcDbLine
 10
-287.523766
 20
176.35083
 30
0.0
 11
-290.083616
 21
174.558404
 31
0.0
  0
LINE
  5
1F3
100
AcDbEntity
  8
0
 62
     0
100
AcDbLine
 10
-292.643466
 20
172.765977
 30
0.0
 11
-295.203316
 21
170.973551
 31
0.0
  0
LINE
  5
1F4
100
AcDbEntity
  8
0
 62
     0
100
AcDbLine
 10
-297.763167
 20
169.181125
 30
0.0
 11
-300.323017
 21
167.388698
 31
0.0
  0
LINE
  5
1F5
100
AcDbEntity
  8
0
 62
     0
100
AcDbLine
 10
-302.882867
 20
165.596272
 30
0.0
 11
-305.442717
 21
163.803846
 31
0.0
  0
LINE
  5
1F6
100
AcDbEntity
  8
0
 62
     0
100
AcDbLine
 10
-308.002567
 20
162.011419
 30
0.0
 11
-310.0
 21
160.612802
 31
0.0
  0
LINE
  5
1F7
100
AcDbEntity
  8
0
 62
     0
100
AcDbLine
 10
-245.79874
 20
209.381928
 30
0.0
 11
-248.35859
 21
207.589502
 31
0.0
  0
LINE
  5
1F8
100
AcDbEntity
  8
0
 62
     0
100
AcDbLine
 10
-250.91844
 20
205.797076
 30
0.0
 11
-253.47829
 21
204.004649
 31
0.0
  0
LINE
  5
1F9
100
AcDbEntity
  8
0
 62
     0
100
AcDbLine
 10
-256.038141
 20
202.212223
 30
0.0
 11
-258.597991
 21
200.419797
 31
0.0
  0
LINE
  5
1FA
100
AcDbEntity
  8
0
 62
     0
100
AcDbLine
 10
-261.157841
 20
198.62737
 30
0.0
 11
-263.717691
 21
196.834944
 31
0.0
  0
LINE
  5
1FB
100
AcDbEntity
  8
0
 62
     0
100
AcDbLine
 10
-266.277541
 20
195.042517
 30
0.0
 11
-268.837391
 21
193.250091
 31
0.0
  0
LINE
  5
1FC
100
AcDbEntity
  8
0
 62
     0
100
AcDbLine
 10
-271.397241
 20
191.457665
 30
0.0
 11
-273.957091
 21
189.665238
 31
0.0
  0
LINE
  5
1FD
100
AcDbEntity
  8
0
 62
     0
100
AcDbLine
 10
-276.516942
 20
187.872812
 30
0.0
 11
-279.076792
 21
186.080386
 31
0.0
  0
LINE
  5
1FE
100
AcDbEntity
  8
0
 62
     0
100
AcDbLine
 10
-281.636642
 20
184.287959
 30
0.0
 11
-284.196492
 21
182.495533
 31
0.0
  0
LINE
  5
1FF
100
AcDbEntity
  8
0
 62
     0
100
AcDbLine
 10
-286.756342
 20
180.703107
 30
0.0
 11
-289.316192
 21
178.91068
 31
0.0
  0
LINE
  5
200
100
AcDbEntity
  8
0
 62
     0
100
AcDbLine
 10
-291.876042
 20
177.118254
 30
0.0
 11
-294.435893
 21
175.325827
 31
0.0
  0
LINE
  5
201
100
AcDbEntity
  8
0
 62
     0
100
AcDbLine
 10
-296.995743
 20
173.533401
 30
0.0
 11
-299.555593
 21
171.740975
 31
0.0
  0
LINE
  5
202
100
AcDbEntity
  8
0
 62
     0
100
AcDbLine
 10
-302.115443
 20
169.948548
 30
0.0
 11
-304.675293
 21
168.156122
 31
0.0
  0
LINE
  5
203
100
AcDbEntity
  8
0
 62
     0
100
AcDbLine
 10
-307.235143
 20
166.363696
 30
0.0
 11
-309.794993
 21
164.571269
 31
0.0
  0
LINE
  5
204
100
AcDbEntity
  8
0
 62
     0
100
AcDbLine
 10
-250.364313
 20
210.0
 30
0.0
 11
-252.710867
 21
208.356926
 31
0.0
  0
LINE
  5
205
100
AcDbEntity
  8
0
 62
     0
100
AcDbLine
 10
-255.270717
 20
206.564499
 30
0.0
 11
-257.830567
 21
204.772073
 31
0.0
  0
LINE
  5
206
100
AcDbEntity
  8
0
 62
     0
100
AcDbLine
 10
-260.390417
 20
202.979647
 30
0.0
 11
-262.950267
 21
201.18722
 31
0.0
  0
LINE
  5
207
100
AcDbEntity
  8
0
 62
     0
100
AcDbLine
 10
-265.510117
 20
199.394794
 30
0.0
 11
-268.069967
 21
197.602368
 31
0.0
  0
LINE
  5
208
100
AcDbEntity
  8
0
 62
     0
100
AcDbLine
 10
-270.629818
 20
195.809941
 30
0.0
 11
-273.189668
 21
194.017515
 31
0.0
  0
LINE
  5
209
100
AcDbEntity
  8
0
 62
     0
100
AcDbLine
 10
-275.749518
 20
192.225089
 30
0.0
 11
-278.309368
 21
190.432662
 31
0.0
  0
LINE
  5
20A
100
AcDbEntity
  8
0
 62
     0
100
AcDbLine
 10
-280.869218
 20
188.640236
 30
0.0
 11
-283.429068
 21
186.847809
 31
0.0
  0
LINE
  5
20B
100
AcDbEntity
  8
0
 62
     0
100
AcDbLine
 10
-285.988918
 20
185.055383
 30
0.0
 11
-288.548769
 21
183.262957
 31
0.0
  0
LINE
  5
20C
100
AcDbEntity
  8
0
 62
     0
100
AcDbLine
 10
-291.108619
 20
181.47053
 30
0.0
 11
-293.668469
 21
179.678104
 31
0.0
  0
LINE
  5
20D
100
AcDbEntity
  8
0
 62
     0
100
AcDbLine
 10
-296.228319
 20
177.885678
 30
0.0
 11
-298.788169
 21
176.093251
 31
0.0
  0
LINE
  5
20E
100
AcDbEntity
  8
0
 62
     0
100
AcDbLine
 10
-301.348019
 20
174.300825
 30
0.0
 11
-303.907869
 21
172.508399
 31
0.0
  0
LINE
  5
20F
100
AcDbEntity
  8
0
 62
     0
100
AcDbLine
 10
-306.46772
 20
170.715972
 30
0.0
 11
-309.02757
 21
168.923546
 31
0.0
  0
LINE
  5
210
100
AcDbEntity
  8
0
 62
     0
100
AcDbLine
 10
-255.812585
 20
210.0
 30
0.0
 11
-257.063143
 21
209.12435
 31
0.0
  0
LINE
  5
211
100
AcDbEntity
  8
0
 62
     0
100
AcDbLine
 10
-259.622993
 20
207.331923
 30
0.0
 11
-262.182843
 21
205.539497
 31
0.0
  0
LINE
  5
212
100
AcDbEntity
  8
0
 62
     0
100
AcDbLine
 10
-264.742694
 20
203.74707
 30
0.0
 11
-267.302544
 21
201.954644
 31
0.0
  0
LINE
  5
213
100
AcDbEntity
  8
0
 62
     0
100
AcDbLine
 10
-269.862394
 20
200.162218
 30
0.0
 11
-272.422244
 21
198.369791
 31
0.0
  0
LINE
  5
214
100
AcDbEntity
  8
0
 62
     0
100
AcDbLine
 10
-274.982094
 20
196.577365
 30
0.0
 11
-277.541944
 21
194.784939
 31
0.0
  0
LINE
  5
215
100
AcDbEntity
  8
0
 62
     0
100
AcDbLine
 10
-280.101794
 20
192.992512
 30
0.0
 11
-282.661644
 21
191.200086
 31
0.0
  0
LINE
  5
216
100
AcDbEntity
  8
0
 62
     0
100
AcDbLine
 10
-285.221495
 20
189.40766
 30
0.0
 11
-287.781345
 21
187.615233
 31
0.0
  0
LINE
  5
217
100
AcDbEntity
  8
0
 62
     0
100
AcDbLine
 10
-290.341195
 20
185.822807
 30
0.0
 11
-292.901045
 21
184.03038
 31
0.0
  0
LINE
  5
218
100
AcDbEntity
  8
0
 62
     0
100
AcDbLine
 10
-295.460895
 20
182.237954
 30
0.0
 11
-298.020745
 21
180.445528
 31
0.0
  0
LINE
  5
219
100
AcDbEntity
  8
0
 62
     0
100
AcDbLine
 10
-300.580595
 20
178.653101
 30
0.0
 11
-303.140446
 21
176.860675
 31
0.0
  0
LINE
  5
21A
100
AcDbEntity
  8
0
 62
     0
100
AcDbLine
 10
-305.700296
 20
175.068249
 30
0.0
 11
-308.260146
 21
173.275822
 31
0.0
  0
LINE
  5
21B
100
AcDbEntity
  8
0
 62
     0
100
AcDbLine
 10
-261.260856
 20
210.0
 30
0.0
 11
-261.41542
 21
209.891773
 31
0.0
  0
LINE
  5
21C
100
AcDbEntity
  8
0
 62
     0
100
AcDbLine
 10
-263.97527
 20
208.099347
 30
0.0
 11
-266.53512
 21
206.306921
 31
0.0
  0
LINE
  5
21D
100
AcDbEntity
  8
0
 62
     0
100
AcDbLine
 10
-269.09497
 20
204.514494
 30
0.0
 11
-271.65482
 21
202.722068
 31
0.0
  0
LINE
  5
21E
100
AcDbEntity
  8
0
 62
     0
100
AcDbLine
 10
-274.21467
 20
200.929642
 30
0.0
 11
-276.77452
 21
199.137215
 31
0.0
  0
LINE
  5
21F
100
AcDbEntity
  8
0
 62
     0
100
AcDbLine
 10
-279.334371
 20
197.344789
 30
0.0
 11
-281.894221
 21
195.552362
 31
0.0
  0
LINE
  5
220
100
AcDbEntity
  8
0
 62
     0
100
AcDbLine
 10
-284.454071
 20
193.759936
 30
0.0
 11
-287.013921
 21
191.96751
 31
0.0
  0
LINE
  5
221
100
AcDbEntity
  8
0
 62
     0
100
AcDbLine
 10
-289.573771
 20
190.175083
 30
0.0
 11
-292.133621
 21
188.382657
 31
0.0
  0
LINE
  5
222
100
AcDbEntity
  8
0
 62
     0
100
AcDbLine
 10
-294.693471
 20
186.590231
 30
0.0
 11
-297.253322
 21
184.797804
 31
0.0
  0
LINE
  5
223
100
AcDbEntity
  8
0
 62
     0
100
AcDbLine
 10
-299.813172
 20
183.005378
 30
0.0
 11
-302.373022
 21
181.212952
 31
0.0
  0
LINE
  5
224
100
AcDbEntity
  8
0
 62
     0
100
AcDbLine
 10
-304.932872
 20
179.420525
 30
0.0
 11
-307.492722
 21
177.628099
 31
0.0
  0
LINE
  5
225
100
AcDbEntity
  8
0
 62
     0
100
AcDbLine
 10
-268.327546
 20
208.866771
 30
0.0
 11
-270.887396
 21
207.074344
 31
0.0
  0
LINE
  5
226
100
AcDbEntity
  8
0
 62
     0
100
AcDbLine
 10
-273.447247
 20
205.281918
 30
0.0
 11
-276.007097
 21
203.489492
 31
0.0
  0
LINE
  5
227
100
AcDbEntity
  8
0
 62
     0
100
AcDbLine
 10
-278.566947
 20
201.697065
 30
0.0
 11
-281.126797
 21
199.904639
 31
0.0
  0
LINE
  5
228
100
AcDbEntity
  8
0
 62
     0
100
AcDbLine
 10
-283.686647
 20
198.112213
 30
0.0
 11
-286.246497
 21
196.319786
 31
0.0
  0
LINE
  5
229
100
AcDbEntity
  8
0
 62
     0
100
AcDbLine
 10
-288.806347
 20
194.52736
 30
0.0
 11
-291.366197
 21
192.734933
 31
0.0
  0
LINE
  5
22A
100
AcDbEntity
  8
0
 62
     0
100
AcDbLine
 10
-293.926048
 20
190.942507
 30
0.0
 11
-296.485898
 21
189.150081
 31
0.0
  0
LINE
  5
22B
100
AcDbEntity
  8
0
 62
     0
100
AcDbLine
 10
-299.045748
 20
187.357654
 30
0.0
 11
-301.605598
 21
185.565228
 31
0.0
  0
LINE
  5
22C
100
AcDbEntity
  8
0
 62
     0
100
AcDbLine
 10
-304.165448
 20
183.772802
 30
0.0
 11
-306.725298
 21
181.980375
 31
0.0
  0
LINE
  5
22D
100
AcDbEntity
  8
0
 62
     0
100
AcDbLine
 10
-309.285148
 20
180.187949
 30
0.0
 11
-310.0
 21
179.687405
 31
0.0
  0
LINE
  5
22E
100
AcDbEntity
  8
0
 62
     0
100
AcDbLine
 10
-272.679823
 20
209.634195
 30
0.0
 11
-275.239673
 21
207.841768
 31
0.0
  0
LINE
  5
22F
100
AcDbEntity
  8
0
 62
     0
100
AcDbLine
 10
-277.799523
 20
206.049342
 30
0.0
 11
-280.359373
 21
204.256915
 31
0.0
  0
LINE
  5
230
100
AcDbEntity
  8
0
 62
     0
100
AcDbLine
 10
-282.919223
 20
202.464489
 30
0.0
 11
-285.479073
 21
200.672063
 31
0.0
  0
LINE
  5
231
100
AcDbEntity
  8
0
 62
     0
100
AcDbLine
 10
-288.038924
 20
198.879636
 30
0.0
 11
-290.598774
 21
197.08721
 31
0.0
  0
LINE
  5
232
100
AcDbEntity
  8
0
 62
     0
100
AcDbLine
 10
-293.158624
 20
195.294784
 30
0.0
 11
-295.718474
 21
193.502357
 31
0.0
  0
LINE
  5
233
100
AcDbEntity
  8
0
 62
     0
100
AcDbLine
 10
-298.278324
 20
191.709931
 30
0.0
 11
-300.838174
 21
189.917505
 31
0.0
  0
LINE
  5
234
100
AcDbEntity
  8
0
 62
     0
100
AcDbLine
 10
-303.398024
 20
188.125078
 30
0.0
 11
-305.957875
 21
186.332652
 31
0.0
  0
LINE
  5
235
100
AcDbEntity
  8
0
 62
     0
100
AcDbLine
 10
-308.517725
 20
184.540225
 30
0.0
 11
-310.0
 21
183.502325
 31
0.0
  0
LINE
  5
236
100
AcDbEntity
  8
0
 62
     0
100
AcDbLine
 10
-277.60567
 20
210.0
 30
0.0
 11
-279.591949
 21
208.609192
 31
0.0
  0
LINE
  5
237
100
AcDbEntity
  8
0
 62
     0
100
AcDbLine
 10
-282.1518
 20
206.816766
 30
0.0
 11
-284.71165
 21
205.024339
 31
0.0
  0
LINE
  5
238
100
AcDbEntity
  8
0
 62
     0
100
AcDbLine
 10
-287.2715
 20
203.231913
 30
0.0
 11
-289.83135
 21
201.439486
 31
0.0
  0
LINE
  5
239
100
AcDbEntity
  8
0
 62
     0
100
AcDbLine
 10
-292.3912
 20
199.64706
 30
0.0
 11
-294.95105
 21
197.854634
 31
0.0
  0
LINE
  5
23A
100
AcDbEntity
  8
0
 62
     0
100
AcDbLine
 10
-297.5109
 20
196.062207
 30
0.0
 11
-300.07075
 21
194.269781
 31
0.0
  0
LINE
  5
23B
100
AcDbEntity
  8
0
 62
     0
100
AcDbLine
 10
-302.630601
 20
192.477355
 30
0.0
 11
-305.190451
 21
190.684928
 31
0.0
  0
LINE
  5
23C
100
AcDbEntity
  8
0
 62
     0
100
AcDbLine
 10
-307.750301
 20
188.892502
 30
0.0
 11
-310.0
 21
187.317246
 31
0.0
  0
LINE
  5
23D
100
AcDbEntity
  8
0
 62
     0
100
AcDbLine
 10
-283.053941
 20
210.0
 30
0.0
 11
-283.944226
 21
209.376616
 31
0.0
  0
LINE
  5
23E
100
AcDbEntity
  8
0
 62
     0
100
AcDbLine
 10
-286.504076
 20
207.584189
 30
0.0
 11
-289.063926
 21
205.791763
 31
0.0
  0
LINE
  5
23F
100
AcDbEntity
  8
0
 62
     0
100
AcDbLine
 10
-291.623776
 20
203.999337
 30
0.0
 11
-294.183626
 21
202.20691
 31
0.0
  0
LINE
  5
240
100
AcDbEntity
  8
0
 62
     0
100
AcDbLine
 10
-296.743477
 20
200.414484
 30
0.0
 11
-299.303327
 21
198.622058
 31
0.0
  0
LINE
  5
241
100
AcDbEntity
  8
0
 62
     0
100
AcDbLine
 10
-301.863177
 20
196.829631
 30
0.0
 11
-304.423027
 21
195.037205
 31
0.0
  0
LINE
  5
242
100
AcDbEntity
  8
0
 62
     0
100
AcDbLine
 10
-306.982877
 20
193.244778
 30
0.0
 11
-309.542727
 21
191.452352
 31
0.0
  0
LINE
  5
243
100
AcDbEntity
  8
0
 62
     0
100
AcDbLine
 10
-290.856353
 20
208.351613
 30
0.0
 11
-293.416203
 21
206.559187
 31
0.0
  0
LINE
  5
244
100
AcDbEntity
  8
0
 62
     0
100
AcDbLine
 10
-295.976053
 20
204.76676
 30
0.0
 11
-298.535903
 21
202.974334
 31
0.0
  0
LINE
  5
245
100
AcDbEntity
  8
0
 62
     0
100
AcDbLine
 10
-301.095753
 20
201.181908
 30
0.0
 11
-303.655603
 21
199.389481
 31
0.0
  0
LINE
  5
246
100
AcDbEntity
  8
0
 62
     0
100
AcDbLine
 10
-306.215453
 20
197.597055
 30
0.0
 11
-308.775303
 21
195.804629
 31
0.0
  0
LINE
  5
247
100
AcDbEntity
  8
0
 62
     0
100
AcDbLine
 10
-295.208629
 20
209.119037
 30
0.0
 11
-297.768479
 21
207.326611
 31
0.0
  0
LINE
  5
248
100
AcDbEntity
  8
0
 62
     0
100
AcDbLine
 10
-300.328329
 20
205.534184
 30
0.0
 11
-302.888179
 21
203.741758
 31
0.0
  0
LINE
  5
249
100
AcDbEntity
  8
0
 62
     0
100
AcDbLine
 10
-305.44803
 20
201.949331
 30
0.0
 11
-308.00788
 21
200.156905
 31
0.0
  0
LINE
  5
24A
100
AcDbEntity
  8
0
 62
     0
100
AcDbLine
 10
-299.560906
 20
209.886461
 30
0.0
 11
-302.120756
 21
208.094034
 31
0.0
  0
LINE
  5
24B
100
AcDbEntity
  8
0
 62
     0
100
AcDbLine
 10
-304.680606
 20
206.301608
 30
0.0
 11
-307.240456
 21
204.509182
 31
0.0
  0
LINE
  5
24C
100
AcDbEntity
  8
0
 62
     0
100
AcDbLine
 10
-309.800306
 20
202.716755
 30
0.0
 11
-310.0
 21
202.576928
 31
0.0
  0
LINE
  5
24D
100
AcDbEntity
  8
0
 62
     0
100
AcDbLine
 10
-304.847026
 20
210.0
 30
0.0
 11
-306.473032
 21
208.861458
 31
0.0
  0
LINE
  5
24E
100
AcDbEntity
  8
0
 62
     0
100
AcDbLine
 10
-309.032882
 20
207.069032
 30
0.0
 11
-310.0
 21
206.391849
 31
0.0
  0
ENDBLK
  5
250
100
AcDbEntity
  8
0
100
AcDbBlockEnd
  0
BLOCK
  5
4F0
100
AcDbEntity
  8
0
100
AcDbBlockBegin
  2
90_SP79021-7180-57
 70
     0
 10
0.0
 20
0.0
 30
0.0
  3
90_SP79021-7180-57
  1

  0
LWPOLYLINE
  5
2BC
100
AcDbEntity
  8
STALPROFIL
100
AcDbPolyline
 90
        9
 70
     0
 43
1.8
 10
-153.2
 20
-29.1
 42
-0.414214
 10
-154.1
 20
-28.2
 10
-154.1
 20
-1.8
 42
-0.414214
 10
-153.2
 20
-0.9
 10
23.2
 20
-0.9
 42
-0.414214
 10
24.1
 20
-1.8
 10
24.1
 20
-28.2
 42
-0.414214
 10
23.2
 20
-29.1
 10
10.0
 20
-29.1
 42
-0.071574
  0
LWPOLYLINE
  5
2BD
100
AcDbEntity
  8
SPKONTUR
100
AcDbPolyline
 90
        9
 70
     0
 43
0.0
 10
-153.2
 20
-30.0
 42
-0.414214
 10
-155.0
 20
-28.2
 10
-155.0
 20
-1.8
 42
-0.414214
 10
-153.2
 20
0.0
 10
23.2
 20
0.0
 42
-0.414214
 10
25.0
 20
-1.8
 10
25.0
 20
-28.2
 42
-0.414214
 10
23.2
 20
-30.0
 10
10.0
 20
-30.0
 42
-0.071574
  0
LINE
  5
2BE
100
AcDbEntity
  8
SPKONTUR
100
AcDbLine
 10
-155.0
 20
-90.0
 30
0.0
 11
45.0
 21
-90.0
 31
0.0
  0
LWPOLYLINE
  5
2BF
100
AcDbEntity
  8
STALPROFIL
100
AcDbPolyline
 90
        2
 70
     0
 43
3.0
 10
-155.0
 20
-88.5
 10
45.0
 20
-88.5
  0
INSERT
  5
2C0
100
AcDbEntity
  8
GLAS_MED_FOGNING
100
AcDbBlockReference
  2
*X2
 10
155.0
 20
-380.0
 30
0.0
1001
ACAD
1000
HATCH
1002
{
1070
    16
1000
DASH
1040
25.0
1040
3.752458
1002
}
  0
LINE
  5
4E9
100
AcDbEntity
  8
GLAS_MED_FOGNING
100
AcDbLine
 10
25.0
 20
-87.0
 30
0.0
 11
-155.0
 21
-87.0
 31
0.0
  0
LINE
  5
4EA
100
AcDbEntity
  8
GLAS_MED_FOGNING
100
AcDbLine
 10
-155.0
 20
-30.0
 30
0.0
 11
25.0
 21
-30.0
 31
0.0
  0
LINE
  5
4EB
100
AcDbEntity
  8
GLAS_MED_FOGNING
100
AcDbLine
 10
25.0
 20
-30.0
 30
0.0
 11
25.0
 21
-87.0
 31
0.0
  0
LWPOLYLINE
  5
4EC
100
AcDbEntity
  8
GLAS_MED_FOGNING
100
AcDbPolyline
 90
        3
 70
     0
 43
0.0
 10
23.2
 20
-30.0
 10
25.0
 20
-30.0
 10
25.0
 20
-87.0
  0
LWPOLYLINE
  5
4ED
100
AcDbEntity
  8
GLAS_MED_FOGNING
100
AcDbPolyline
 90
        3
 70
     0
 43
0.0
 10
-153.2
 20
-30.0
 10
-155.0
 20
-30.0
 10
-155.0
 20
-87.0
  0
LWPOLYLINE
  5
4EE
100
AcDbEntity
  8
STALPROFIL
100
AcDbPolyline
 90
        2
 70
     0
 43
1.8
 10
-140.0
 20
-29.1
 10
-153.2
 20
-29.1
 42
-0.728012
  0
LWPOLYLINE
  5
4EF
100
AcDbEntity
  8
SPKONTUR
100
AcDbPolyline
 90
        2
 70
     0
 43
0.0
 10
-140.0
 20
-30.0
 10
-153.2
 20
-30.0
 42
-0.728012
  0
ENDBLK
  5
4F1
100
AcDbEntity
  8
0
100
AcDbBlockEnd
  0
BLOCK
  5
258
100
AcDbEntity
  8
0
100
AcDbBlockBegin
  2
90_SP79022-7180-57
 70
     0
 10
0.0
 20
0.0
 30
0.0
  3
90_SP79022-7180-57
  1

  0
LINE
  5
20
100
AcDbEntity
  8
SPKONTUR
100
AcDbLine
 10
-175.0
 20
-90.0
 30
0.0
 11
45.0
 21
-90.0
 31
0.0
  0
LWPOLYLINE
  5
22
100
AcDbEntity
  8
STALPROFIL
100
AcDbPolyline
 90
        2
 70
     0
 43
3.0
 10
-175.0
 20
-88.5
 10
45.0
 20
-88.5
  0
LINE
  5
24
100
AcDbEntity
  8
GLAS_MED_FOGNING
100
AcDbLine
 10
25.0
 20
-87.0
 30
0.0
 11
-155.0
 21
-87.0
 31
0.0
  0
LINE
  5
25
100
AcDbEntity
  8
GLAS_MED_FOGNING
100
AcDbLine
 10
-155.0
 20
-30.0
 30
0.0
 11
25.0
 21
-30.0
 31
0.0
  0
INSERT
  5
26
100
AcDbEntity
  8
GLAS_MED_FOGNING
100
AcDbBlockReference
  2
*X3
 10
155.0
 20
-240.0
 30
0.0
1001
ACAD
1000
HATCH
1002
{
1070
    16
1000
DASH
1040
25.0
1040
3.752458
1002
}
  0
LWPOLYLINE
  5
251
100
AcDbEntity
  8
STALPROFIL
100
AcDbPolyline
 90
        9
 70
     0
 43
1.8
 10
-153.2
 20
-29.1
 42
-0.414214
 10
-154.1
 20
-28.2
 10
-154.1
 20
-1.8
 42
-0.414214
 10
-153.2
 20
-0.9
 10
23.2
 20
-0.9
 42
-0.414214
 10
24.1
 20
-1.8
 10
24.1
 20
-28.2
 42
-0.414214
 10
23.2
 20
-29.1
 10
10.0
 20
-29.1
 42
-0.071574
  0
LWPOLYLINE
  5
252
100
AcDbEntity
  8
SPKONTUR
100
AcDbPolyline
 90
        9
 70
     0
 43
0.0
 10
-153.2
 20
-30.0
 42
-0.414214
 10
-155.0
 20
-28.2
 10
-155.0
 20
-1.8
 42
-0.414214
 10
-153.2
 20
0.0
 10
23.2
 20
0.0
 42
-0.414214
 10
25.0
 20
-1.8
 10
25.0
 20
-28.2
 42
-0.414214
 10
23.2
 20
-30.0
 10
10.0
 20
-30.0
 42
-0.071574
  0
LWPOLYLINE
  5
253
100
AcDbEntity
  8
GLAS_MED_FOGNING
100
AcDbPolyline
 90
        3
 70
     0
 43
0.0
 10
23.2
 20
-30.0
 10
25.0
 20
-30.0
 10
25.0
 20
-87.0
  0
LINE
  5
254
100
AcDbEntity
  8
GLAS_MED_FOGNING
100
AcDbLine
 10
25.0
 20
-30.0
 30
0.0
 11
25.0
 21
-87.0
 31
0.0
  0
LWPOLYLINE
  5
255
100
AcDbEntity
  8
GLAS_MED_FOGNING
100
AcDbPolyline
 90
        3
 70
     0
 43
0.0
 10
-153.2
 20
-30.0
 10
-155.0
 20
-30.0
 10
-155.0
 20
-87.0
  0
LWPOLYLINE
  5
256
100
AcDbEntity
  8
SPKONTUR
100
AcDbPolyline
 90
        2
 70
     0
 43
0.0
 10
-140.0
 20
-30.0
 10
-153.2
 20
-30.0
 42
-0.728012
  0
LWPOLYLINE
  5
257
100
AcDbEntity
  8
STALPROFIL
100
AcDbPolyline
 90
        2
 70
     0
 43
1.8
 10
-140.0
 20
-29.1
 10
-153.2
 20
-29.1
 42
-0.728012
  0
ENDBLK
  5
259
100
AcDbEntity
  8
0
100
AcDbBlockEnd
  0
BLOCK
  5
545
100
AcDbEntity
  8
0
100
AcDbBlockBegin
  2
90_SP79021-720-57
 70
     0
 10
0.0
 20
0.0
 30
0.0
  3
90_SP79021-720-57
  1

  0
LWPOLYLINE
  5
4F4
100
AcDbEntity
  8
SPKONTUR
100
AcDbPolyline
 90
        8
 70
     1
 43
0.0
 10
-8.2
 20
-30.0
 42
-0.414214
 10
-10.0
 20
-28.2
 10
-10.0
 20
-1.8
 42
-0.414214
 10
-8.2
 20
0.0
 10
8.2
 20
0.0
 42
-0.414214
 10
10.0
 20
-1.8
 10
10.0
 20
-28.2
 42
-0.414214
 10
8.2
 20
-30.0
  0
LWPOLYLINE
  5
4F5
100
AcDbEntity
  8
STALPROFIL
100
AcDbPolyline
 90
        8
 70
     1
 43
1.8
 10
-8.2
 20
-29.1
 42
-0.414214
 10
-9.1
 20
-28.2
 10
-9.1
 20
-1.8
 42
-0.414214
 10
-8.2
 20
-0.9
 10
8.2
 20
-0.9
 42
-0.414214
 10
9.1
 20
-1.8
 10
9.1
 20
-28.2
 42
-0.414214
 10
8.2
 20
-29.1
  0
INSERT
  5
4F6
100
AcDbEntity
  8
GLAS_MED_FOGNING
100
AcDbBlockReference
  2
*X0
 10
-2580.0
 20
-1360.0
 30
0.0
1001
ACAD
1000
HATCH
1002
{
1070
    16
1000
DASH
1040
25.0
1040
3.752458
1002
}
  0
LWPOLYLINE
  5
53E
100
AcDbEntity
  8
GLAS_MED_FOGNING
100
AcDbPolyline
 90
        3
 70
     0
 43
0.0
 10
-8.2
 20
-30.0
 10
-10.0
 20
-30.0
 10
-10.0
 20
-87.0
  0
LINE
  5
53F
100
AcDbEntity
  8
GLAS_MED_FOGNING
100
AcDbLine
 10
10.0
 20
-30.0
 30
0.0
 11
10.0
 21
-87.0
 31
0.0
  0
LWPOLYLINE
  5
540
100
AcDbEntity
  8
GLAS_MED_FOGNING
100
AcDbPolyline
 90
        3
 70
     0
 43
0.0
 10
8.2
 20
-30.0
 10
10.0
 20
-30.0
 10
10.0
 20
-87.0
  0
LINE
  5
541
100
AcDbEntity
  8
GLAS_MED_FOGNING
100
AcDbLine
 10
10.0
 20
-87.0
 30
0.0
 11
-10.0
 21
-87.0
 31
0.0
  0
LWPOLYLINE
  5
542
100
AcDbEntity
  8
STALPROFIL
100
AcDbPolyline
 90
        2
 70
     0
 43
3.0
 10
-10.0
 20
-88.5
 10
30.0
 20
-88.5
  0
LINE
  5
543
100
AcDbEntity
  8
SPKONTUR
100
AcDbLine
 10
30.0
 20
-90.0
 30
0.0
 11
-10.0
 21
-90.0
 31
0.0
  0
LINE
  5
544
100
AcDbEntity
  8
GLAS_MED_FOGNING
100
AcDbLine
 10
-10.0
 20
-30.0
 30
0.0
 11
10.0
 21
-30.0
 31
0.0
  0
ENDBLK
  5
546
100
AcDbEntity
  8
0
100
AcDbBlockEnd
  0
BLOCK
  5
2B1
100
AcDbEntity
  8
0
100
AcDbBlockBegin
  2
90_SP79022-720-57
 70
     0
 10
0.0
 20
0.0
 30
0.0
  3
90_SP79022-720-57
  1

  0
LWPOLYLINE
  5
25F
100
AcDbEntity
  8
GLAS_MED_FOGNING
100
AcDbPolyline
 90
        3
 70
     0
 43
0.0
 10
8.2
 20
-30.0
 10
10.0
 20
-30.0
 10
10.0
 20
-87.0
  0
LINE
  5
260
100
AcDbEntity
  8
GLAS_MED_FOGNING
100
AcDbLine
 10
10.0
 20
-30.0
 30
0.0
 11
10.0
 21
-87.0
 31
0.0
  0
LWPOLYLINE
  5
261
100
AcDbEntity
  8
GLAS_MED_FOGNING
100
AcDbPolyline
 90
        3
 70
     0
 43
0.0
 10
-8.2
 20
-30.0
 10
-10.0
 20
-30.0
 10
-10.0
 20
-87.0
  0
INSERT
  5
262
100
AcDbEntity
  8
GLAS_MED_FOGNING
100
AcDbBlockReference
  2
*X1
 10
-2670.0
 20
-1360.0
 30
0.0
1001
ACAD
1000
HATCH
1002
{
1070
    16
1000
DASH
1040
25.0
1040
3.752458
1002
}
  0
LINE
  5
2AB
100
AcDbEntity
  8
GLAS_MED_FOGNING
100
AcDbLine
 10
10.0
 20
-87.0
 30
0.0
 11
-10.0
 21
-87.0
 31
0.0
  0
LINE
  5
2AC
100
AcDbEntity
  8
SPKONTUR
100
AcDbLine
 10
-30.0
 20
-90.0
 30
0.0
 11
30.0
 21
-90.0
 31
0.0
  0
LWPOLYLINE
  5
2AD
100
AcDbEntity
  8
STALPROFIL
100
AcDbPolyline
 90
        2
 70
     0
 43
3.0
 10
-30.0
 20
-88.5
 10
30.0
 20
-88.5
  0
LINE
  5
2AE
100
AcDbEntity
  8
GLAS_MED_FOGNING
100
AcDbLine
 10
-10.0
 20
-30.0
 30
0.0
 11
10.0
 21
-30.0
 31
0.0
  0
LWPOLYLINE
  5
2AF
100
AcDbEntity
  8
STALPROFIL
100
AcDbPolyline
 90
        8
 70
     1
 43
1.8
 10
-8.2
 20
-29.1
 42
-0.414214
 10
-9.1
 20
-28.2
 10
-9.1
 20
-1.8
 42
-0.414214
 10
-8.2
 20
-0.9
 10
8.2
 20
-0.9
 42
-0.414214
 10
9.1
 20
-1.8
 10
9.1
 20
-28.2
 42
-0.414214
 10
8.2
 20
-29.1
  0
LWPOLYLINE
  5
2B0
100
AcDbEntity
  8
SPKONTUR
100
AcDbPolyline
 90
        8
 70
     1
 43
0.0
 10
-8.2
 20
-30.0
 42
-0.414214
 10
-10.0
 20
-28.2
 10
-10.0
 20
-1.8
 42
-0.414214
 10
-8.2
 20
0.0
 10
8.2
 20
0.0
 42
-0.414214
 10
10.0
 20
-1.8
 10
10.0
 20
-28.2
 42
-0.414214
 10
8.2
 20
-30.0
  0
ENDBLK
  5
2B2
100
AcDbEntity
  8
0
100
AcDbBlockEnd
  0
ENDSEC
  0
SECTION
  2
ENTITIES
  0
INSERT
  5
1E
100
AcDbEntity
  8
GLAS_MED_FOGNING
100
AcDbBlockReference
  2
90_SP79022-7180-57
 10
-90.0
 20
380.0
 30
0.0
  0
TEXT
  5
25B
100
AcDbEntity
  8
0
  6
BYBLOCK
 62
     6
100
AcDbText
 10
-313.0
 20
298.110977
 30
0.0
 40
5.25
  1
SP 79022/720/57
 50
90.0
 41
0.8
  7
ROMANS
 72
     4
 11
-315.25
 21
328.710977
 31
0.0
100
AcDbText
  0
INSERT
  5
25D
100
AcDbEntity
  8
GLAS_MED_FOGNING
100
AcDbBlockReference
  2
90_SP79022-720-57
 10
-335.0
 20
380.0
 30
0.0
  0
LWPOLYLINE
  5
2B3
100
AcDbEntity
  8
RAM
 62
     5
100
AcDbPolyline
 90
        4
 70
     1
 43
0.0
 10
-20.0
 20
35.0
 10
-20.0
 20
560.0
 10
-380.0
 20
560.0
 10
-380.0
 20
35.0
  0
TEXT
  5
2B5
100
AcDbEntity
  8
TEXT
100
AcDbText
 10
-87.666667
 20
40.0
 30
0.0
 40
5.0
  1
SP 79000  %%USIDA 28
 41
0.8
  7
ROMANS
 72
     2
 11
-25.0
 21
40.0
 31
0.0
100
AcDbText
  0
TEXT
  5
2B7
100
AcDbEntity
  8
TEXT
100
AcDbText
 10
-83.857143
 20
25.0
 30
0.0
 40
5.0
  1
Filnamn  %%U790SID28
 41
0.8
  7
ROMANS
 72
     2
 11
-25.0
 21
25.0
 31
0.0
100
AcDbText
  0
TEXT
  5
2B8
100
AcDbEntity
  8
0
  6
BYBLOCK
 62
     6
100
AcDbText
 10
-188.889023
 20
508.0
 30
0.0
 40
5.25
  1
SP 79021/7180/57
 41
0.8
  7
ROMANS
 72
     4
 11
-156.289023
 21
510.25
 31
0.0
100
AcDbText
  0
TEXT
  5
2B9
100
AcDbEntity
  8
0
  6
BYBLOCK
 62
     6
100
AcDbText
 10
-188.889023
 20
363.0
 30
0.0
 40
5.25
  1
SP 79022/7180/57
 41
0.8
  7
ROMANS
 72
     4
 11
-156.289023
 21
365.25
 31
0.0
100
AcDbText
  0
INSERT
  5
2BA
100
AcDbEntity
  8
GLAS_MED_FOGNING
100
AcDbBlockReference
  2
90_SP79021-7180-57
 10
-90.0
 20
525.0
 30
0.0
  0
INSERT
  5
4F2
100
AcDbEntity
  8
GLAS_MED_FOGNING
100
AcDbBlockReference
  2
90_SP79021-720-57
 10
-335.0
 20
525.0
 30
0.0
  0
TEXT
  5
547
100
AcDbEntity
  8
0
  6
BYBLOCK
 62
     6
100
AcDbText
 10
-313.0
 20
443.110977
 30
0.0
 40
5.25
  1
SP 79021/720/57
 50
90.0
 41
0.8
  7
ROMANS
 72
     4
 11
-315.25
 21
473.710977
 31
0.0
100
AcDbText
  0
ENDSEC
  0
SECTION
  2
OBJECTS
  0
DICTIONARY
  5
1A
100
AcDbDictionary
  3
ACAD_GROUP
350
18
  3
ACAD_MLINESTYLE
350
19
  3
CONTENTDICTIONARY
350
54E
  0
DICTIONARY
  5
18
102
{ACAD_REACTORS
330
1A
102
}
100
AcDbDictionary
  0
DICTIONARY
  5
19
102
{ACAD_REACTORS
330
1A
102
}
100
AcDbDictionary
  3
STANDARD
350
1C
  0
DICTIONARY
  5
54E
102
{ACAD_REACTORS
330
1A
102
}
100
AcDbDictionary
  0
MLINESTYLE
  5
1C
102
{ACAD_REACTORS
330
19
102
}
100
AcDbMlineStyle
  2
STANDARD
 70
     0
  3

 62
     0
 51
90.0
 52
90.0
 71
     2
 49
0.5
 62
   256
  6
BYLAYER
 49
-0.5
 62
   256
  6
BYLAYER
  0
ENDSEC
  0
EOF
