  0
SECTION
  2
HEADER
  9
$ACADVER
  1
AC1014
  9
$ACADMAINTVER
 70
     0
  9
$DWGCODEPAGE
  3
ANSI_1252
  9
$INSBASE
 10
-5.0
 20
20.0
 30
0.0
  9
$EXTMIN
 10
-380.0
 20
35.0
 30
0.0
  9
$EXTMAX
 10
-20.0
 20
560.0
 30
0.0
  9
$LIMMIN
 10
0.0
 20
0.0
  9
$LIMMAX
 10
840.0
 20
600.0
  9
$ORTHOMODE
 70
     0
  9
$REGENMODE
 70
     1
  9
$FILLMODE
 70
     1
  9
$QTEXTMODE
 70
     0
  9
$MIRRTEXT
 70
     1
  9
$DRAGMODE
 70
     2
  9
$LTSCALE
 40
5.0
  9
$OSMODE
 70
     0
  9
$ATTMODE
 70
     1
  9
$TEXTSIZE
 40
3.15
  9
$TRACEWID
 40
0.05
  9
$TEXTSTYLE
  7
STANDARD
  9
$CLAYER
  8
GLAS_MED_FOGNING
  9
$CELTYPE
  6
BYLAYER
  9
$CECOLOR
 62
   256
  9
$CELTSCALE
 40
1.0
  9
$DELOBJ
 70
     1
  9
$DISPSILH
 70
     0
  9
$DIMSCALE
 40
1.0
  9
$DIMASZ
 40
0.0
  9
$DIMEXO
 40
1.0
  9
$DIMDLI
 40
10.0
  9
$DIMRND
 40
0.0
  9
$DIMDLE
 40
0.0
  9
$DIMEXE
 40
2.0
  9
$DIMTP
 40
0.0
  9
$DIMTM
 40
0.0
  9
$DIMTXT
 40
3.5
  9
$DIMCEN
 40
2.5
  9
$DIMTSZ
 40
1.0
  9
$DIMTOL
 70
     0
  9
$DIMLIM
 70
     0
  9
$DIMTIH
 70
     0
  9
$DIMTOH
 70
     0
  9
$DIMSE1
 70
     0
  9
$DIMSE2
 70
     0
  9
$DIMTAD
 70
     1
  9
$DIMZIN
 70
     8
  9
$DIMBLK
  1

  9
$DIMASO
 70
     1
  9
$DIMSHO
 70
     1
  9
$DIMPOST
  1

  9
$DIMAPOST
  1

  9
$DIMALT
 70
     0
  9
$DIMALTD
 70
     2
  9
$DIMALTF
 40
25.4
  9
$DIMLFAC
 40
1.0
  9
$DIMTOFL
 70
     1
  9
$DIMTVP
 40
0.0
  9
$DIMTIX
 70
     0
  9
$DIMSOXD
 70
     0
  9
$DIMSAH
 70
     0
  9
$DIMBLK1
  1

  9
$DIMBLK2
  1

  9
$DIMSTYLE
  2
STANDARD
  9
$DIMCLRD
 70
     0
  9
$DIMCLRE
 70
     0
  9
$DIMCLRT
 70
     6
  9
$DIMTFAC
 40
1.0
  9
$DIMGAP
 40
0.1
  9
$DIMJUST
 70
     0
  9
$DIMSD1
 70
     0
  9
$DIMSD2
 70
     0
  9
$DIMTOLJ
 70
     1
  9
$DIMTZIN
 70
     0
  9
$DIMALTZ
 70
     0
  9
$DIMALTTZ
 70
     0
  9
$DIMFIT
 70
     3
  9
$DIMUPT
 70
     0
  9
$DIMUNIT
 70
     2
  9
$DIMDEC
 70
     4
  9
$DIMTDEC
 70
     4
  9
$DIMALTU
 70
     2
  9
$DIMALTTD
 70
     2
  9
$DIMTXSTY
  7
STANDARD
  9
$DIMAUNIT
 70
     0
  9
$LUNITS
 70
     2
  9
$LUPREC
 70
     2
  9
$SKETCHINC
 40
0.1
  9
$FILLETRAD
 40
0.5
  9
$AUNITS
 70
     0
  9
$AUPREC
 70
     4
  9
$MENU
  1
acad
  9
$ELEVATION
 40
0.0
  9
$PELEVATION
 40
0.0
  9
$THICKNESS
 40
0.0
  9
$LIMCHECK
 70
     0
  9
$BLIPMODE
 70
     1
  9
$CHAMFERA
 40
10.0
  9
$CHAMFERB
 40
10.0
  9
$CHAMFERC
 40
0.0
  9
$CHAMFERD
 40
0.0
  9
$SKPOLY
 70
     0
  9
$TDCREATE
 40
2450619.743846180
  9
$TDUPDATE
 40
2452293.552745601
  9
$TDINDWG
 40
0.0025569444
  9
$TDUSRTIMER
 40
0.0025569444
  9
$USRTIMER
 70
     1
  9
$ANGBASE
 50
0.0
  9
$ANGDIR
 70
     0
  9
$PDMODE
 70
    35
  9
$PDSIZE
 40
0.0
  9
$PLINEWID
 40
0.0
  9
$COORDS
 70
     2
  9
$SPLFRAME
 70
     0
  9
$SPLINETYPE
 70
     6
  9
$SPLINESEGS
 70
     8
  9
$ATTDIA
 70
     0
  9
$ATTREQ
 70
     1
  9
$HANDLING
 70
     1
  9
$HANDSEED
  5
43E
  9
$SURFTAB1
 70
     6
  9
$SURFTAB2
 70
     6
  9
$SURFTYPE
 70
     6
  9
$SURFU
 70
     6
  9
$SURFV
 70
     6
  9
$UCSNAME
  2

  9
$UCSORG
 10
0.0
 20
0.0
 30
0.0
  9
$UCSXDIR
 10
1.0
 20
0.0
 30
0.0
  9
$UCSYDIR
 10
0.0
 20
1.0
 30
0.0
  9
$PUCSNAME
  2

  9
$PUCSORG
 10
0.0
 20
0.0
 30
0.0
  9
$PUCSXDIR
 10
1.0
 20
0.0
 30
0.0
  9
$PUCSYDIR
 10
0.0
 20
1.0
 30
0.0
  9
$USERI1
 70
     0
  9
$USERI2
 70
     0
  9
$USERI3
 70
     0
  9
$USERI4
 70
     0
  9
$USERI5
 70
     0
  9
$USERR1
 40
0.0
  9
$USERR2
 40
0.0
  9
$USERR3
 40
0.0
  9
$USERR4
 40
0.0
  9
$USERR5
 40
0.0
  9
$WORLDVIEW
 70
     1
  9
$SHADEDGE
 70
     3
  9
$SHADEDIF
 70
    70
  9
$TILEMODE
 70
     1
  9
$MAXACTVP
 70
    16
  9
$PINSBASE
 10
719.70665
 20
-50.0
 30
626.379895
  9
$PLIMCHECK
 70
     0
  9
$PEXTMIN
 10
1.000000E+20
 20
1.000000E+20
 30
1.000000E+20
  9
$PEXTMAX
 10
-1.000000E+20
 20
-1.000000E+20
 30
-1.000000E+20
  9
$PLIMMIN
 10
0.0
 20
0.0
  9
$PLIMMAX
 10
420.0
 20
297.0
  9
$UNITMODE
 70
     0
  9
$VISRETAIN
 70
     0
  9
$PLINEGEN
 70
     0
  9
$PSLTSCALE
 70
     1
  9
$TREEDEPTH
 70
  3020
  9
$PICKSTYLE
 70
     1
  9
$CMLSTYLE
  2
STANDARD
  9
$CMLJUST
 70
     0
  9
$CMLSCALE
 40
1.0
  9
$PROXYGRAPHICS
 70
     1
  9
$MEASUREMENT
 70
     0
  0
ENDSEC
  0
SECTION
  2
CLASSES
  0
CLASS
  1
LWPOLYLINE
  2
AcDbPolyline
  3
"AutoCAD"
 90
        0
280
     0
281
     1
  0
ENDSEC
  0
SECTION
  2
TABLES
  0
TABLE
  2
VPORT
  5
12
100
AcDbSymbolTable
 70
     1
  0
VPORT
  5
439
100
AcDbSymbolTableRecord
100
AcDbViewportTableRecord
  2
*ACTIVE
 70
     0
 10
0.0
 20
0.0
 11
1.0
 21
1.0
 12
-3.357754
 22
345.103102
 13
0.0
 23
0.0
 14
5.0
 24
5.0
 15
10.0
 25
10.0
 16
0.0
 26
0.0
 36
1.0
 17
0.0
 27
0.0
 37
0.0
 40
894.543418
 41
1.47625
 42
50.0
 43
0.0
 44
0.0
 50
0.0
 51
0.0
 71
     0
 72
   100
 73
     1
 74
     1
 75
     0
 76
     0
 77
     0
 78
     0
  0
ENDTAB
  0
TABLE
  2
LTYPE
  5
D
100
AcDbSymbolTable
 70
     2
  0
LTYPE
  5
E
100
AcDbSymbolTableRecord
100
AcDbLinetypeTableRecord
  2
BYBLOCK
 70
     0
  3

 72
    65
 73
     0
 40
0.0
  0
LTYPE
  5
F
100
AcDbSymbolTableRecord
100
AcDbLinetypeTableRecord
  2
BYLAYER
 70
     0
  3

 72
    65
 73
     0
 40
0.0
  0
LTYPE
  5
5
100
AcDbSymbolTableRecord
100
AcDbLinetypeTableRecord
  2
CONTINUOUS
 70
     0
  3
Solid line
 72
    65
 73
     0
 40
0.0
  0
LTYPE
  5
23
100
AcDbSymbolTableRecord
100
AcDbLinetypeTableRecord
  2
DASHDOT
 70
     0
  3
__ . __ . __ . __ . __ . __ . __ . __ . __ . __
 72
    65
 73
     4
 40
1.0
 49
0.5
 74
     0
 49
-0.25
 74
     0
 49
0.0
 74
     0
 49
-0.25
 74
     0
  0
ENDTAB
  0
TABLE
  2
LAYER
  5
A
100
AcDbSymbolTable
 70
     8
  0
LAYER
  5
4
100
AcDbSymbolTableRecord
100
AcDbLayerTableRecord
  2
0
 70
     0
 62
     7
  6
CONTINUOUS
  0
LAYER
  5
4C
100
AcDbSymbolTableRecord
100
AcDbLayerTableRecord
  2
STALPROFIL
 70
     0
 62
     1
  6
CONTINUOUS
  0
LAYER
  5
4A
100
AcDbSymbolTableRecord
100
AcDbLayerTableRecord
  2
SPKONTUR
 70
     0
 62
     7
  6
CONTINUOUS
  0
LAYER
  5
1B
100
AcDbSymbolTableRecord
100
AcDbLayerTableRecord
  2
GLAS_MED_FOGNING
 70
     0
 62
     2
  6
CONTINUOUS
  0
LAYER
  5
A1
100
AcDbSymbolTableRecord
100
AcDbLayerTableRecord
  2
TEXT
 70
     0
 62
     6
  6
CONTINUOUS
  0
LAYER
  5
21
100
AcDbSymbolTableRecord
100
AcDbLayerTableRecord
  2
RAM
 70
     0
 62
     5
  6
CONTINUOUS
  0
LAYER
  5
36
100
AcDbSymbolTableRecord
100
AcDbLayerTableRecord
  2
CENTRUM
 70
     0
 62
     3
  6
DASHDOT
  0
LAYER
  5
136
100
AcDbSymbolTableRecord
100
AcDbLayerTableRecord
  2
ISOLERING
 70
     0
 62
     3
  6
CONTINUOUS
  0
ENDTAB
  0
TABLE
  2
STYLE
  5
B
100
AcDbSymbolTable
 70
     2
  0
STYLE
  5
C
100
AcDbSymbolTableRecord
100
AcDbTextStyleTableRecord
  2
STANDARD
 70
     0
 40
0.0
 41
1.0
 50
0.0
 71
     0
 42
5.0
  3
txt
  4

  0
STYLE
  5
A2
100
AcDbSymbolTableRecord
100
AcDbTextStyleTableRecord
  2
ROMANS
 70
     0
 40
0.0
 41
0.8
 50
0.0
 71
     0
 42
5.0
  3
romans
  4

  0
ENDTAB
  0
TABLE
  2
VIEW
  5
10
100
AcDbSymbolTable
 70
     0
  0
ENDTAB
  0
TABLE
  2
UCS
  5
11
100
AcDbSymbolTable
 70
     0
  0
ENDTAB
  0
TABLE
  2
APPID
  5
14
100
AcDbSymbolTable
 70
     1
  0
APPID
  5
15
100
AcDbSymbolTableRecord
100
AcDbRegAppTableRecord
  2
ACAD
 70
     0
  0
ENDTAB
  0
TABLE
  2
DIMSTYLE
  5
16
100
AcDbSymbolTable
 70
     1
  0
DIMSTYLE
105
1D
100
AcDbSymbolTableRecord
100
AcDbDimStyleTableRecord
  2
STANDARD
 70
     0
  3

  4

  5

  6

  7

 40
1.0
 41
0.18
 42
0.0625
 43
0.38
 44
0.18
 45
0.0
 46
0.0
 47
0.0
 48
0.0
140
0.18
141
0.09
142
0.0
143
25.4
144
1.0
145
0.0
146
1.0
147
0.09
 71
     0
 72
     0
 73
     1
 74
     1
 75
     0
 76
     0
 77
     0
 78
     0
170
     0
171
     2
172
     0
173
     0
174
     0
175
     0
176
     0
177
     0
178
     0
270
     2
271
     4
272
     4
273
     2
274
     2
340
C
275
     0
280
     0
281
     0
282
     0
283
     1
284
     0
285
     0
286
     0
287
     3
288
     0
  0
ENDTAB
  0
TABLE
  2
BLOCK_RECORD
  5
1
100
AcDbSymbolTable
 70
    43
  0
BLOCK_RECORD
  5
2
100
AcDbSymbolTableRecord
100
AcDbBlockTableRecord
  2
*MODEL_SPACE
  0
BLOCK_RECORD
  5
7
100
AcDbSymbolTableRecord
100
AcDbBlockTableRecord
  2
*PAPER_SPACE
  0
BLOCK_RECORD
  5
1F
100
AcDbSymbolTableRecord
100
AcDbBlockTableRecord
  2
SIDA
  0
BLOCK_RECORD
  5
34
100
AcDbSymbolTableRecord
100
AcDbBlockTableRecord
  2
SP40020
  0
BLOCK_RECORD
  5
C9
100
AcDbSymbolTableRecord
100
AcDbBlockTableRecord
  2
SP44020
  0
BLOCK_RECORD
  5
32
100
AcDbSymbolTableRecord
100
AcDbBlockTableRecord
  2
SP45020
  0
BLOCK_RECORD
  5
3B7
100
AcDbSymbolTableRecord
100
AcDbBlockTableRecord
  2
SP42520
  0
BLOCK_RECORD
  5
30F
100
AcDbSymbolTableRecord
100
AcDbBlockTableRecord
  2
SP43020
  0
BLOCK_RECORD
  5
286
100
AcDbSymbolTableRecord
100
AcDbBlockTableRecord
  2
SP43520
  0
BLOCK_RECORD
  5
7A
100
AcDbSymbolTableRecord
100
AcDbBlockTableRecord
  2
*X7
  0
BLOCK_RECORD
  5
54
100
AcDbSymbolTableRecord
100
AcDbBlockTableRecord
  2
*X8
  0
BLOCK_RECORD
  5
51
100
AcDbSymbolTableRecord
100
AcDbBlockTableRecord
  2
GLASH5
  0
BLOCK_RECORD
  5
78
100
AcDbSymbolTableRecord
100
AcDbBlockTableRecord
  2
GLASV6_18
  0
BLOCK_RECORD
  5
3E5
100
AcDbSymbolTableRecord
100
AcDbBlockTableRecord
  2
*X11
  0
BLOCK_RECORD
  5
F8
100
AcDbSymbolTableRecord
100
AcDbBlockTableRecord
  2
*X12
  0
BLOCK_RECORD
  5
379
100
AcDbSymbolTableRecord
100
AcDbBlockTableRecord
  2
*X13
  0
BLOCK_RECORD
  5
A7
100
AcDbSymbolTableRecord
100
AcDbBlockTableRecord
  2
*X14
  0
BLOCK_RECORD
  5
D6
100
AcDbSymbolTableRecord
100
AcDbBlockTableRecord
  2
*X15
  0
BLOCK_RECORD
  5
A4
100
AcDbSymbolTableRecord
100
AcDbBlockTableRecord
  2
GLASV4_18
  0
BLOCK_RECORD
  5
D1
100
AcDbSymbolTableRecord
100
AcDbBlockTableRecord
  2
GLASH3
  0
BLOCK_RECORD
  5
139
100
AcDbSymbolTableRecord
100
AcDbBlockTableRecord
  2
SP40520
  0
BLOCK_RECORD
  5
169
100
AcDbSymbolTableRecord
100
AcDbBlockTableRecord
  2
*X19
  0
BLOCK_RECORD
  5
145
100
AcDbSymbolTableRecord
100
AcDbBlockTableRecord
  2
*X20
  0
BLOCK_RECORD
  5
141
100
AcDbSymbolTableRecord
100
AcDbBlockTableRecord
  2
FYLLNV
  0
BLOCK_RECORD
  5
165
100
AcDbSymbolTableRecord
100
AcDbBlockTableRecord
  2
FYLLNH
  0
BLOCK_RECORD
  5
373
100
AcDbSymbolTableRecord
100
AcDbBlockTableRecord
  2
90_SP45020
  0
BLOCK_RECORD
  5
32E
100
AcDbSymbolTableRecord
100
AcDbBlockTableRecord
  2
90_SP45020DK
  0
BLOCK_RECORD
  5
3DF
100
AcDbSymbolTableRecord
100
AcDbBlockTableRecord
  2
90_SP44020
  0
BLOCK_RECORD
  5
3D2
100
AcDbSymbolTableRecord
100
AcDbBlockTableRecord
  2
90_SP44020DK
  0
BLOCK_RECORD
  5
134
100
AcDbSymbolTableRecord
100
AcDbBlockTableRecord
  2
90_SP40520FYLLN
  0
BLOCK_RECORD
  5
291
100
AcDbSymbolTableRecord
100
AcDbBlockTableRecord
  2
90_SP43520DK
  0
BLOCK_RECORD
  5
31C
100
AcDbSymbolTableRecord
100
AcDbBlockTableRecord
  2
90_SP43020DK
  0
BLOCK_RECORD
  5
3C3
100
AcDbSymbolTableRecord
100
AcDbBlockTableRecord
  2
90_SP42520DK
  0
BLOCK_RECORD
  5
342
100
AcDbSymbolTableRecord
100
AcDbBlockTableRecord
  2
*X31
  0
BLOCK_RECORD
  5
22E
100
AcDbSymbolTableRecord
100
AcDbBlockTableRecord
  2
*X32
  0
BLOCK_RECORD
  5
22B
100
AcDbSymbolTableRecord
100
AcDbBlockTableRecord
  2
90_SP43520
  0
BLOCK_RECORD
  5
2AF
100
AcDbSymbolTableRecord
100
AcDbBlockTableRecord
  2
*X34
  0
BLOCK_RECORD
  5
2AC
100
AcDbSymbolTableRecord
100
AcDbBlockTableRecord
  2
90_SP43020
  0
BLOCK_RECORD
  5
1AE
100
AcDbSymbolTableRecord
100
AcDbBlockTableRecord
  2
*X36
  0
BLOCK_RECORD
  5
3B0
100
AcDbSymbolTableRecord
100
AcDbBlockTableRecord
  2
90_SP42520
  0
BLOCK_RECORD
  5
33A
100
AcDbSymbolTableRecord
100
AcDbBlockTableRecord
  2
SP_90_45720
  0
BLOCK_RECORD
  5
29E
100
AcDbSymbolTableRecord
100
AcDbBlockTableRecord
  2
90_SP45720
  0
BLOCK_RECORD
  5
197
100
AcDbSymbolTableRecord
100
AcDbBlockTableRecord
  2
42520
  0
BLOCK_RECORD
  5
1A9
100
AcDbSymbolTableRecord
100
AcDbBlockTableRecord
  2
90_SP42520-2
  0
BLOCK_RECORD
  5
195
100
AcDbSymbolTableRecord
100
AcDbBlockTableRecord
  2
90-SP42520_2DK
  0
ENDTAB
  0
ENDSEC
  0
SECTION
  2
BLOCKS
  0
BLOCK
  5
3
100
AcDbEntity
  8
0
100
AcDbBlockBegin
  2
*MODEL_SPACE
 70
     0
 10
0.0
 20
0.0
 30
0.0
  3
*MODEL_SPACE
  1

  0
ENDBLK
  5
6
100
AcDbEntity
  8
0
100
AcDbBlockEnd
  0
BLOCK
  5
8
100
AcDbEntity
 67
     1
  8
0
100
AcDbBlockBegin
  2
*PAPER_SPACE
 70
     0
 10
0.0
 20
0.0
 30
0.0
  3
*PAPER_SPACE
  1

  0
ENDBLK
  5
9
100
AcDbEntity
 67
     1
  8
0
100
AcDbBlockEnd
  0
BLOCK
  5
2F
100
AcDbEntity
  8
0
100
AcDbBlockBegin
  2
SIDA
 70
     0
 10
0.0
 20
0.0
 30
0.0
  3
SIDA
  1

  0
LWPOLYLINE
  5
20
100
AcDbEntity
  8
RAM
 62
     5
100
AcDbPolyline
 90
        4
 70
     1
 43
0.0
 10
-20.0
 20
35.0
 10
-20.0
 20
560.0
 10
-380.0
 20
560.0
 10
-380.0
 20
35.0
  0
LINE
  5
22
100
AcDbEntity
  8
RAM
  6
DASHDOT
 62
     6
100
AcDbLine
 10
-260.0
 20
307.5
 30
0.0
 11
-260.0
 21
287.5
 31
0.0
  0
LINE
  5
24
100
AcDbEntity
  8
RAM
  6
DASHDOT
 62
     6
100
AcDbLine
 10
-270.0
 20
167.5
 30
0.0
 11
-250.0
 21
167.5
 31
0.0
  0
LINE
  5
25
100
AcDbEntity
  8
RAM
  6
DASHDOT
 62
     6
100
AcDbLine
 10
-260.0
 20
177.5
 30
0.0
 11
-260.0
 21
157.5
 31
0.0
  0
LINE
  5
26
100
AcDbEntity
  8
RAM
  6
DASHDOT
 62
     6
100
AcDbLine
 10
-270.0
 20
297.5
 30
0.0
 11
-250.0
 21
297.5
 31
0.0
  0
LINE
  5
27
100
AcDbEntity
  8
RAM
  6
DASHDOT
 62
     6
100
AcDbLine
 10
-270.0
 20
427.5
 30
0.0
 11
-250.0
 21
427.5
 31
0.0
  0
LINE
  5
28
100
AcDbEntity
  8
RAM
  6
DASHDOT
 62
     6
100
AcDbLine
 10
-260.0
 20
437.5
 30
0.0
 11
-260.0
 21
417.5
 31
0.0
  0
LINE
  5
29
100
AcDbEntity
  8
RAM
  6
DASHDOT
 62
     6
100
AcDbLine
 10
-140.0
 20
307.5
 30
0.0
 11
-140.0
 21
287.5
 31
0.0
  0
LINE
  5
2A
100
AcDbEntity
  8
RAM
  6
DASHDOT
 62
     6
100
AcDbLine
 10
-140.0
 20
177.5
 30
0.0
 11
-140.0
 21
157.5
 31
0.0
  0
LINE
  5
2B
100
AcDbEntity
  8
RAM
  6
DASHDOT
 62
     6
100
AcDbLine
 10
-150.0
 20
167.5
 30
0.0
 11
-130.0
 21
167.5
 31
0.0
  0
LINE
  5
2C
100
AcDbEntity
  8
RAM
  6
DASHDOT
 62
     6
100
AcDbLine
 10
-150.0
 20
297.5
 30
0.0
 11
-130.0
 21
297.5
 31
0.0
  0
LINE
  5
2D
100
AcDbEntity
  8
RAM
  6
DASHDOT
 62
     6
100
AcDbLine
 10
-150.0
 20
427.5
 30
0.0
 11
-130.0
 21
427.5
 31
0.0
  0
LINE
  5
2E
100
AcDbEntity
  8
RAM
  6
DASHDOT
 62
     6
100
AcDbLine
 10
-140.0
 20
437.5
 30
0.0
 11
-140.0
 21
417.5
 31
0.0
  0
ENDBLK
  5
30
100
AcDbEntity
  8
0
100
AcDbBlockEnd
  0
BLOCK
  5
47
100
AcDbEntity
  8
0
100
AcDbBlockBegin
  2
SP40020
 70
     0
 10
0.0
 20
0.0
 30
0.0
  3
SP40020
  1

  0
LWPOLYLINE
  5
35
100
AcDbEntity
  8
CENTRUM
100
AcDbPolyline
 90
        4
 70
     0
 43
0.0
 10
-13.0
 20
34.06657
 10
-13.0
 20
30.997255
 10
-13.0
 20
22.0
 10
-13.0
 20
18.0
  0
ARC
  5
37
100
AcDbEntity
  8
GLAS_MED_FOGNING
100
AcDbCircle
 10
-13.0
 20
18.928391
 30
0.0
 40
12.068864
100
AcDbArc
 50
66.544514
 51
113.455486
  0
LINE
  5
38
100
AcDbEntity
  8
GLAS_MED_FOGNING
100
AcDbLine
 10
-9.267949
 20
25.0
 30
0.0
 11
-16.73205
 21
25.0
 31
0.0
  0
LINE
  5
39
100
AcDbEntity
  8
GLAS_MED_FOGNING
100
AcDbLine
 10
-8.196152
 20
30.0
 30
0.0
 11
-17.803848
 21
30.0
 31
0.0
  0
LINE
  5
3A
100
AcDbEntity
  8
GLAS_MED_FOGNING
100
AcDbLine
 10
-9.267949
 20
26.0
 30
0.0
 11
-16.73205
 21
26.0
 31
0.0
  0
LINE
  5
3B
100
AcDbEntity
  8
GLAS_MED_FOGNING
100
AcDbLine
 10
-16.73205
 20
26.0
 30
0.0
 11
-16.73205
 21
25.0
 31
0.0
  0
LINE
  5
3C
100
AcDbEntity
  8
GLAS_MED_FOGNING
100
AcDbLine
 10
-17.803848
 20
30.0
 30
0.0
 11
-16.73205
 21
26.0
 31
0.0
  0
LINE
  5
3D
100
AcDbEntity
  8
GLAS_MED_FOGNING
100
AcDbLine
 10
-9.267949
 20
26.0
 30
0.0
 11
-9.267949
 21
25.0
 31
0.0
  0
LINE
  5
3E
100
AcDbEntity
  8
GLAS_MED_FOGNING
100
AcDbLine
 10
-16.0
 20
25.0
 30
0.0
 11
-16.0
 21
22.0
 31
0.0
  0
LINE
  5
3F
100
AcDbEntity
  8
GLAS_MED_FOGNING
100
AcDbLine
 10
-15.5
 20
25.0
 30
0.0
 11
-15.5
 21
21.0
 31
0.0
  0
LINE
  5
40
100
AcDbEntity
  8
GLAS_MED_FOGNING
100
AcDbLine
 10
-10.5
 20
25.0
 30
0.0
 11
-10.5
 21
21.0
 31
0.0
  0
LINE
  5
41
100
AcDbEntity
  8
GLAS_MED_FOGNING
100
AcDbLine
 10
-10.0
 20
25.0
 30
0.0
 11
-10.0
 21
22.0
 31
0.0
  0
LINE
  5
42
100
AcDbEntity
  8
GLAS_MED_FOGNING
100
AcDbLine
 10
-8.196152
 20
30.0
 30
0.0
 11
-9.267949
 21
26.0
 31
0.0
  0
LINE
  5
43
100
AcDbEntity
  8
GLAS_MED_FOGNING
100
AcDbLine
 10
-10.0
 20
22.0
 30
0.0
 11
-10.5
 21
21.0
 31
0.0
  0
LINE
  5
44
100
AcDbEntity
  8
GLAS_MED_FOGNING
100
AcDbLine
 10
-16.0
 20
22.0
 30
0.0
 11
-15.5
 21
21.0
 31
0.0
  0
LINE
  5
45
100
AcDbEntity
  8
GLAS_MED_FOGNING
100
AcDbLine
 10
-10.0
 20
22.0
 30
0.0
 11
-16.0
 21
22.0
 31
0.0
  0
LINE
  5
46
100
AcDbEntity
  8
GLAS_MED_FOGNING
100
AcDbLine
 10
-10.5
 20
21.0
 30
0.0
 11
-15.5
 21
21.0
 31
0.0
  0
ENDBLK
  5
48
100
AcDbEntity
  8
0
100
AcDbBlockEnd
  0
BLOCK
  5
CD
100
AcDbEntity
  8
0
100
AcDbBlockBegin
  2
SP44020
 70
     0
 10
0.0
 20
0.0
 30
0.0
  3
SP44020
  1

  0
LWPOLYLINE
  5
CA
100
AcDbEntity
  8
SPKONTUR
100
AcDbPolyline
 90
       14
 70
     0
 43
0.0
 10
-8.196152
 20
30.0
 10
-9.0
 20
27.0
 42
0.414214
 10
-7.0
 20
25.0
 10
-2.0
 20
25.0
 42
0.414214
 10
0.0
 20
27.0
 10
0.0
 20
43.0
 42
0.414214
 10
-2.0
 20
45.0
 10
-38.0
 20
45.0
 42
0.414214
 10
-40.0
 20
43.0
 10
-40.0
 20
27.0
 42
0.414214
 10
-38.0
 20
25.0
 10
-19.0
 20
25.0
 42
0.414214
 10
-17.0
 20
27.0
 10
-17.803848
 20
30.0
  0
LWPOLYLINE
  5
CB
100
AcDbEntity
  8
STALPROFIL
100
AcDbPolyline
 90
       14
 70
     0
 43
1.25
 10
-7.592449
 20
29.838238
 10
-8.372969
 20
26.925296
 42
0.398381
 10
-7.0
 20
25.625
 10
-2.0
 20
25.625
 42
0.414214
 10
-0.625
 20
27.0
 10
-0.625
 20
43.0
 42
0.414214
 10
-2.0
 20
44.375
 10
-38.0
 20
44.375
 42
0.414214
 10
-39.375
 20
43.0
 10
-39.375
 20
27.0
 42
0.414214
 10
-38.0
 20
25.625
 10
-19.0
 20
25.625
 42
0.398381
 10
-17.627031
 20
26.925296
 10
-18.407551
 20
29.838238
  0
INSERT
  5
CC
100
AcDbEntity
  8
GLAS_MED_FOGNING
100
AcDbBlockReference
  2
SP40020
 10
0.0
 20
0.0
 30
0.0
  0
ENDBLK
  5
CE
100
AcDbEntity
  8
0
100
AcDbBlockEnd
  0
BLOCK
  5
4D
100
AcDbEntity
  8
0
100
AcDbBlockBegin
  2
SP45020
 70
     0
 10
0.0
 20
0.0
 30
0.0
  3
SP45020
  1

  0
INSERT
  5
33
100
AcDbEntity
  8
GLAS_MED_FOGNING
100
AcDbBlockReference
  2
SP40020
 10
0.0
 20
0.0
 30
0.0
  0
LWPOLYLINE
  5
49
100
AcDbEntity
  8
SPKONTUR
100
AcDbPolyline
 90
       14
 70
     0
 43
0.0
 10
-8.196152
 20
30.0
 10
-9.0
 20
27.0
 42
0.414214
 10
-7.0
 20
25.0
 10
-2.0
 20
25.0
 42
0.414214
 10
0.0
 20
27.0
 10
0.0
 20
43.0
 42
0.414214
 10
-2.0
 20
45.0
 10
-48.0
 20
45.0
 42
0.414214
 10
-50.0
 20
43.0
 10
-50.0
 20
27.0
 42
0.414214
 10
-48.0
 20
25.0
 10
-19.0
 20
25.0
 42
0.414214
 10
-17.0
 20
27.0
 10
-17.803848
 20
30.0
  0
LWPOLYLINE
  5
4B
100
AcDbEntity
  8
STALPROFIL
100
AcDbPolyline
 90
       14
 70
     0
 43
1.25
 10
-7.592449
 20
29.838238
 10
-8.372969
 20
26.925296
 42
0.398381
 10
-7.0
 20
25.625
 10
-2.0
 20
25.625
 42
0.414214
 10
-0.625
 20
27.0
 10
-0.625
 20
43.0
 42
0.414214
 10
-2.0
 20
44.375
 10
-48.0
 20
44.375
 42
0.414214
 10
-49.375
 20
43.0
 10
-49.375
 20
27.0
 42
0.414214
 10
-48.0
 20
25.625
 10
-19.0
 20
25.625
 42
0.398381
 10
-17.627031
 20
26.925296
 10
-18.407551
 20
29.838238
  0
ENDBLK
  5
4E
100
AcDbEntity
  8
0
100
AcDbBlockEnd
  0
BLOCK
  5
3BB
100
AcDbEntity
  8
0
100
AcDbBlockBegin
  2
SP42520
 70
     0
 10
0.0
 20
0.0
 30
0.0
  3
SP42520
  1

  0
INSERT
  5
3B8
100
AcDbEntity
  8
0
100
AcDbBlockReference
  2
SP40020
 10
0.0
 20
0.0
 30
0.0
  0
LWPOLYLINE
  5
3B9
100
AcDbEntity
  8
STALPROFIL
100
AcDbPolyline
 90
       14
 70
     0
 43
1.25
 10
-7.592449
 20
29.838238
 10
-8.372969
 20
26.925296
 42
0.398381
 10
-7.0
 20
25.625
 10
-2.0
 20
25.625
 42
0.414214
 10
-0.625
 20
27.0
 10
-0.625
 20
43.0
 42
0.414214
 10
-2.0
 20
44.375
 10
-23.0
 20
44.375
 42
0.414214
 10
-24.375
 20
43.0
 10
-24.375
 20
27.0
 42
0.414214
 10
-23.0
 20
25.625
 10
-19.0
 20
25.625
 42
0.398381
 10
-17.627031
 20
26.925296
 10
-18.407551
 20
29.838238
  0
LWPOLYLINE
  5
3BA
100
AcDbEntity
  8
SPKONTUR
100
AcDbPolyline
 90
       14
 70
     0
 43
0.0
 10
-8.196152
 20
30.0
 10
-9.0
 20
27.0
 42
0.414214
 10
-7.0
 20
25.0
 10
-2.0
 20
25.0
 42
0.414214
 10
0.0
 20
27.0
 10
0.0
 20
43.0
 42
0.414214
 10
-2.0
 20
45.0
 10
-23.0
 20
45.0
 42
0.414214
 10
-25.0
 20
43.0
 10
-25.0
 20
27.0
 42
0.414214
 10
-23.0
 20
25.0
 10
-19.0
 20
25.0
 42
0.414214
 10
-17.0
 20
27.0
 10
-17.803848
 20
30.0
  0
ENDBLK
  5
3BC
100
AcDbEntity
  8
0
100
AcDbBlockEnd
  0
BLOCK
  5
313
100
AcDbEntity
  8
0
100
AcDbBlockBegin
  2
SP43020
 70
     0
 10
0.0
 20
0.0
 30
0.0
  3
SP43020
  1

  0
LWPOLYLINE
  5
310
100
AcDbEntity
  8
SPKONTUR
100
AcDbPolyline
 90
       14
 70
     0
 43
0.0
 10
-8.196152
 20
30.0
 10
-9.0
 20
27.0
 42
0.414214
 10
-7.0
 20
25.0
 10
-2.0
 20
25.0
 42
0.414214
 10
0.0
 20
27.0
 10
0.0
 20
43.0
 42
0.414214
 10
-2.0
 20
45.0
 10
-28.0
 20
45.0
 42
0.414214
 10
-30.0
 20
43.0
 10
-30.0
 20
27.0
 42
0.414214
 10
-28.0
 20
25.0
 10
-19.0
 20
25.0
 42
0.414214
 10
-17.0
 20
27.0
 10
-17.803848
 20
30.0
  0
LWPOLYLINE
  5
311
100
AcDbEntity
  8
STALPROFIL
100
AcDbPolyline
 90
       14
 70
     0
 43
1.25
 10
-7.592449
 20
29.838238
 10
-8.372969
 20
26.925296
 42
0.398381
 10
-7.0
 20
25.625
 10
-2.0
 20
25.625
 42
0.414214
 10
-0.625
 20
27.0
 10
-0.625
 20
43.0
 42
0.414214
 10
-2.0
 20
44.375
 10
-28.0
 20
44.375
 42
0.414214
 10
-29.375
 20
43.0
 10
-29.375
 20
27.0
 42
0.414214
 10
-28.0
 20
25.625
 10
-19.0
 20
25.625
 42
0.398381
 10
-17.627031
 20
26.925296
 10
-18.407551
 20
29.838238
  0
INSERT
  5
312
100
AcDbEntity
  8
GLAS_MED_FOGNING
100
AcDbBlockReference
  2
SP40020
 10
0.0
 20
0.0
 30
0.0
  0
ENDBLK
  5
314
100
AcDbEntity
  8
0
100
AcDbBlockEnd
  0
BLOCK
  5
28A
100
AcDbEntity
  8
0
100
AcDbBlockBegin
  2
SP43520
 70
     0
 10
0.0
 20
0.0
 30
0.0
  3
SP43520
  1

  0
LWPOLYLINE
  5
287
100
AcDbEntity
  8
SPKONTUR
100
AcDbPolyline
 90
       14
 70
     0
 43
0.0
 10
-8.196152
 20
30.0
 10
-9.0
 20
27.0
 42
0.414214
 10
-7.0
 20
25.0
 10
-2.0
 20
25.0
 42
0.414214
 10
0.0
 20
27.0
 10
0.0
 20
43.0
 42
0.414214
 10
-2.0
 20
45.0
 10
-33.0
 20
45.0
 42
0.414214
 10
-35.0
 20
43.0
 10
-35.0
 20
27.0
 42
0.414214
 10
-33.0
 20
25.0
 10
-19.0
 20
25.0
 42
0.414214
 10
-17.0
 20
27.0
 10
-17.803848
 20
30.0
  0
LWPOLYLINE
  5
288
100
AcDbEntity
  8
STALPROFIL
100
AcDbPolyline
 90
       14
 70
     0
 43
1.25
 10
-7.592449
 20
29.838238
 10
-8.372969
 20
26.925296
 42
0.398381
 10
-7.0
 20
25.625
 10
-2.0
 20
25.625
 42
0.414214
 10
-0.625
 20
27.0
 10
-0.625
 20
43.0
 42
0.414214
 10
-2.0
 20
44.375
 10
-33.0
 20
44.375
 42
0.414214
 10
-34.375
 20
43.0
 10
-34.375
 20
27.0
 42
0.414214
 10
-33.0
 20
25.625
 10
-19.0
 20
25.625
 42
0.398381
 10
-17.627031
 20
26.925296
 10
-18.407551
 20
29.838238
  0
INSERT
  5
289
100
AcDbEntity
  8
GLAS_MED_FOGNING
100
AcDbBlockReference
  2
SP40020
 10
0.0
 20
0.0
 30
0.0
  0
ENDBLK
  5
28B
100
AcDbEntity
  8
0
100
AcDbBlockEnd
  0
BLOCK
  5
8D
100
AcDbEntity
  8
0
100
AcDbBlockBegin
  2
*X7
 70
     1
 10
0.0
 20
0.0
 30
0.0
  3
*X7
  1

  0
LINE
  5
7B
100
AcDbEntity
  8
0
 62
     0
100
AcDbLine
 10
-59.163263
 20
41.509483
 30
0.0
 11
-59.163263
 21
41.509483
 31
0.0
  0
LINE
  5
7C
100
AcDbEntity
  8
0
 62
     0
100
AcDbLine
 10
-56.584865
 20
43.487958
 30
0.0
 11
-56.584865
 21
43.487958
 31
0.0
  0
LINE
  5
7D
100
AcDbEntity
  8
0
 62
     0
100
AcDbLine
 10
-58.785303
 20
29.948541
 30
0.0
 11
-58.785303
 21
29.948541
 31
0.0
  0
LINE
  5
7E
100
AcDbEntity
  8
0
 62
     0
100
AcDbLine
 10
-58.659316
 20
26.094893
 30
0.0
 11
-58.659316
 21
26.094893
 31
0.0
  0
LINE
  5
7F
100
AcDbEntity
  8
0
 62
     0
100
AcDbLine
 10
-56.080918
 20
28.073368
 30
0.0
 11
-56.080918
 21
28.073368
 31
0.0
  0
LINE
  5
80
100
AcDbEntity
  8
0
 62
     0
100
AcDbLine
 10
-57.165758
 20
44.256996
 30
0.0
 11
-57.165758
 21
44.256996
 31
0.0
  0
LINE
  5
81
100
AcDbEntity
  8
0
 62
     0
100
AcDbLine
 10
-56.124741
 20
44.394049
 30
0.0
 11
-56.124741
 21
44.394049
 31
0.0
  0
LINE
  5
82
100
AcDbEntity
  8
0
 62
     0
100
AcDbLine
 10
-61.359856
 20
28.169929
 30
0.0
 11
-61.359856
 21
28.169929
 31
0.0
  0
LINE
  5
83
100
AcDbEntity
  8
0
 62
     0
100
AcDbLine
 10
-59.733886
 20
28.383992
 30
0.0
 11
-59.733886
 21
28.383992
 31
0.0
  0
LINE
  5
84
100
AcDbEntity
  8
0
 62
     0
100
AcDbLine
 10
-57.017327
 20
28.741634
 30
0.0
 11
-57.017327
 21
28.741634
 31
0.0
  0
LINE
  5
85
100
AcDbEntity
  8
0
 62
     0
100
AcDbLine
 10
-55.97631
 20
28.878687
 30
0.0
 11
-55.97631
 21
28.878687
 31
0.0
  0
LINE
  5
86
100
AcDbEntity
  8
0
 62
     0
100
AcDbLine
 10
-56.715696
 20
42.523035
 30
0.0
 11
-56.715696
 21
42.523035
 31
0.0
  0
LINE
  5
87
100
AcDbEntity
  8
0
 62
     0
100
AcDbLine
 10
-55.749526
 20
29.97
 30
0.0
 11
-55.749526
 21
29.97
 31
0.0
  0
LINE
  5
88
100
AcDbEntity
  8
0
 62
     0
100
AcDbLine
 10
-61.134419
 20
29.421382
 30
0.0
 11
-61.134419
 21
29.421382
 31
0.0
  0
LINE
  5
89
100
AcDbEntity
  8
0
 62
     0
100
AcDbLine
 10
-58.098209
 20
27.487104
 30
0.0
 11
-58.098209
 21
27.487104
 31
0.0
  0
LINE
  5
8A
100
AcDbEntity
  8
0
 62
     0
100
AcDbLine
 10
-57.663397
 20
43.320028
 30
0.0
 11
-57.663397
 21
43.320028
 31
0.0
  0
LINE
  5
8B
100
AcDbEntity
  8
0
 62
     0
100
AcDbLine
 10
-57.294758
 20
42.982232
 30
0.0
 11
-57.294758
 21
42.982232
 31
0.0
  0
LINE
  5
8C
100
AcDbEntity
  8
0
 62
     0
100
AcDbLine
 10
-55.554784
 20
41.38784
 30
0.0
 11
-55.554784
 21
41.38784
 31
0.0
  0
ENDBLK
  5
8E
100
AcDbEntity
  8
0
100
AcDbBlockEnd
  0
BLOCK
  5
67
100
AcDbEntity
  8
0
100
AcDbBlockBegin
  2
*X8
 70
     1
 10
0.0
 20
0.0
 30
0.0
  3
*X8
  1

  0
LINE
  5
55
100
AcDbEntity
  8
0
 62
     0
100
AcDbLine
 10
-38.293936
 20
41.721799
 30
0.0
 11
-38.293936
 21
41.721799
 31
0.0
  0
LINE
  5
56
100
AcDbEntity
  8
0
 62
     0
100
AcDbLine
 10
-37.915976
 20
30.160857
 30
0.0
 11
-37.915976
 21
30.160857
 31
0.0
  0
LINE
  5
57
100
AcDbEntity
  8
0
 62
     0
100
AcDbLine
 10
-37.789989
 20
26.307209
 30
0.0
 11
-37.789989
 21
26.307209
 31
0.0
  0
LINE
  5
58
100
AcDbEntity
  8
0
 62
     0
100
AcDbLine
 10
-35.092588
 20
28.376998
 30
0.0
 11
-35.092588
 21
28.376998
 31
0.0
  0
LINE
  5
59
100
AcDbEntity
  8
0
 62
     0
100
AcDbLine
 10
-39.171129
 20
41.447733
 30
0.0
 11
-39.171129
 21
41.447733
 31
0.0
  0
LINE
  5
5A
100
AcDbEntity
  8
0
 62
     0
100
AcDbLine
 10
-38.130112
 20
41.584785
 30
0.0
 11
-38.130112
 21
41.584785
 31
0.0
  0
LINE
  5
5B
100
AcDbEntity
  8
0
 62
     0
100
AcDbLine
 10
-36.504142
 20
41.798848
 30
0.0
 11
-36.504142
 21
41.798848
 31
0.0
  0
LINE
  5
5C
100
AcDbEntity
  8
0
 62
     0
100
AcDbLine
 10
-39.974104
 20
46.52032
 30
0.0
 11
-39.974104
 21
46.52032
 31
0.0
  0
LINE
  5
5D
100
AcDbEntity
  8
0
 62
     0
100
AcDbLine
 10
-39.022698
 20
25.932371
 30
0.0
 11
-39.022698
 21
25.932371
 31
0.0
  0
LINE
  5
5E
100
AcDbEntity
  8
0
 62
     0
100
AcDbLine
 10
-37.981681
 20
26.069423
 30
0.0
 11
-37.981681
 21
26.069423
 31
0.0
  0
LINE
  5
5F
100
AcDbEntity
  8
0
 62
     0
100
AcDbLine
 10
-36.355712
 20
26.283486
 30
0.0
 11
-36.355712
 21
26.283486
 31
0.0
  0
LINE
  5
60
100
AcDbEntity
  8
0
 62
     0
100
AcDbLine
 10
-38.030845
 20
42.55699
 30
0.0
 11
-38.030845
 21
42.55699
 31
0.0
  0
LINE
  5
61
100
AcDbEntity
  8
0
 62
     0
100
AcDbLine
 10
-37.064675
 20
30.003954
 30
0.0
 11
-37.064675
 21
30.003954
 31
0.0
  0
LINE
  5
62
100
AcDbEntity
  8
0
 62
     0
100
AcDbLine
 10
-36.221284
 20
29.466655
 30
0.0
 11
-36.221284
 21
29.466655
 31
0.0
  0
LINE
  5
63
100
AcDbEntity
  8
0
 62
     0
100
AcDbLine
 10
-39.413358
 20
27.521058
 30
0.0
 11
-39.413358
 21
27.521058
 31
0.0
  0
LINE
  5
64
100
AcDbEntity
  8
0
 62
     0
100
AcDbLine
 10
-35.254096
 20
30.050252
 30
0.0
 11
-35.254096
 21
30.050252
 31
0.0
  0
LINE
  5
65
100
AcDbEntity
  8
0
 62
     0
100
AcDbLine
 10
-39.431016
 20
41.14226
 30
0.0
 11
-39.431016
 21
41.14226
 31
0.0
  0
LINE
  5
66
100
AcDbEntity
  8
0
 62
     0
100
AcDbLine
 10
-39.157736
 20
26.362713
 30
0.0
 11
-39.157736
 21
26.362713
 31
0.0
  0
ENDBLK
  5
68
100
AcDbEntity
  8
0
100
AcDbBlockEnd
  0
BLOCK
  5
75
100
AcDbEntity
  8
0
100
AcDbBlockBegin
  2
GLASH5
 70
     0
 10
0.0
 20
0.0
 30
0.0
  3
GLASH5
  1

  0
LINE
  5
52
100
AcDbEntity
  8
GLAS_MED_FOGNING
100
AcDbLine
 10
-25.0
 20
49.0
 30
0.0
 11
-25.0
 21
30.0
 31
0.0
  0
INSERT
  5
53
100
AcDbEntity
  8
GLAS_MED_FOGNING
100
AcDbBlockReference
  2
*X8
 10
15.0
 20
0.0
 30
0.0
1001
ACAD
1000
HATCH
1002
{
1070
    16
1000
AR-SAND
1040
2.0
1040
0.0
1002
}
  0
LINE
  5
69
100
AcDbEntity
  8
GLAS_MED_FOGNING
100
AcDbLine
 10
-20.0
 20
31.0
 30
0.0
 11
-25.0
 21
31.0
 31
0.0
  0
LINE
  5
6A
100
AcDbEntity
  8
GLAS_MED_FOGNING
100
AcDbLine
 10
-20.0
 20
32.0
 30
0.0
 11
-25.0
 21
32.0
 31
0.0
  0
ARC
  5
6B
100
AcDbEntity
  8
GLAS_MED_FOGNING
100
AcDbCircle
 10
-20.0
 20
48.0
 30
0.0
 40
5.0
100
AcDbArc
 50
180.0
 51
270.0
  0
LINE
  5
6C
100
AcDbEntity
  8
GLAS_MED_FOGNING
100
AcDbLine
 10
-20.0
 20
41.0
 30
0.0
 11
-25.0
 21
41.0
 31
0.0
  0
LINE
  5
6D
100
AcDbEntity
  8
GLAS_MED_FOGNING
100
AcDbLine
 10
-20.0
 20
40.0
 30
0.0
 11
-25.0
 21
40.0
 31
0.0
  0
LINE
  5
6E
100
AcDbEntity
  8
GLAS_MED_FOGNING
100
AcDbLine
 10
-20.0
 20
39.0
 30
0.0
 11
-25.0
 21
39.0
 31
0.0
  0
LINE
  5
6F
100
AcDbEntity
  8
GLAS_MED_FOGNING
100
AcDbLine
 10
-20.0
 20
38.0
 30
0.0
 11
-25.0
 21
38.0
 31
0.0
  0
LINE
  5
70
100
AcDbEntity
  8
GLAS_MED_FOGNING
100
AcDbLine
 10
-20.0
 20
37.0
 30
0.0
 11
-25.0
 21
37.0
 31
0.0
  0
LINE
  5
71
100
AcDbEntity
  8
GLAS_MED_FOGNING
100
AcDbLine
 10
-20.0
 20
36.0
 30
0.0
 11
-25.0
 21
36.0
 31
0.0
  0
LINE
  5
72
100
AcDbEntity
  8
GLAS_MED_FOGNING
100
AcDbLine
 10
-20.0
 20
35.0
 30
0.0
 11
-25.0
 21
35.0
 31
0.0
  0
LINE
  5
73
100
AcDbEntity
  8
GLAS_MED_FOGNING
100
AcDbLine
 10
-20.0
 20
34.0
 30
0.0
 11
-25.0
 21
34.0
 31
0.0
  0
LINE
  5
74
100
AcDbEntity
  8
GLAS_MED_FOGNING
100
AcDbLine
 10
-20.0
 20
33.0
 30
0.0
 11
-25.0
 21
33.0
 31
0.0
  0
ENDBLK
  5
76
100
AcDbEntity
  8
0
100
AcDbBlockEnd
  0
BLOCK
  5
9C
100
AcDbEntity
  8
0
100
AcDbBlockBegin
  2
GLASV6_18
 70
     0
 10
0.0
 20
0.0
 30
0.0
  3
GLASV6_18
  1

  0
INSERT
  5
79
100
AcDbEntity
  8
GLAS_MED_FOGNING
100
AcDbBlockReference
  2
*X7
 10
65.0
 20
0.0
 30
0.0
1001
ACAD
1000
HATCH
1002
{
1070
    16
1000
AR-SAND
1040
2.0
1040
0.0
1002
}
  0
LINE
  5
8F
100
AcDbEntity
  8
GLAS_MED_FOGNING
100
AcDbLine
 10
9.6
 20
49.0
 30
0.0
 11
9.6
 21
30.0
 31
0.0
  0
LINE
  5
90
100
AcDbEntity
  8
GLAS_MED_FOGNING
100
AcDbLine
 10
9.6
 20
32.0
 30
0.0
 11
3.6
 21
32.0
 31
0.0
  0
LINE
  5
91
100
AcDbEntity
  8
GLAS_MED_FOGNING
100
AcDbLine
 10
9.6
 20
31.0
 30
0.0
 11
3.6
 21
31.0
 31
0.0
  0
ARC
  5
92
100
AcDbEntity
  8
GLAS_MED_FOGNING
100
AcDbCircle
 10
3.6
 20
49.0
 30
0.0
 40
6.0
100
AcDbArc
 50
270.0
 51
0.0
  0
LINE
  5
93
100
AcDbEntity
  8
GLAS_MED_FOGNING
100
AcDbLine
 10
9.6
 20
39.0
 30
0.0
 11
3.6
 21
39.0
 31
0.0
  0
LINE
  5
94
100
AcDbEntity
  8
GLAS_MED_FOGNING
100
AcDbLine
 10
9.6
 20
40.0
 30
0.0
 11
3.6
 21
40.0
 31
0.0
  0
LINE
  5
95
100
AcDbEntity
  8
GLAS_MED_FOGNING
100
AcDbLine
 10
9.6
 20
37.0
 30
0.0
 11
3.6
 21
37.0
 31
0.0
  0
LINE
  5
96
100
AcDbEntity
  8
GLAS_MED_FOGNING
100
AcDbLine
 10
9.6
 20
38.0
 30
0.0
 11
3.6
 21
38.0
 31
0.0
  0
LINE
  5
97
100
AcDbEntity
  8
GLAS_MED_FOGNING
100
AcDbLine
 10
9.6
 20
36.0
 30
0.0
 11
3.6
 21
36.0
 31
0.0
  0
LINE
  5
98
100
AcDbEntity
  8
GLAS_MED_FOGNING
100
AcDbLine
 10
9.6
 20
35.0
 30
0.0
 11
3.6
 21
35.0
 31
0.0
  0
LINE
  5
99
100
AcDbEntity
  8
GLAS_MED_FOGNING
100
AcDbLine
 10
9.6
 20
33.0
 30
0.0
 11
3.6
 21
33.0
 31
0.0
  0
LINE
  5
9A
100
AcDbEntity
  8
GLAS_MED_FOGNING
100
AcDbLine
 10
9.6
 20
34.0
 30
0.0
 11
3.6
 21
34.0
 31
0.0
  0
LINE
  5
9B
100
AcDbEntity
  8
GLAS_MED_FOGNING
100
AcDbLine
 10
9.6
 20
41.0
 30
0.0
 11
3.6
 21
41.0
 31
0.0
  0
ENDBLK
  5
9D
100
AcDbEntity
  8
0
100
AcDbBlockEnd
  0
BLOCK
  5
427
100
AcDbEntity
  8
0
100
AcDbBlockBegin
  2
*X11
 70
     1
 10
0.0
 20
0.0
 30
0.0
  3
*X11
  1

  0
LINE
  5
3E6
100
AcDbEntity
  8
0
 62
     0
100
AcDbLine
 10
-37.789989
 20
26.307209
 30
0.0
 11
-37.789989
 21
26.307209
 31
0.0
  0
LINE
  5
3E7
100
AcDbEntity
  8
0
 62
     0
100
AcDbLine
 10
-35.092588
 20
28.376998
 30
0.0
 11
-35.092588
 21
28.376998
 31
0.0
  0
LINE
  5
3E8
100
AcDbEntity
  8
0
 62
     0
100
AcDbLine
 10
-42.906168
 20
26.331747
 30
0.0
 11
-42.906168
 21
26.331747
 31
0.0
  0
LINE
  5
3E9
100
AcDbEntity
  8
0
 62
     0
100
AcDbLine
 10
-40.32777
 20
28.310222
 30
0.0
 11
-40.32777
 21
28.310222
 31
0.0
  0
LINE
  5
3EA
100
AcDbEntity
  8
0
 62
     0
100
AcDbLine
 10
-48.141351
 20
26.264971
 30
0.0
 11
-48.141351
 21
26.264971
 31
0.0
  0
LINE
  5
3EB
100
AcDbEntity
  8
0
 62
     0
100
AcDbLine
 10
-45.729557
 20
28.115606
 30
0.0
 11
-45.729557
 21
28.115606
 31
0.0
  0
LINE
  5
3EC
100
AcDbEntity
  8
0
 62
     0
100
AcDbLine
 10
-53.543137
 20
26.070355
 30
0.0
 11
-53.543137
 21
26.070355
 31
0.0
  0
LINE
  5
3ED
100
AcDbEntity
  8
0
 62
     0
100
AcDbLine
 10
-50.845736
 20
28.140144
 30
0.0
 11
-50.845736
 21
28.140144
 31
0.0
  0
LINE
  5
3EE
100
AcDbEntity
  8
0
 62
     0
100
AcDbLine
 10
-53.669124
 20
29.924003
 30
0.0
 11
-53.669124
 21
29.924003
 31
0.0
  0
LINE
  5
3EF
100
AcDbEntity
  8
0
 62
     0
100
AcDbLine
 10
-32.388203
 20
26.501825
 30
0.0
 11
-32.388203
 21
26.501825
 31
0.0
  0
LINE
  5
3F0
100
AcDbEntity
  8
0
 62
     0
100
AcDbLine
 10
-29.976409
 20
28.35246
 30
0.0
 11
-29.976409
 21
28.35246
 31
0.0
  0
LINE
  5
3F1
100
AcDbEntity
  8
0
 62
     0
100
AcDbLine
 10
-27.153021
 20
26.568601
 30
0.0
 11
-27.153021
 21
26.568601
 31
0.0
  0
LINE
  5
3F2
100
AcDbEntity
  8
0
 62
     0
100
AcDbLine
 10
-24.574622
 20
28.547076
 30
0.0
 11
-24.574622
 21
28.547076
 31
0.0
  0
LINE
  5
3F3
100
AcDbEntity
  8
0
 62
     0
100
AcDbLine
 10
-22.036841
 20
26.544063
 30
0.0
 11
-22.036841
 21
26.544063
 31
0.0
  0
LINE
  5
3F4
100
AcDbEntity
  8
0
 62
     0
100
AcDbLine
 10
-44.406244
 20
25.223614
 30
0.0
 11
-44.406244
 21
25.223614
 31
0.0
  0
LINE
  5
3F5
100
AcDbEntity
  8
0
 62
     0
100
AcDbLine
 10
-43.365227
 20
25.360666
 30
0.0
 11
-43.365227
 21
25.360666
 31
0.0
  0
LINE
  5
3F6
100
AcDbEntity
  8
0
 62
     0
100
AcDbLine
 10
-41.739257
 20
25.574729
 30
0.0
 11
-41.739257
 21
25.574729
 31
0.0
  0
LINE
  5
3F7
100
AcDbEntity
  8
0
 62
     0
100
AcDbLine
 10
-39.022698
 20
25.932371
 30
0.0
 11
-39.022698
 21
25.932371
 31
0.0
  0
LINE
  5
3F8
100
AcDbEntity
  8
0
 62
     0
100
AcDbLine
 10
-37.981681
 20
26.069423
 30
0.0
 11
-37.981681
 21
26.069423
 31
0.0
  0
LINE
  5
3F9
100
AcDbEntity
  8
0
 62
     0
100
AcDbLine
 10
-36.355712
 20
26.283486
 30
0.0
 11
-36.355712
 21
26.283486
 31
0.0
  0
LINE
  5
3FA
100
AcDbEntity
  8
0
 62
     0
100
AcDbLine
 10
-33.639153
 20
26.641128
 30
0.0
 11
-33.639153
 21
26.641128
 31
0.0
  0
LINE
  5
3FB
100
AcDbEntity
  8
0
 62
     0
100
AcDbLine
 10
-32.598136
 20
26.778181
 30
0.0
 11
-32.598136
 21
26.778181
 31
0.0
  0
LINE
  5
3FC
100
AcDbEntity
  8
0
 62
     0
100
AcDbLine
 10
-30.972166
 20
26.992244
 30
0.0
 11
-30.972166
 21
26.992244
 31
0.0
  0
LINE
  5
3FD
100
AcDbEntity
  8
0
 62
     0
100
AcDbLine
 10
-28.255607
 20
27.349885
 30
0.0
 11
-28.255607
 21
27.349885
 31
0.0
  0
LINE
  5
3FE
100
AcDbEntity
  8
0
 62
     0
100
AcDbLine
 10
-27.21459
 20
27.486938
 30
0.0
 11
-27.21459
 21
27.486938
 31
0.0
  0
LINE
  5
3FF
100
AcDbEntity
  8
0
 62
     0
100
AcDbLine
 10
-25.58862
 20
27.701001
 30
0.0
 11
-25.58862
 21
27.701001
 31
0.0
  0
LINE
  5
400
100
AcDbEntity
  8
0
 62
     0
100
AcDbLine
 10
-22.872061
 20
28.058642
 30
0.0
 11
-22.872061
 21
28.058642
 31
0.0
  0
LINE
  5
401
100
AcDbEntity
  8
0
 62
     0
100
AcDbLine
 10
-21.831044
 20
28.195695
 30
0.0
 11
-21.831044
 21
28.195695
 31
0.0
  0
LINE
  5
402
100
AcDbEntity
  8
0
 62
     0
100
AcDbLine
 10
-20.205075
 20
28.409758
 30
0.0
 11
-20.205075
 21
28.409758
 31
0.0
  0
LINE
  5
403
100
AcDbEntity
  8
0
 62
     0
100
AcDbLine
 10
-54.350341
 20
29.09275
 30
0.0
 11
-54.350341
 21
29.09275
 31
0.0
  0
LINE
  5
404
100
AcDbEntity
  8
0
 62
     0
100
AcDbLine
 10
-51.633782
 20
29.450391
 30
0.0
 11
-51.633782
 21
29.450391
 31
0.0
  0
LINE
  5
405
100
AcDbEntity
  8
0
 62
     0
100
AcDbLine
 10
-50.592764
 20
29.587444
 30
0.0
 11
-50.592764
 21
29.587444
 31
0.0
  0
LINE
  5
406
100
AcDbEntity
  8
0
 62
     0
100
AcDbLine
 10
-48.966795
 20
29.801507
 30
0.0
 11
-48.966795
 21
29.801507
 31
0.0
  0
LINE
  5
407
100
AcDbEntity
  8
0
 62
     0
100
AcDbLine
 10
-43.292959
 20
29.992636
 30
0.0
 11
-43.292959
 21
29.992636
 31
0.0
  0
LINE
  5
408
100
AcDbEntity
  8
0
 62
     0
100
AcDbLine
 10
-42.449568
 20
29.455337
 30
0.0
 11
-42.449568
 21
29.455337
 31
0.0
  0
LINE
  5
409
100
AcDbEntity
  8
0
 62
     0
100
AcDbLine
 10
-39.413358
 20
27.521058
 30
0.0
 11
-39.413358
 21
27.521058
 31
0.0
  0
LINE
  5
40A
100
AcDbEntity
  8
0
 62
     0
100
AcDbLine
 10
-36.221284
 20
29.466655
 30
0.0
 11
-36.221284
 21
29.466655
 31
0.0
  0
LINE
  5
40B
100
AcDbEntity
  8
0
 62
     0
100
AcDbLine
 10
-33.185075
 20
27.532376
 30
0.0
 11
-33.185075
 21
27.532376
 31
0.0
  0
LINE
  5
40C
100
AcDbEntity
  8
0
 62
     0
100
AcDbLine
 10
-29.221135
 20
25.007068
 30
0.0
 11
-29.221135
 21
25.007068
 31
0.0
  0
LINE
  5
40D
100
AcDbEntity
  8
0
 62
     0
100
AcDbLine
 10
-29.993
 20
29.477973
 30
0.0
 11
-29.993
 21
29.477973
 31
0.0
  0
LINE
  5
40E
100
AcDbEntity
  8
0
 62
     0
100
AcDbLine
 10
-26.956791
 20
27.543694
 30
0.0
 11
-26.956791
 21
27.543694
 31
0.0
  0
LINE
  5
40F
100
AcDbEntity
  8
0
 62
     0
100
AcDbLine
 10
-22.992851
 20
25.018386
 30
0.0
 11
-22.992851
 21
25.018386
 31
0.0
  0
LINE
  5
410
100
AcDbEntity
  8
0
 62
     0
100
AcDbLine
 10
-23.764716
 20
29.489291
 30
0.0
 11
-23.764716
 21
29.489291
 31
0.0
  0
LINE
  5
411
100
AcDbEntity
  8
0
 62
     0
100
AcDbLine
 10
-20.728507
 20
27.555012
 30
0.0
 11
-20.728507
 21
27.555012
 31
0.0
  0
LINE
  5
412
100
AcDbEntity
  8
0
 62
     0
100
AcDbLine
 10
-49.521243
 20
29.981318
 30
0.0
 11
-49.521243
 21
29.981318
 31
0.0
  0
LINE
  5
413
100
AcDbEntity
  8
0
 62
     0
100
AcDbLine
 10
-48.677851
 20
29.444019
 30
0.0
 11
-48.677851
 21
29.444019
 31
0.0
  0
LINE
  5
414
100
AcDbEntity
  8
0
 62
     0
100
AcDbLine
 10
-45.641642
 20
27.50974
 30
0.0
 11
-45.641642
 21
27.50974
 31
0.0
  0
LINE
  5
415
100
AcDbEntity
  8
0
 62
     0
100
AcDbLine
 10
-54.906135
 20
29.4327
 30
0.0
 11
-54.906135
 21
29.4327
 31
0.0
  0
LINE
  5
416
100
AcDbEntity
  8
0
 62
     0
100
AcDbLine
 10
-51.869926
 20
27.498422
 30
0.0
 11
-51.869926
 21
27.498422
 31
0.0
  0
LINE
  5
417
100
AcDbEntity
  8
0
 62
     0
100
AcDbLine
 10
-34.885457
 20
29.712457
 30
0.0
 11
-34.885457
 21
29.712457
 31
0.0
  0
LINE
  5
418
100
AcDbEntity
  8
0
 62
     0
100
AcDbLine
 10
-33.145483
 20
28.118064
 30
0.0
 11
-33.145483
 21
28.118064
 31
0.0
  0
LINE
  5
419
100
AcDbEntity
  8
0
 62
     0
100
AcDbLine
 10
-31.154834
 20
26.293971
 30
0.0
 11
-31.154834
 21
26.293971
 31
0.0
  0
LINE
  5
41A
100
AcDbEntity
  8
0
 62
     0
100
AcDbLine
 10
-30.786195
 20
25.956176
 30
0.0
 11
-30.786195
 21
25.956176
 31
0.0
  0
LINE
  5
41B
100
AcDbEntity
  8
0
 62
     0
100
AcDbLine
 10
-27.13323
 20
29.873416
 30
0.0
 11
-27.13323
 21
29.873416
 31
0.0
  0
LINE
  5
41C
100
AcDbEntity
  8
0
 62
     0
100
AcDbLine
 10
-25.142581
 20
28.049322
 30
0.0
 11
-25.142581
 21
28.049322
 31
0.0
  0
LINE
  5
41D
100
AcDbEntity
  8
0
 62
     0
100
AcDbLine
 10
-24.773942
 20
27.711527
 30
0.0
 11
-24.773942
 21
27.711527
 31
0.0
  0
LINE
  5
41E
100
AcDbEntity
  8
0
 62
     0
100
AcDbLine
 10
-23.033968
 20
26.117134
 30
0.0
 11
-23.033968
 21
26.117134
 31
0.0
  0
LINE
  5
41F
100
AcDbEntity
  8
0
 62
     0
100
AcDbLine
 10
-41.266349
 20
28.294901
 30
0.0
 11
-41.266349
 21
28.294901
 31
0.0
  0
LINE
  5
420
100
AcDbEntity
  8
0
 62
     0
100
AcDbLine
 10
-40.89771
 20
27.957106
 30
0.0
 11
-40.89771
 21
27.957106
 31
0.0
  0
LINE
  5
421
100
AcDbEntity
  8
0
 62
     0
100
AcDbLine
 10
-39.157736
 20
26.362713
 30
0.0
 11
-39.157736
 21
26.362713
 31
0.0
  0
LINE
  5
422
100
AcDbEntity
  8
0
 62
     0
100
AcDbLine
 10
-51.009226
 20
29.958037
 30
0.0
 11
-51.009226
 21
29.958037
 31
0.0
  0
LINE
  5
423
100
AcDbEntity
  8
0
 62
     0
100
AcDbLine
 10
-49.269251
 20
28.363644
 30
0.0
 11
-49.269251
 21
28.363644
 31
0.0
  0
LINE
  5
424
100
AcDbEntity
  8
0
 62
     0
100
AcDbLine
 10
-47.278602
 20
26.53955
 30
0.0
 11
-47.278602
 21
26.53955
 31
0.0
  0
LINE
  5
425
100
AcDbEntity
  8
0
 62
     0
100
AcDbLine
 10
-46.909964
 20
26.201755
 30
0.0
 11
-46.909964
 21
26.201755
 31
0.0
  0
LINE
  5
426
100
AcDbEntity
  8
0
 62
     0
100
AcDbLine
 10
-55.281504
 20
26.608293
 30
0.0
 11
-55.281504
 21
26.608293
 31
0.0
  0
ENDBLK
  5
428
100
AcDbEntity
  8
0
100
AcDbBlockEnd
  0
BLOCK
  5
130
100
AcDbEntity
  8
0
100
AcDbBlockBegin
  2
*X12
 70
     1
 10
0.0
 20
0.0
 30
0.0
  3
*X12
  1

  0
LINE
  5
F9
100
AcDbEntity
  8
0
 62
     0
100
AcDbLine
 10
-37.789989
 20
26.307209
 30
0.0
 11
-37.789989
 21
26.307209
 31
0.0
  0
LINE
  5
FA
100
AcDbEntity
  8
0
 62
     0
100
AcDbLine
 10
-35.092588
 20
28.376998
 30
0.0
 11
-35.092588
 21
28.376998
 31
0.0
  0
LINE
  5
FB
100
AcDbEntity
  8
0
 62
     0
100
AcDbLine
 10
-42.906168
 20
26.331747
 30
0.0
 11
-42.906168
 21
26.331747
 31
0.0
  0
LINE
  5
FC
100
AcDbEntity
  8
0
 62
     0
100
AcDbLine
 10
-40.32777
 20
28.310222
 30
0.0
 11
-40.32777
 21
28.310222
 31
0.0
  0
LINE
  5
FD
100
AcDbEntity
  8
0
 62
     0
100
AcDbLine
 10
-48.141351
 20
26.264971
 30
0.0
 11
-48.141351
 21
26.264971
 31
0.0
  0
LINE
  5
FE
100
AcDbEntity
  8
0
 62
     0
100
AcDbLine
 10
-45.729557
 20
28.115606
 30
0.0
 11
-45.729557
 21
28.115606
 31
0.0
  0
LINE
  5
FF
100
AcDbEntity
  8
0
 62
     0
100
AcDbLine
 10
-53.543137
 20
26.070355
 30
0.0
 11
-53.543137
 21
26.070355
 31
0.0
  0
LINE
  5
100
100
AcDbEntity
  8
0
 62
     0
100
AcDbLine
 10
-50.845736
 20
28.140144
 30
0.0
 11
-50.845736
 21
28.140144
 31
0.0
  0
LINE
  5
101
100
AcDbEntity
  8
0
 62
     0
100
AcDbLine
 10
-53.669124
 20
29.924003
 30
0.0
 11
-53.669124
 21
29.924003
 31
0.0
  0
LINE
  5
102
100
AcDbEntity
  8
0
 62
     0
100
AcDbLine
 10
-32.388203
 20
26.501825
 30
0.0
 11
-32.388203
 21
26.501825
 31
0.0
  0
LINE
  5
103
100
AcDbEntity
  8
0
 62
     0
100
AcDbLine
 10
-29.976409
 20
28.35246
 30
0.0
 11
-29.976409
 21
28.35246
 31
0.0
  0
LINE
  5
104
100
AcDbEntity
  8
0
 62
     0
100
AcDbLine
 10
-27.153021
 20
26.568601
 30
0.0
 11
-27.153021
 21
26.568601
 31
0.0
  0
LINE
  5
105
100
AcDbEntity
  8
0
 62
     0
100
AcDbLine
 10
-44.406244
 20
25.223614
 30
0.0
 11
-44.406244
 21
25.223614
 31
0.0
  0
LINE
  5
106
100
AcDbEntity
  8
0
 62
     0
100
AcDbLine
 10
-43.365227
 20
25.360666
 30
0.0
 11
-43.365227
 21
25.360666
 31
0.0
  0
LINE
  5
107
100
AcDbEntity
  8
0
 62
     0
100
AcDbLine
 10
-41.739257
 20
25.574729
 30
0.0
 11
-41.739257
 21
25.574729
 31
0.0
  0
LINE
  5
108
100
AcDbEntity
  8
0
 62
     0
100
AcDbLine
 10
-39.022698
 20
25.932371
 30
0.0
 11
-39.022698
 21
25.932371
 31
0.0
  0
LINE
  5
109
100
AcDbEntity
  8
0
 62
     0
100
AcDbLine
 10
-37.981681
 20
26.069423
 30
0.0
 11
-37.981681
 21
26.069423
 31
0.0
  0
LINE
  5
10A
100
AcDbEntity
  8
0
 62
     0
100
AcDbLine
 10
-36.355712
 20
26.283486
 30
0.0
 11
-36.355712
 21
26.283486
 31
0.0
  0
LINE
  5
10B
100
AcDbEntity
  8
0
 62
     0
100
AcDbLine
 10
-33.639153
 20
26.641128
 30
0.0
 11
-33.639153
 21
26.641128
 31
0.0
  0
LINE
  5
10C
100
AcDbEntity
  8
0
 62
     0
100
AcDbLine
 10
-32.598136
 20
26.778181
 30
0.0
 11
-32.598136
 21
26.778181
 31
0.0
  0
LINE
  5
10D
100
AcDbEntity
  8
0
 62
     0
100
AcDbLine
 10
-30.972166
 20
26.992244
 30
0.0
 11
-30.972166
 21
26.992244
 31
0.0
  0
LINE
  5
10E
100
AcDbEntity
  8
0
 62
     0
100
AcDbLine
 10
-28.255607
 20
27.349885
 30
0.0
 11
-28.255607
 21
27.349885
 31
0.0
  0
LINE
  5
10F
100
AcDbEntity
  8
0
 62
     0
100
AcDbLine
 10
-27.21459
 20
27.486938
 30
0.0
 11
-27.21459
 21
27.486938
 31
0.0
  0
LINE
  5
110
100
AcDbEntity
  8
0
 62
     0
100
AcDbLine
 10
-25.58862
 20
27.701001
 30
0.0
 11
-25.58862
 21
27.701001
 31
0.0
  0
LINE
  5
111
100
AcDbEntity
  8
0
 62
     0
100
AcDbLine
 10
-54.350341
 20
29.09275
 30
0.0
 11
-54.350341
 21
29.09275
 31
0.0
  0
LINE
  5
112
100
AcDbEntity
  8
0
 62
     0
100
AcDbLine
 10
-51.633782
 20
29.450391
 30
0.0
 11
-51.633782
 21
29.450391
 31
0.0
  0
LINE
  5
113
100
AcDbEntity
  8
0
 62
     0
100
AcDbLine
 10
-50.592764
 20
29.587444
 30
0.0
 11
-50.592764
 21
29.587444
 31
0.0
  0
LINE
  5
114
100
AcDbEntity
  8
0
 62
     0
100
AcDbLine
 10
-48.966795
 20
29.801507
 30
0.0
 11
-48.966795
 21
29.801507
 31
0.0
  0
LINE
  5
115
100
AcDbEntity
  8
0
 62
     0
100
AcDbLine
 10
-49.521243
 20
29.981318
 30
0.0
 11
-49.521243
 21
29.981318
 31
0.0
  0
LINE
  5
116
100
AcDbEntity
  8
0
 62
     0
100
AcDbLine
 10
-48.677851
 20
29.444019
 30
0.0
 11
-48.677851
 21
29.444019
 31
0.0
  0
LINE
  5
117
100
AcDbEntity
  8
0
 62
     0
100
AcDbLine
 10
-45.641642
 20
27.50974
 30
0.0
 11
-45.641642
 21
27.50974
 31
0.0
  0
LINE
  5
118
100
AcDbEntity
  8
0
 62
     0
100
AcDbLine
 10
-43.292959
 20
29.992636
 30
0.0
 11
-43.292959
 21
29.992636
 31
0.0
  0
LINE
  5
119
100
AcDbEntity
  8
0
 62
     0
100
AcDbLine
 10
-42.449568
 20
29.455337
 30
0.0
 11
-42.449568
 21
29.455337
 31
0.0
  0
LINE
  5
11A
100
AcDbEntity
  8
0
 62
     0
100
AcDbLine
 10
-39.413358
 20
27.521058
 30
0.0
 11
-39.413358
 21
27.521058
 31
0.0
  0
LINE
  5
11B
100
AcDbEntity
  8
0
 62
     0
100
AcDbLine
 10
-36.221284
 20
29.466655
 30
0.0
 11
-36.221284
 21
29.466655
 31
0.0
  0
LINE
  5
11C
100
AcDbEntity
  8
0
 62
     0
100
AcDbLine
 10
-33.185075
 20
27.532376
 30
0.0
 11
-33.185075
 21
27.532376
 31
0.0
  0
LINE
  5
11D
100
AcDbEntity
  8
0
 62
     0
100
AcDbLine
 10
-29.221135
 20
25.007068
 30
0.0
 11
-29.221135
 21
25.007068
 31
0.0
  0
LINE
  5
11E
100
AcDbEntity
  8
0
 62
     0
100
AcDbLine
 10
-29.993
 20
29.477973
 30
0.0
 11
-29.993
 21
29.477973
 31
0.0
  0
LINE
  5
11F
100
AcDbEntity
  8
0
 62
     0
100
AcDbLine
 10
-26.956791
 20
27.543694
 30
0.0
 11
-26.956791
 21
27.543694
 31
0.0
  0
LINE
  5
120
100
AcDbEntity
  8
0
 62
     0
100
AcDbLine
 10
-54.906135
 20
29.4327
 30
0.0
 11
-54.906135
 21
29.4327
 31
0.0
  0
LINE
  5
121
100
AcDbEntity
  8
0
 62
     0
100
AcDbLine
 10
-51.869926
 20
27.498422
 30
0.0
 11
-51.869926
 21
27.498422
 31
0.0
  0
LINE
  5
122
100
AcDbEntity
  8
0
 62
     0
100
AcDbLine
 10
-34.885457
 20
29.712457
 30
0.0
 11
-34.885457
 21
29.712457
 31
0.0
  0
LINE
  5
123
100
AcDbEntity
  8
0
 62
     0
100
AcDbLine
 10
-33.145483
 20
28.118064
 30
0.0
 11
-33.145483
 21
28.118064
 31
0.0
  0
LINE
  5
124
100
AcDbEntity
  8
0
 62
     0
100
AcDbLine
 10
-31.154834
 20
26.293971
 30
0.0
 11
-31.154834
 21
26.293971
 31
0.0
  0
LINE
  5
125
100
AcDbEntity
  8
0
 62
     0
100
AcDbLine
 10
-30.786195
 20
25.956176
 30
0.0
 11
-30.786195
 21
25.956176
 31
0.0
  0
LINE
  5
126
100
AcDbEntity
  8
0
 62
     0
100
AcDbLine
 10
-27.13323
 20
29.873416
 30
0.0
 11
-27.13323
 21
29.873416
 31
0.0
  0
LINE
  5
127
100
AcDbEntity
  8
0
 62
     0
100
AcDbLine
 10
-25.142581
 20
28.049322
 30
0.0
 11
-25.142581
 21
28.049322
 31
0.0
  0
LINE
  5
128
100
AcDbEntity
  8
0
 62
     0
100
AcDbLine
 10
-41.266349
 20
28.294901
 30
0.0
 11
-41.266349
 21
28.294901
 31
0.0
  0
LINE
  5
129
100
AcDbEntity
  8
0
 62
     0
100
AcDbLine
 10
-40.89771
 20
27.957106
 30
0.0
 11
-40.89771
 21
27.957106
 31
0.0
  0
LINE
  5
12A
100
AcDbEntity
  8
0
 62
     0
100
AcDbLine
 10
-39.157736
 20
26.362713
 30
0.0
 11
-39.157736
 21
26.362713
 31
0.0
  0
LINE
  5
12B
100
AcDbEntity
  8
0
 62
     0
100
AcDbLine
 10
-51.009226
 20
29.958037
 30
0.0
 11
-51.009226
 21
29.958037
 31
0.0
  0
LINE
  5
12C
100
AcDbEntity
  8
0
 62
     0
100
AcDbLine
 10
-49.269251
 20
28.363644
 30
0.0
 11
-49.269251
 21
28.363644
 31
0.0
  0
LINE
  5
12D
100
AcDbEntity
  8
0
 62
     0
100
AcDbLine
 10
-47.278602
 20
26.53955
 30
0.0
 11
-47.278602
 21
26.53955
 31
0.0
  0
LINE
  5
12E
100
AcDbEntity
  8
0
 62
     0
100
AcDbLine
 10
-46.909964
 20
26.201755
 30
0.0
 11
-46.909964
 21
26.201755
 31
0.0
  0
LINE
  5
12F
100
AcDbEntity
  8
0
 62
     0
100
AcDbLine
 10
-55.281504
 20
26.608293
 30
0.0
 11
-55.281504
 21
26.608293
 31
0.0
  0
ENDBLK
  5
131
100
AcDbEntity
  8
0
100
AcDbBlockEnd
  0
BLOCK
  5
3A7
100
AcDbEntity
  8
0
100
AcDbBlockBegin
  2
*X13
 70
     1
 10
0.0
 20
0.0
 30
0.0
  3
*X13
  1

  0
LINE
  5
37A
100
AcDbEntity
  8
0
 62
     0
100
AcDbLine
 10
-42.906168
 20
26.331747
 30
0.0
 11
-42.906168
 21
26.331747
 31
0.0
  0
LINE
  5
37B
100
AcDbEntity
  8
0
 62
     0
100
AcDbLine
 10
-40.32777
 20
28.310222
 30
0.0
 11
-40.32777
 21
28.310222
 31
0.0
  0
LINE
  5
37C
100
AcDbEntity
  8
0
 62
     0
100
AcDbLine
 10
-48.141351
 20
26.264971
 30
0.0
 11
-48.141351
 21
26.264971
 31
0.0
  0
LINE
  5
37D
100
AcDbEntity
  8
0
 62
     0
100
AcDbLine
 10
-45.729557
 20
28.115606
 30
0.0
 11
-45.729557
 21
28.115606
 31
0.0
  0
LINE
  5
37E
100
AcDbEntity
  8
0
 62
     0
100
AcDbLine
 10
-53.543137
 20
26.070355
 30
0.0
 11
-53.543137
 21
26.070355
 31
0.0
  0
LINE
  5
37F
100
AcDbEntity
  8
0
 62
     0
100
AcDbLine
 10
-50.845736
 20
28.140144
 30
0.0
 11
-50.845736
 21
28.140144
 31
0.0
  0
LINE
  5
380
100
AcDbEntity
  8
0
 62
     0
100
AcDbLine
 10
-53.669124
 20
29.924003
 30
0.0
 11
-53.669124
 21
29.924003
 31
0.0
  0
LINE
  5
381
100
AcDbEntity
  8
0
 62
     0
100
AcDbLine
 10
-37.789989
 20
26.307209
 30
0.0
 11
-37.789989
 21
26.307209
 31
0.0
  0
LINE
  5
382
100
AcDbEntity
  8
0
 62
     0
100
AcDbLine
 10
-35.092588
 20
28.376998
 30
0.0
 11
-35.092588
 21
28.376998
 31
0.0
  0
LINE
  5
383
100
AcDbEntity
  8
0
 62
     0
100
AcDbLine
 10
-32.388203
 20
26.501825
 30
0.0
 11
-32.388203
 21
26.501825
 31
0.0
  0
LINE
  5
384
100
AcDbEntity
  8
0
 62
     0
100
AcDbLine
 10
-44.406244
 20
25.223614
 30
0.0
 11
-44.406244
 21
25.223614
 31
0.0
  0
LINE
  5
385
100
AcDbEntity
  8
0
 62
     0
100
AcDbLine
 10
-43.365227
 20
25.360666
 30
0.0
 11
-43.365227
 21
25.360666
 31
0.0
  0
LINE
  5
386
100
AcDbEntity
  8
0
 62
     0
100
AcDbLine
 10
-41.739257
 20
25.574729
 30
0.0
 11
-41.739257
 21
25.574729
 31
0.0
  0
LINE
  5
387
100
AcDbEntity
  8
0
 62
     0
100
AcDbLine
 10
-39.022698
 20
25.932371
 30
0.0
 11
-39.022698
 21
25.932371
 31
0.0
  0
LINE
  5
388
100
AcDbEntity
  8
0
 62
     0
100
AcDbLine
 10
-37.981681
 20
26.069423
 30
0.0
 11
-37.981681
 21
26.069423
 31
0.0
  0
LINE
  5
389
100
AcDbEntity
  8
0
 62
     0
100
AcDbLine
 10
-36.355712
 20
26.283486
 30
0.0
 11
-36.355712
 21
26.283486
 31
0.0
  0
LINE
  5
38A
100
AcDbEntity
  8
0
 62
     0
100
AcDbLine
 10
-33.639153
 20
26.641128
 30
0.0
 11
-33.639153
 21
26.641128
 31
0.0
  0
LINE
  5
38B
100
AcDbEntity
  8
0
 62
     0
100
AcDbLine
 10
-32.598136
 20
26.778181
 30
0.0
 11
-32.598136
 21
26.778181
 31
0.0
  0
LINE
  5
38C
100
AcDbEntity
  8
0
 62
     0
100
AcDbLine
 10
-30.972166
 20
26.992244
 30
0.0
 11
-30.972166
 21
26.992244
 31
0.0
  0
LINE
  5
38D
100
AcDbEntity
  8
0
 62
     0
100
AcDbLine
 10
-54.350341
 20
29.09275
 30
0.0
 11
-54.350341
 21
29.09275
 31
0.0
  0
LINE
  5
38E
100
AcDbEntity
  8
0
 62
     0
100
AcDbLine
 10
-51.633782
 20
29.450391
 30
0.0
 11
-51.633782
 21
29.450391
 31
0.0
  0
LINE
  5
38F
100
AcDbEntity
  8
0
 62
     0
100
AcDbLine
 10
-50.592764
 20
29.587444
 30
0.0
 11
-50.592764
 21
29.587444
 31
0.0
  0
LINE
  5
390
100
AcDbEntity
  8
0
 62
     0
100
AcDbLine
 10
-48.966795
 20
29.801507
 30
0.0
 11
-48.966795
 21
29.801507
 31
0.0
  0
LINE
  5
391
100
AcDbEntity
  8
0
 62
     0
100
AcDbLine
 10
-49.521243
 20
29.981318
 30
0.0
 11
-49.521243
 21
29.981318
 31
0.0
  0
LINE
  5
392
100
AcDbEntity
  8
0
 62
     0
100
AcDbLine
 10
-48.677851
 20
29.444019
 30
0.0
 11
-48.677851
 21
29.444019
 31
0.0
  0
LINE
  5
393
100
AcDbEntity
  8
0
 62
     0
100
AcDbLine
 10
-45.641642
 20
27.50974
 30
0.0
 11
-45.641642
 21
27.50974
 31
0.0
  0
LINE
  5
394
100
AcDbEntity
  8
0
 62
     0
100
AcDbLine
 10
-43.292959
 20
29.992636
 30
0.0
 11
-43.292959
 21
29.992636
 31
0.0
  0
LINE
  5
395
100
AcDbEntity
  8
0
 62
     0
100
AcDbLine
 10
-42.449568
 20
29.455337
 30
0.0
 11
-42.449568
 21
29.455337
 31
0.0
  0
LINE
  5
396
100
AcDbEntity
  8
0
 62
     0
100
AcDbLine
 10
-39.413358
 20
27.521058
 30
0.0
 11
-39.413358
 21
27.521058
 31
0.0
  0
LINE
  5
397
100
AcDbEntity
  8
0
 62
     0
100
AcDbLine
 10
-36.221284
 20
29.466655
 30
0.0
 11
-36.221284
 21
29.466655
 31
0.0
  0
LINE
  5
398
100
AcDbEntity
  8
0
 62
     0
100
AcDbLine
 10
-33.185075
 20
27.532376
 30
0.0
 11
-33.185075
 21
27.532376
 31
0.0
  0
LINE
  5
399
100
AcDbEntity
  8
0
 62
     0
100
AcDbLine
 10
-54.906135
 20
29.4327
 30
0.0
 11
-54.906135
 21
29.4327
 31
0.0
  0
LINE
  5
39A
100
AcDbEntity
  8
0
 62
     0
100
AcDbLine
 10
-51.869926
 20
27.498422
 30
0.0
 11
-51.869926
 21
27.498422
 31
0.0
  0
LINE
  5
39B
100
AcDbEntity
  8
0
 62
     0
100
AcDbLine
 10
-41.266349
 20
28.294901
 30
0.0
 11
-41.266349
 21
28.294901
 31
0.0
  0
LINE
  5
39C
100
AcDbEntity
  8
0
 62
     0
100
AcDbLine
 10
-40.89771
 20
27.957106
 30
0.0
 11
-40.89771
 21
27.957106
 31
0.0
  0
LINE
  5
39D
100
AcDbEntity
  8
0
 62
     0
100
AcDbLine
 10
-39.157736
 20
26.362713
 30
0.0
 11
-39.157736
 21
26.362713
 31
0.0
  0
LINE
  5
39E
100
AcDbEntity
  8
0
 62
     0
100
AcDbLine
 10
-34.885457
 20
29.712457
 30
0.0
 11
-34.885457
 21
29.712457
 31
0.0
  0
LINE
  5
39F
100
AcDbEntity
  8
0
 62
     0
100
AcDbLine
 10
-33.145483
 20
28.118064
 30
0.0
 11
-33.145483
 21
28.118064
 31
0.0
  0
LINE
  5
3A0
100
AcDbEntity
  8
0
 62
     0
100
AcDbLine
 10
-31.154834
 20
26.293971
 30
0.0
 11
-31.154834
 21
26.293971
 31
0.0
  0
LINE
  5
3A1
100
AcDbEntity
  8
0
 62
     0
100
AcDbLine
 10
-30.786195
 20
25.956176
 30
0.0
 11
-30.786195
 21
25.956176
 31
0.0
  0
LINE
  5
3A2
100
AcDbEntity
  8
0
 62
     0
100
AcDbLine
 10
-51.009226
 20
29.958037
 30
0.0
 11
-51.009226
 21
29.958037
 31
0.0
  0
LINE
  5
3A3
100
AcDbEntity
  8
0
 62
     0
100
AcDbLine
 10
-49.269251
 20
28.363644
 30
0.0
 11
-49.269251
 21
28.363644
 31
0.0
  0
LINE
  5
3A4
100
AcDbEntity
  8
0
 62
     0
100
AcDbLine
 10
-47.278602
 20
26.53955
 30
0.0
 11
-47.278602
 21
26.53955
 31
0.0
  0
LINE
  5
3A5
100
AcDbEntity
  8
0
 62
     0
100
AcDbLine
 10
-46.909964
 20
26.201755
 30
0.0
 11
-46.909964
 21
26.201755
 31
0.0
  0
LINE
  5
3A6
100
AcDbEntity
  8
0
 62
     0
100
AcDbLine
 10
-55.281504
 20
26.608293
 30
0.0
 11
-55.281504
 21
26.608293
 31
0.0
  0
ENDBLK
  5
3A8
100
AcDbEntity
  8
0
100
AcDbBlockEnd
  0
BLOCK
  5
B8
100
AcDbEntity
  8
0
100
AcDbBlockBegin
  2
*X14
 70
     1
 10
0.0
 20
0.0
 30
0.0
  3
*X14
  1

  0
LINE
  5
A8
100
AcDbEntity
  8
0
 62
     0
100
AcDbLine
 10
-59.544374
 20
41.612079
 30
0.0
 11
-59.544374
 21
41.612079
 31
0.0
  0
LINE
  5
A9
100
AcDbEntity
  8
0
 62
     0
100
AcDbLine
 10
-61.273133
 20
30.212238
 30
0.0
 11
-61.273133
 21
30.212238
 31
0.0
  0
LINE
  5
AA
100
AcDbEntity
  8
0
 62
     0
100
AcDbLine
 10
-61.166045
 20
26.936637
 30
0.0
 11
-61.166045
 21
26.936637
 31
0.0
  0
LINE
  5
AB
100
AcDbEntity
  8
0
 62
     0
100
AcDbLine
 10
-59.11602
 20
28.509677
 30
0.0
 11
-59.11602
 21
28.509677
 31
0.0
  0
LINE
  5
AC
100
AcDbEntity
  8
0
 62
     0
100
AcDbLine
 10
-59.008931
 20
25.234076
 30
0.0
 11
-59.008931
 21
25.234076
 31
0.0
  0
LINE
  5
AD
100
AcDbEntity
  8
0
 62
     0
100
AcDbLine
 10
-59.184149
 20
27.420706
 30
0.0
 11
-59.184149
 21
27.420706
 31
0.0
  0
LINE
  5
AE
100
AcDbEntity
  8
0
 62
     0
100
AcDbLine
 10
-58.299284
 20
27.537201
 30
0.0
 11
-58.299284
 21
27.537201
 31
0.0
  0
LINE
  5
AF
100
AcDbEntity
  8
0
 62
     0
100
AcDbLine
 10
-58.173011
 20
42.492775
 30
0.0
 11
-58.173011
 21
42.492775
 31
0.0
  0
LINE
  5
B0
100
AcDbEntity
  8
0
 62
     0
100
AcDbLine
 10
-57.456129
 20
42.03607
 30
0.0
 11
-57.456129
 21
42.03607
 31
0.0
  0
LINE
  5
B1
100
AcDbEntity
  8
0
 62
     0
100
AcDbLine
 10
-59.348148
 20
29.712233
 30
0.0
 11
-59.348148
 21
29.712233
 31
0.0
  0
LINE
  5
B2
100
AcDbEntity
  8
0
 62
     0
100
AcDbLine
 10
-58.631265
 20
29.255528
 30
0.0
 11
-58.631265
 21
29.255528
 31
0.0
  0
LINE
  5
B3
100
AcDbEntity
  8
0
 62
     0
100
AcDbLine
 10
-61.344529
 20
27.601771
 30
0.0
 11
-61.344529
 21
27.601771
 31
0.0
  0
LINE
  5
B4
100
AcDbEntity
  8
0
 62
     0
100
AcDbLine
 10
-57.97518
 20
25.455259
 30
0.0
 11
-57.97518
 21
25.455259
 31
0.0
  0
LINE
  5
B5
100
AcDbEntity
  8
0
 62
     0
100
AcDbLine
 10
-61.093048
 20
41.715654
 30
0.0
 11
-61.093048
 21
41.715654
 31
0.0
  0
LINE
  5
B6
100
AcDbEntity
  8
0
 62
     0
100
AcDbLine
 10
-60.779705
 20
41.428528
 30
0.0
 11
-60.779705
 21
41.428528
 31
0.0
  0
LINE
  5
B7
100
AcDbEntity
  8
0
 62
     0
100
AcDbLine
 10
-57.674684
 20
44.758182
 30
0.0
 11
-57.674684
 21
44.758182
 31
0.0
  0
ENDBLK
  5
B9
100
AcDbEntity
  8
0
100
AcDbBlockEnd
  0
BLOCK
  5
E6
100
AcDbEntity
  8
0
100
AcDbBlockBegin
  2
*X15
 70
     1
 10
0.0
 20
0.0
 30
0.0
  3
*X15
  1

  0
LINE
  5
D7
100
AcDbEntity
  8
0
 62
     0
100
AcDbLine
 10
-50.502951
 20
41.834262
 30
0.0
 11
-50.502951
 21
41.834262
 31
0.0
  0
LINE
  5
D8
100
AcDbEntity
  8
0
 62
     0
100
AcDbLine
 10
-52.902831
 20
43.350542
 30
0.0
 11
-52.902831
 21
43.350542
 31
0.0
  0
LINE
  5
D9
100
AcDbEntity
  8
0
 62
     0
100
AcDbLine
 10
-52.474476
 20
30.24814
 30
0.0
 11
-52.474476
 21
30.24814
 31
0.0
  0
LINE
  5
DA
100
AcDbEntity
  8
0
 62
     0
100
AcDbLine
 10
-52.367387
 20
26.97254
 30
0.0
 11
-52.367387
 21
26.97254
 31
0.0
  0
LINE
  5
DB
100
AcDbEntity
  8
0
 62
     0
100
AcDbLine
 10
-50.074596
 20
28.73186
 30
0.0
 11
-50.074596
 21
28.73186
 31
0.0
  0
LINE
  5
DC
100
AcDbEntity
  8
0
 62
     0
100
AcDbLine
 10
-49.967508
 20
25.45626
 30
0.0
 11
-49.967508
 21
25.45626
 31
0.0
  0
LINE
  5
DD
100
AcDbEntity
  8
0
 62
     0
100
AcDbLine
 10
-52.467363
 20
41.509656
 30
0.0
 11
-52.467363
 21
41.509656
 31
0.0
  0
LINE
  5
DE
100
AcDbEntity
  8
0
 62
     0
100
AcDbLine
 10
-50.158288
 20
41.813651
 30
0.0
 11
-50.158288
 21
41.813651
 31
0.0
  0
LINE
  5
DF
100
AcDbEntity
  8
0
 62
     0
100
AcDbLine
 10
-52.341197
 20
28.321598
 30
0.0
 11
-52.341197
 21
28.321598
 31
0.0
  0
LINE
  5
E0
100
AcDbEntity
  8
0
 62
     0
100
AcDbLine
 10
-50.032121
 20
28.625594
 30
0.0
 11
-50.032121
 21
28.625594
 31
0.0
  0
LINE
  5
E1
100
AcDbEntity
  8
0
 62
     0
100
AcDbLine
 10
-52.87897
 20
42.502395
 30
0.0
 11
-52.87897
 21
42.502395
 31
0.0
  0
LINE
  5
E2
100
AcDbEntity
  8
0
 62
     0
100
AcDbLine
 10
-52.162088
 20
42.045691
 30
0.0
 11
-52.162088
 21
42.045691
 31
0.0
  0
LINE
  5
E3
100
AcDbEntity
  8
0
 62
     0
100
AcDbLine
 10
-50.756446
 20
27.621012
 30
0.0
 11
-50.756446
 21
27.621012
 31
0.0
  0
LINE
  5
E4
100
AcDbEntity
  8
0
 62
     0
100
AcDbLine
 10
-52.681139
 20
25.46488
 30
0.0
 11
-52.681139
 21
25.46488
 31
0.0
  0
LINE
  5
E5
100
AcDbEntity
  8
0
 62
     0
100
AcDbLine
 10
-51.964256
 20
25.008175
 30
0.0
 11
-51.964256
 21
25.008175
 31
0.0
  0
ENDBLK
  5
E7
100
AcDbEntity
  8
0
100
AcDbBlockEnd
  0
BLOCK
  5
C6
100
AcDbEntity
  8
0
100
AcDbBlockBegin
  2
GLASV4_18
 70
     0
 10
0.0
 20
0.0
 30
0.0
  3
GLASV4_18
  1

  0
LINE
  5
A5
100
AcDbEntity
  8
GLAS_MED_FOGNING
100
AcDbLine
 10
7.6
 20
47.0
 30
0.0
 11
7.6
 21
30.0
 31
0.0
  0
INSERT
  5
A6
100
AcDbEntity
  8
GLAS_MED_FOGNING
100
AcDbBlockReference
  2
*X14
 10
65.0
 20
0.0
 30
0.0
1001
ACAD
1000
HATCH
1002
{
1070
    16
1000
AR-SAND
1040
1.7
1040
0.0
1002
}
  0
LINE
  5
BA
100
AcDbEntity
  8
GLAS_MED_FOGNING
100
AcDbLine
 10
7.6
 20
31.0
 30
0.0
 11
3.6
 21
31.0
 31
0.0
  0
LINE
  5
BB
100
AcDbEntity
  8
GLAS_MED_FOGNING
100
AcDbLine
 10
7.6
 20
35.0
 30
0.0
 11
3.6
 21
35.0
 31
0.0
  0
LINE
  5
BC
100
AcDbEntity
  8
GLAS_MED_FOGNING
100
AcDbLine
 10
7.6
 20
32.0
 30
0.0
 11
3.6
 21
32.0
 31
0.0
  0
LINE
  5
BD
100
AcDbEntity
  8
GLAS_MED_FOGNING
100
AcDbLine
 10
7.6
 20
34.0
 30
0.0
 11
3.6
 21
34.0
 31
0.0
  0
LINE
  5
BE
100
AcDbEntity
  8
GLAS_MED_FOGNING
100
AcDbLine
 10
7.6
 20
33.0
 30
0.0
 11
3.6
 21
33.0
 31
0.0
  0
LINE
  5
BF
100
AcDbEntity
  8
GLAS_MED_FOGNING
100
AcDbLine
 10
7.6
 20
36.0
 30
0.0
 11
3.6
 21
36.0
 31
0.0
  0
LINE
  5
C0
100
AcDbEntity
  8
GLAS_MED_FOGNING
100
AcDbLine
 10
7.6
 20
38.0
 30
0.0
 11
3.6
 21
38.0
 31
0.0
  0
LINE
  5
C1
100
AcDbEntity
  8
GLAS_MED_FOGNING
100
AcDbLine
 10
7.6
 20
37.0
 30
0.0
 11
3.6
 21
37.0
 31
0.0
  0
LINE
  5
C2
100
AcDbEntity
  8
GLAS_MED_FOGNING
100
AcDbLine
 10
7.6
 20
39.0
 30
0.0
 11
3.6
 21
39.0
 31
0.0
  0
ARC
  5
C3
100
AcDbEntity
  8
GLAS_MED_FOGNING
100
AcDbCircle
 10
3.6
 20
47.0
 30
0.0
 40
4.0
100
AcDbArc
 50
270.0
 51
0.0
  0
LINE
  5
C4
100
AcDbEntity
  8
GLAS_MED_FOGNING
100
AcDbLine
 10
7.6
 20
41.0
 30
0.0
 11
3.6
 21
41.0
 31
0.0
  0
LINE
  5
C5
100
AcDbEntity
  8
GLAS_MED_FOGNING
100
AcDbLine
 10
7.6
 20
40.0
 30
0.0
 11
3.6
 21
40.0
 31
0.0
  0
ENDBLK
  5
C7
100
AcDbEntity
  8
0
100
AcDbBlockEnd
  0
BLOCK
  5
F2
100
AcDbEntity
  8
0
100
AcDbBlockBegin
  2
GLASH3
 70
     0
 10
0.0
 20
0.0
 30
0.0
  3
GLASH3
  1

  0
LINE
  5
D2
100
AcDbEntity
  8
GLAS_MED_FOGNING
100
AcDbLine
 10
-5.0
 20
41.0
 30
0.0
 11
-8.0
 21
41.0
 31
0.0
  0
ARC
  5
D3
100
AcDbEntity
  8
GLAS_MED_FOGNING
100
AcDbCircle
 10
-5.0
 20
46.0
 30
0.0
 40
3.0
100
AcDbArc
 50
180.0
 51
270.0
  0
LINE
  5
D4
100
AcDbEntity
  8
GLAS_MED_FOGNING
100
AcDbLine
 10
-5.0
 20
31.0
 30
0.0
 11
-8.0
 21
31.0
 31
0.0
  0
INSERT
  5
D5
100
AcDbEntity
  8
GLAS_MED_FOGNING
100
AcDbBlockReference
  2
*X15
 10
45.0
 20
0.0
 30
0.0
1001
ACAD
1000
HATCH
1002
{
1070
    16
1000
AR-SAND
1040
1.7
1040
0.0
1002
}
  0
LINE
  5
E8
100
AcDbEntity
  8
GLAS_MED_FOGNING
100
AcDbLine
 10
-5.0
 20
38.0
 30
0.0
 11
-8.0
 21
38.0
 31
0.0
  0
LINE
  5
E9
100
AcDbEntity
  8
GLAS_MED_FOGNING
100
AcDbLine
 10
-5.0
 20
39.0
 30
0.0
 11
-8.0
 21
39.0
 31
0.0
  0
LINE
  5
EA
100
AcDbEntity
  8
GLAS_MED_FOGNING
100
AcDbLine
 10
-5.0
 20
40.0
 30
0.0
 11
-8.0
 21
40.0
 31
0.0
  0
LINE
  5
EB
100
AcDbEntity
  8
GLAS_MED_FOGNING
100
AcDbLine
 10
-5.0
 20
32.0
 30
0.0
 11
-8.0
 21
32.0
 31
0.0
  0
LINE
  5
EC
100
AcDbEntity
  8
GLAS_MED_FOGNING
100
AcDbLine
 10
-5.0
 20
33.0
 30
0.0
 11
-8.0
 21
33.0
 31
0.0
  0
LINE
  5
ED
100
AcDbEntity
  8
GLAS_MED_FOGNING
100
AcDbLine
 10
-5.0
 20
34.0
 30
0.0
 11
-8.0
 21
34.0
 31
0.0
  0
LINE
  5
EE
100
AcDbEntity
  8
GLAS_MED_FOGNING
100
AcDbLine
 10
-5.0
 20
35.0
 30
0.0
 11
-8.0
 21
35.0
 31
0.0
  0
LINE
  5
EF
100
AcDbEntity
  8
GLAS_MED_FOGNING
100
AcDbLine
 10
-5.0
 20
36.0
 30
0.0
 11
-8.0
 21
36.0
 31
0.0
  0
LINE
  5
F0
100
AcDbEntity
  8
GLAS_MED_FOGNING
100
AcDbLine
 10
-5.0
 20
37.0
 30
0.0
 11
-8.0
 21
37.0
 31
0.0
  0
LINE
  5
F1
100
AcDbEntity
  8
GLAS_MED_FOGNING
100
AcDbLine
 10
-8.0
 20
47.0
 30
0.0
 11
-8.0
 21
30.0
 31
0.0
  0
ENDBLK
  5
F3
100
AcDbEntity
  8
0
100
AcDbBlockEnd
  0
BLOCK
  5
13E
100
AcDbEntity
  8
0
100
AcDbBlockBegin
  2
SP40520
 70
     0
 10
0.0
 20
0.0
 30
0.0
  3
SP40520
  1

  0
LWPOLYLINE
  5
13A
100
AcDbEntity
  8
SPKONTUR
100
AcDbPolyline
 90
       10
 70
     0
 43
0.0
 10
-15.0
 20
27.5
 10
-15.0
 20
26.75
 42
0.414214
 10
-13.25
 20
25.0
 10
-1.75
 20
25.0
 42
0.414214
 10
0.0
 20
26.75
 10
0.0
 20
43.75
 42
0.414214
 10
-1.25
 20
45.0
 10
-1.2501
 20
45.0
 42
0.414214
 10
-2.5
 20
43.7501
 10
-2.5
 20
39.0
  0
LWPOLYLINE
  5
13B
100
AcDbEntity
  8
STALPROFIL
100
AcDbPolyline
 90
        9
 70
     0
 43
1.25
 10
-14.375
 20
27.5
 10
-14.375
 20
26.75
 42
0.414214
 10
-13.25
 20
25.625
 10
-1.75
 20
25.625
 42
0.414214
 10
-0.625
 20
26.75
 10
-0.625
 20
43.75
 42
0.414214
 10
-1.2501
 20
44.375
 42
0.414214
 10
-1.875
 20
43.7501
 10
-1.875
 20
39.0
  0
LWPOLYLINE
  5
13C
100
AcDbEntity
  8
GLAS_MED_FOGNING
100
AcDbPolyline
 90
        9
 70
     0
 43
0.0
 10
-26.895347
 20
26.821776
 10
-25.0
 20
25.1
 10
-17.5
 20
25.099814
 42
0.315299
 10
-16.278378
 20
25.955158
 10
-15.496797
 20
28.102371
 42
-0.419684
 10
-15.107042
 20
28.279701
 10
-11.40871
 20
26.461158
 42
0.414233
 10
-9.670299
 20
27.059616
 10
-7.916703
 20
30.654738
  0
LINE
  5
13D
100
AcDbEntity
  8
CENTRUM
100
AcDbLine
 10
-20.999975
 20
26.099901
 30
0.0
 11
-21.000124
 21
20.099901
 31
0.0
  0
ENDBLK
  5
13F
100
AcDbEntity
  8
0
100
AcDbBlockEnd
  0
BLOCK
  5
174
100
AcDbEntity
  8
0
100
AcDbBlockBegin
  2
*X19
 70
     1
 10
0.0
 20
0.0
 30
0.0
  3
*X19
  1

  0
LINE
  5
16A
100
AcDbEntity
  8
0
 62
     0
100
AcDbLine
 10
-3.964252
 20
40.411648
 30
0.0
 11
-3.964252
 21
40.411648
 31
0.0
  0
LINE
  5
16B
100
AcDbEntity
  8
0
 62
     0
100
AcDbLine
 10
-4.090239
 20
44.265296
 30
0.0
 11
-4.090239
 21
44.265296
 31
0.0
  0
LINE
  5
16C
100
AcDbEntity
  8
0
 62
     0
100
AcDbLine
 10
-3.586292
 20
28.850706
 30
0.0
 11
-3.586292
 21
28.850706
 31
0.0
  0
LINE
  5
16D
100
AcDbEntity
  8
0
 62
     0
100
AcDbLine
 10
-3.984846
 20
40.901794
 30
0.0
 11
-3.984846
 21
40.901794
 31
0.0
  0
LINE
  5
16E
100
AcDbEntity
  8
0
 62
     0
100
AcDbLine
 10
-4.054438
 20
30.53603
 30
0.0
 11
-4.054438
 21
30.53603
 31
0.0
  0
LINE
  5
16F
100
AcDbEntity
  8
0
 62
     0
100
AcDbLine
 10
-1.337879
 20
30.893671
 30
0.0
 11
-1.337879
 21
30.893671
 31
0.0
  0
LINE
  5
170
100
AcDbEntity
  8
0
 62
     0
100
AcDbLine
 10
-2.925486
 20
40.088272
 30
0.0
 11
-2.925486
 21
40.088272
 31
0.0
  0
LINE
  5
171
100
AcDbEntity
  8
0
 62
     0
100
AcDbLine
 10
-2.043656
 20
27.588967
 30
0.0
 11
-2.043656
 21
27.588967
 31
0.0
  0
LINE
  5
172
100
AcDbEntity
  8
0
 62
     0
100
AcDbLine
 10
-3.006559
 20
29.559094
 30
0.0
 11
-3.006559
 21
29.559094
 31
0.0
  0
LINE
  5
173
100
AcDbEntity
  8
0
 62
     0
100
AcDbLine
 10
-2.63792
 20
29.221299
 30
0.0
 11
-2.63792
 21
29.221299
 31
0.0
  0
ENDBLK
  5
175
100
AcDbEntity
  8
0
100
AcDbBlockEnd
  0
BLOCK
  5
153
100
AcDbEntity
  8
0
100
AcDbBlockBegin
  2
*X20
 70
     1
 10
0.0
 20
0.0
 30
0.0
  3
*X20
  1

  0
LINE
  5
146
100
AcDbEntity
  8
0
 62
     0
100
AcDbLine
 10
-46.107517
 20
39.676548
 30
0.0
 11
-46.107517
 21
39.676548
 31
0.0
  0
LINE
  5
147
100
AcDbEntity
  8
0
 62
     0
100
AcDbLine
 10
-45.729557
 20
28.115606
 30
0.0
 11
-45.729557
 21
28.115606
 31
0.0
  0
LINE
  5
148
100
AcDbEntity
  8
0
 62
     0
100
AcDbLine
 10
-46.250236
 20
30.159149
 30
0.0
 11
-46.250236
 21
30.159149
 31
0.0
  0
LINE
  5
149
100
AcDbEntity
  8
0
 62
     0
100
AcDbLine
 10
-45.209219
 20
30.296201
 30
0.0
 11
-45.209219
 21
30.296201
 31
0.0
  0
LINE
  5
14A
100
AcDbEntity
  8
0
 62
     0
100
AcDbLine
 10
-44.554675
 20
40.738976
 30
0.0
 11
-44.554675
 21
40.738976
 31
0.0
  0
LINE
  5
14B
100
AcDbEntity
  8
0
 62
     0
100
AcDbLine
 10
-44.406244
 20
25.223614
 30
0.0
 11
-44.406244
 21
25.223614
 31
0.0
  0
LINE
  5
14C
100
AcDbEntity
  8
0
 62
     0
100
AcDbLine
 10
-43.365227
 20
25.360666
 30
0.0
 11
-43.365227
 21
25.360666
 31
0.0
  0
LINE
  5
14D
100
AcDbEntity
  8
0
 62
     0
100
AcDbLine
 10
-46.523472
 20
40.009045
 30
0.0
 11
-46.523472
 21
40.009045
 31
0.0
  0
LINE
  5
14E
100
AcDbEntity
  8
0
 62
     0
100
AcDbLine
 10
-45.680081
 20
39.471746
 30
0.0
 11
-45.680081
 21
39.471746
 31
0.0
  0
LINE
  5
14F
100
AcDbEntity
  8
0
 62
     0
100
AcDbLine
 10
-44.259128
 20
42.545671
 30
0.0
 11
-44.259128
 21
42.545671
 31
0.0
  0
LINE
  5
150
100
AcDbEntity
  8
0
 62
     0
100
AcDbLine
 10
-45.641642
 20
27.50974
 30
0.0
 11
-45.641642
 21
27.50974
 31
0.0
  0
LINE
  5
151
100
AcDbEntity
  8
0
 62
     0
100
AcDbLine
 10
-45.443269
 20
39.386909
 30
0.0
 11
-45.443269
 21
39.386909
 31
0.0
  0
LINE
  5
152
100
AcDbEntity
  8
0
 62
     0
100
AcDbLine
 10
-46.909964
 20
26.201755
 30
0.0
 11
-46.909964
 21
26.201755
 31
0.0
  0
ENDBLK
  5
154
100
AcDbEntity
  8
0
100
AcDbBlockEnd
  0
BLOCK
  5
160
100
AcDbEntity
  8
0
100
AcDbBlockBegin
  2
FYLLNV
 70
     0
 10
0.0
 20
0.0
 30
0.0
  3
FYLLNV
  1

  0
LWPOLYLINE
  5
142
100
AcDbEntity
  8
SPKONTUR
100
AcDbPolyline
 90
        2
 70
     0
 43
0.0
 10
6.0
 20
29.0
 10
6.0
 20
46.001
  0
LWPOLYLINE
  5
143
100
AcDbEntity
  8
STALPROFIL
100
AcDbPolyline
 90
        2
 70
     0
 43
2.0
 10
7.0
 20
29.0
 10
7.0
 20
46.001
  0
INSERT
  5
144
100
AcDbEntity
  8
GLAS_MED_FOGNING
100
AcDbBlockReference
  2
*X20
 10
50.0
 20
0.0
 30
0.0
1001
ACAD
1000
HATCH
1002
{
1070
    16
1000
AR-SAND
1040
2.0
1040
0.0
1002
}
  0
ARC
  5
155
100
AcDbEntity
  8
GLAS_MED_FOGNING
100
AcDbCircle
 10
12.0
 20
29.0
 30
0.0
 40
6.0
100
AcDbArc
 50
180.0
 51
221.810315
  0
LINE
  5
156
100
AcDbEntity
  8
GLAS_MED_FOGNING
100
AcDbLine
 10
3.0
 20
35.0
 30
0.0
 11
6.0
 21
35.0
 31
0.0
  0
LINE
  5
157
100
AcDbEntity
  8
GLAS_MED_FOGNING
100
AcDbLine
 10
3.0
 20
38.0
 30
0.0
 11
6.0
 21
38.0
 31
0.0
  0
LINE
  5
158
100
AcDbEntity
  8
GLAS_MED_FOGNING
100
AcDbLine
 10
3.0
 20
37.0
 30
0.0
 11
6.0
 21
37.0
 31
0.0
  0
LINE
  5
159
100
AcDbEntity
  8
GLAS_MED_FOGNING
100
AcDbLine
 10
3.0
 20
36.0
 30
0.0
 11
6.0
 21
36.0
 31
0.0
  0
LINE
  5
15A
100
AcDbEntity
  8
GLAS_MED_FOGNING
100
AcDbLine
 10
3.0
 20
39.0
 30
0.0
 11
6.0
 21
39.0
 31
0.0
  0
LINE
  5
15B
100
AcDbEntity
  8
GLAS_MED_FOGNING
100
AcDbLine
 10
3.0
 20
34.0
 30
0.0
 11
6.0
 21
34.0
 31
0.0
  0
LINE
  5
15C
100
AcDbEntity
  8
GLAS_MED_FOGNING
100
AcDbLine
 10
3.0
 20
31.0
 30
0.0
 11
6.0
 21
31.0
 31
0.0
  0
LINE
  5
15D
100
AcDbEntity
  8
GLAS_MED_FOGNING
100
AcDbLine
 10
3.0
 20
33.0
 30
0.0
 11
6.0
 21
33.0
 31
0.0
  0
LINE
  5
15E
100
AcDbEntity
  8
GLAS_MED_FOGNING
100
AcDbLine
 10
3.0
 20
32.0
 30
0.0
 11
6.0
 21
32.0
 31
0.0
  0
ARC
  5
15F
100
AcDbEntity
  8
GLAS_MED_FOGNING
100
AcDbCircle
 10
3.0
 20
46.001
 30
0.0
 40
3.0
100
AcDbArc
 50
270.0
 51
0.0
  0
ENDBLK
  5
161
100
AcDbEntity
  8
0
100
AcDbBlockEnd
  0
BLOCK
  5
181
100
AcDbEntity
  8
0
100
AcDbBlockBegin
  2
FYLLNH
 70
     0
 10
0.0
 20
0.0
 30
0.0
  3
FYLLNH
  1

  0
LWPOLYLINE
  5
166
100
AcDbEntity
  8
SPKONTUR
100
AcDbPolyline
 90
        2
 70
     0
 43
0.0
 10
-4.25
 20
29.0
 10
-4.25
 20
46.001
  0
LWPOLYLINE
  5
167
100
AcDbEntity
  8
STALPROFIL
100
AcDbPolyline
 90
        2
 70
     0
 43
2.0
 10
-5.25
 20
29.0
 10
-5.25
 20
46.001
  0
INSERT
  5
168
100
AcDbEntity
  8
GLAS_MED_FOGNING
100
AcDbBlockReference
  2
*X19
 10
0.0
 20
0.0
 30
0.0
1001
ACAD
1000
HATCH
1002
{
1070
    16
1000
AR-SAND
1040
2.0
1040
0.0
1002
}
  0
ARC
  5
176
100
AcDbEntity
  8
GLAS_MED_FOGNING
100
AcDbCircle
 10
-10.25
 20
29.0
 30
0.0
 40
6.0
100
AcDbArc
 50
332.720387
 51
0.0
  0
LINE
  5
177
100
AcDbEntity
  8
GLAS_MED_FOGNING
100
AcDbLine
 10
-1.25
 20
31.0
 30
0.0
 11
-4.25
 21
31.0
 31
0.0
  0
LINE
  5
178
100
AcDbEntity
  8
GLAS_MED_FOGNING
100
AcDbLine
 10
-1.25
 20
33.0
 30
0.0
 11
-4.25
 21
33.0
 31
0.0
  0
LINE
  5
179
100
AcDbEntity
  8
GLAS_MED_FOGNING
100
AcDbLine
 10
-1.25
 20
32.0
 30
0.0
 11
-4.25
 21
32.0
 31
0.0
  0
LINE
  5
17A
100
AcDbEntity
  8
GLAS_MED_FOGNING
100
AcDbLine
 10
-1.25
 20
34.0
 30
0.0
 11
-4.25
 21
34.0
 31
0.0
  0
LINE
  5
17B
100
AcDbEntity
  8
GLAS_MED_FOGNING
100
AcDbLine
 10
-1.25
 20
39.0
 30
0.0
 11
-4.25
 21
39.0
 31
0.0
  0
LINE
  5
17C
100
AcDbEntity
  8
GLAS_MED_FOGNING
100
AcDbLine
 10
-1.25
 20
38.0
 30
0.0
 11
-4.25
 21
38.0
 31
0.0
  0
LINE
  5
17D
100
AcDbEntity
  8
GLAS_MED_FOGNING
100
AcDbLine
 10
-1.25
 20
37.0
 30
0.0
 11
-4.25
 21
37.0
 31
0.0
  0
LINE
  5
17E
100
AcDbEntity
  8
GLAS_MED_FOGNING
100
AcDbLine
 10
-1.25
 20
36.0
 30
0.0
 11
-4.25
 21
36.0
 31
0.0
  0
LINE
  5
17F
100
AcDbEntity
  8
GLAS_MED_FOGNING
100
AcDbLine
 10
-1.25
 20
35.0
 30
0.0
 11
-4.25
 21
35.0
 31
0.0
  0
ARC
  5
180
100
AcDbEntity
  8
GLAS_MED_FOGNING
100
AcDbCircle
 10
-2.5
 20
45.5001
 30
0.0
 40
1.75
100
AcDbArc
 50
180.0
 51
270.0
  0
ENDBLK
  5
182
100
AcDbEntity
  8
0
100
AcDbBlockEnd
  0
BLOCK
  5
3AC
100
AcDbEntity
  8
0
100
AcDbBlockBegin
  2
90_SP45020
 70
     0
 10
0.0
 20
0.0
 30
0.0
  3
90_SP45020
  1

  0
LWPOLYLINE
  5
374
100
AcDbEntity
  8
CENTRUM
100
AcDbPolyline
 90
        4
 70
     0
 43
0.0
 10
0.0
 20
57.5
 10
-55.0
 20
57.5
 10
-80.4
 20
57.5
 10
-90.0
 20
57.5
  0
INSERT
  5
375
100
AcDbEntity
  8
0
100
AcDbBlockReference
  2
SP45020
 10
0.0
 20
0.0
 30
0.0
  0
INSERT
  5
376
100
AcDbEntity
  8
GLAS_MED_FOGNING
100
AcDbBlockReference
  2
GLASH5
 10
-30.0
 20
0.0
 30
0.0
  0
INSERT
  5
377
100
AcDbEntity
  8
0
100
AcDbBlockReference
  2
GLASV6_18
 10
-90.0
 20
0.0
 30
0.0
  0
INSERT
  5
378
100
AcDbEntity
  8
GLAS_MED_FOGNING
100
AcDbBlockReference
  2
*X13
 10
-25.0
 20
0.0
 30
0.0
1001
ACAD
1000
HATCH
1002
{
1070
    16
1000
AR-SAND
1040
2.0
1040
0.0
1002
}
  0
LINE
  5
3A9
100
AcDbEntity
  8
GLAS_MED_FOGNING
100
AcDbLine
 10
-55.0
 20
30.0
 30
0.0
 11
-80.4
 21
30.0
 31
0.0
  0
LINE
  5
3AA
100
AcDbEntity
  8
GLAS_MED_FOGNING
100
AcDbLine
 10
-80.4
 20
57.5
 30
0.0
 11
-80.4
 21
49.0
 31
0.0
  0
LINE
  5
3AB
100
AcDbEntity
  8
GLAS_MED_FOGNING
100
AcDbLine
 10
-55.0
 20
57.5
 30
0.0
 11
-55.0
 21
49.0
 31
0.0
  0
ENDBLK
  5
3AD
100
AcDbEntity
  8
0
100
AcDbBlockEnd
  0
BLOCK
  5
337
100
AcDbEntity
  8
0
100
AcDbBlockBegin
  2
90_SP45020DK
 70
     0
 10
0.0
 20
0.0
 30
0.0
  3
90_SP45020DK
  1

  0
LWPOLYLINE
  5
32F
100
AcDbEntity
  8
CENTRUM
100
AcDbPolyline
 90
        4
 70
     0
 43
0.0
 10
0.0
 20
57.5
 10
-55.0
 20
57.5
 10
-80.4
 20
57.5
 10
-90.0
 20
57.5
  0
INSERT
  5
330
100
AcDbEntity
  8
0
100
AcDbBlockReference
  2
SP45020
 10
0.0
 20
0.0
 30
0.0
  0
INSERT
  5
331
100
AcDbEntity
  8
GLAS_MED_FOGNING
100
AcDbBlockReference
  2
GLASH5
 10
-30.0
 20
0.0
 30
0.0
  0
INSERT
  5
332
100
AcDbEntity
  8
0
100
AcDbBlockReference
  2
GLASV6_18
 10
-90.0
 20
0.0
 30
0.0
  0
LWPOLYLINE
  5
333
100
AcDbEntity
  8
GLAS_MED_FOGNING
100
AcDbPolyline
 90
        4
 70
     1
 43
0.0
 10
-80.4
 20
30.0
 10
-80.4
 20
25.0
 10
-55.0
 20
30.0
 10
-55.0
 20
25.0
  0
LINE
  5
334
100
AcDbEntity
  8
GLAS_MED_FOGNING
100
AcDbLine
 10
-55.0
 20
30.0
 30
0.0
 11
-80.4
 21
30.0
 31
0.0
  0
LINE
  5
335
100
AcDbEntity
  8
GLAS_MED_FOGNING
100
AcDbLine
 10
-80.4
 20
57.5
 30
0.0
 11
-80.4
 21
49.0
 31
0.0
  0
LINE
  5
336
100
AcDbEntity
  8
GLAS_MED_FOGNING
100
AcDbLine
 10
-55.0
 20
57.5
 30
0.0
 11
-55.0
 21
49.0
 31
0.0
  0
ENDBLK
  5
338
100
AcDbEntity
  8
0
100
AcDbBlockEnd
  0
BLOCK
  5
42C
100
AcDbEntity
  8
0
100
AcDbBlockBegin
  2
90_SP44020
 70
     0
 10
0.0
 20
0.0
 30
0.0
  3
90_SP44020
  1

  0
LWPOLYLINE
  5
3E0
100
AcDbEntity
  8
CENTRUM
100
AcDbPolyline
 90
        4
 70
     0
 43
0.0
 10
0.0
 20
57.5
 10
-45.0
 20
57.5
 10
-80.4
 20
57.5
 10
-90.0
 20
57.5
  0
INSERT
  5
3E1
100
AcDbEntity
  8
0
100
AcDbBlockReference
  2
GLASV6_18
 10
-90.0
 20
0.0
 30
0.0
  0
INSERT
  5
3E2
100
AcDbEntity
  8
0
100
AcDbBlockReference
  2
SP44020
 10
0.0
 20
0.0
 30
0.0
  0
INSERT
  5
3E3
100
AcDbEntity
  8
GLAS_MED_FOGNING
100
AcDbBlockReference
  2
GLASH5
 10
-20.0
 20
0.0
 30
0.0
  0
INSERT
  5
3E4
100
AcDbEntity
  8
GLAS_MED_FOGNING
100
AcDbBlockReference
  2
*X11
 10
-25.0
 20
0.0
 30
0.0
1001
ACAD
1000
HATCH
1002
{
1070
    16
1000
AR-SAND
1040
2.0
1040
0.0
1002
}
  0
LINE
  5
429
100
AcDbEntity
  8
GLAS_MED_FOGNING
100
AcDbLine
 10
-45.0
 20
30.0
 30
0.0
 11
-80.4
 21
30.0
 31
0.0
  0
LINE
  5
42A
100
AcDbEntity
  8
GLAS_MED_FOGNING
100
AcDbLine
 10
-80.4
 20
57.5
 30
0.0
 11
-80.4
 21
49.0
 31
0.0
  0
LINE
  5
42B
100
AcDbEntity
  8
GLAS_MED_FOGNING
100
AcDbLine
 10
-45.0
 20
57.5
 30
0.0
 11
-45.0
 21
49.0
 31
0.0
  0
ENDBLK
  5
42D
100
AcDbEntity
  8
0
100
AcDbBlockEnd
  0
BLOCK
  5
3DB
100
AcDbEntity
  8
0
100
AcDbBlockBegin
  2
90_SP44020DK
 70
     0
 10
0.0
 20
0.0
 30
0.0
  3
90_SP44020DK
  1

  0
LWPOLYLINE
  5
3D3
100
AcDbEntity
  8
CENTRUM
100
AcDbPolyline
 90
        4
 70
     0
 43
0.0
 10
0.0
 20
57.5
 10
-45.0
 20
57.5
 10
-80.4
 20
57.5
 10
-90.0
 20
57.5
  0
INSERT
  5
3D4
100
AcDbEntity
  8
0
100
AcDbBlockReference
  2
GLASV6_18
 10
-90.0
 20
0.0
 30
0.0
  0
INSERT
  5
3D5
100
AcDbEntity
  8
0
100
AcDbBlockReference
  2
SP44020
 10
0.0
 20
0.0
 30
0.0
  0
INSERT
  5
3D6
100
AcDbEntity
  8
GLAS_MED_FOGNING
100
AcDbBlockReference
  2
GLASH5
 10
-20.0
 20
0.0
 30
0.0
  0
LWPOLYLINE
  5
3D7
100
AcDbEntity
  8
GLAS_MED_FOGNING
100
AcDbPolyline
 90
        4
 70
     1
 43
0.0
 10
-80.4
 20
30.0
 10
-80.4
 20
25.0
 10
-45.0
 20
30.0
 10
-45.0
 20
25.0
  0
LINE
  5
3D8
100
AcDbEntity
  8
GLAS_MED_FOGNING
100
AcDbLine
 10
-45.0
 20
30.0
 30
0.0
 11
-80.4
 21
30.0
 31
0.0
  0
LINE
  5
3D9
100
AcDbEntity
  8
GLAS_MED_FOGNING
100
AcDbLine
 10
-80.4
 20
57.5
 30
0.0
 11
-80.4
 21
49.0
 31
0.0
  0
LINE
  5
3DA
100
AcDbEntity
  8
GLAS_MED_FOGNING
100
AcDbLine
 10
-45.0
 20
57.5
 30
0.0
 11
-45.0
 21
49.0
 31
0.0
  0
ENDBLK
  5
3DC
100
AcDbEntity
  8
0
100
AcDbBlockEnd
  0
BLOCK
  5
185
100
AcDbEntity
  8
0
100
AcDbBlockBegin
  2
90_SP40520FYLLN
 70
     0
 10
0.0
 20
0.0
 30
0.0
  3
90_SP40520FYLLN
  1

  0
LWPOLYLINE
  5
135
100
AcDbEntity
  8
ISOLERING
100
AcDbPolyline
 90
       14
 70
     0
 43
0.0
 10
-9.518759
 20
30.805791
 42
0.107028
 10
-11.203417
 20
30.974219
 10
-76.446583
 20
28.025781
 42
-1.120577
 10
-76.446583
 20
35.974219
 10
-11.203417
 20
33.025781
 42
1.120577
 10
-11.203417
 20
40.974219
 10
-76.446583
 20
38.025781
 42
-1.120577
 10
-76.446583
 20
45.974219
 10
-11.203417
 20
43.025781
 42
1.120577
 10
-11.203417
 20
50.974219
 10
-76.446583
 20
48.025781
 42
-1.120577
 10
-76.446583
 20
55.974219
 10
-11.203417
 20
53.025781
 42
0.486056
 10
-6.781373
 20
57.5
  0
LWPOLYLINE
  5
137
100
AcDbEntity
  8
CENTRUM
100
AcDbPolyline
 90
        6
 70
     0
 43
0.0
 10
0.0
 20
57.5
 10
-4.25
 20
57.5
 10
-6.25
 20
57.5
 10
-81.4
 20
57.5
 10
-83.4
 20
57.5
 10
-89.4
 20
57.5
  0
INSERT
  5
138
100
AcDbEntity
  8
0
100
AcDbBlockReference
  2
SP40520
 10
0.0
 20
0.0
 30
0.0
  0
INSERT
  5
140
100
AcDbEntity
  8
0
100
AcDbBlockReference
  2
FYLLNV
 10
-89.4
 20
0.0
 30
0.0
  0
LWPOLYLINE
  5
162
100
AcDbEntity
  8
STALPROFIL
100
AcDbPolyline
 90
        2
 70
     0
 43
2.0
 10
-82.4
 20
46.001
 10
-82.4
 20
57.5
  0
LWPOLYLINE
  5
163
100
AcDbEntity
  8
SPKONTUR
100
AcDbPolyline
 90
        2
 70
     0
 43
0.0
 10
-83.4
 20
46.001
 10
-83.4
 20
57.5
  0
INSERT
  5
164
100
AcDbEntity
  8
0
100
AcDbBlockReference
  2
FYLLNH
 10
0.0
 20
0.0
 30
0.0
  0
LWPOLYLINE
  5
183
100
AcDbEntity
  8
STALPROFIL
100
AcDbPolyline
 90
        2
 70
     0
 43
2.0
 10
-5.25
 20
46.001
 10
-5.25
 20
57.5
  0
LWPOLYLINE
  5
184
100
AcDbEntity
  8
SPKONTUR
100
AcDbPolyline
 90
        2
 70
     0
 43
0.0
 10
-4.25
 20
46.001
 10
-4.25
 20
57.5
  0
ENDBLK
  5
186
100
AcDbEntity
  8
0
100
AcDbBlockEnd
  0
BLOCK
  5
29A
100
AcDbEntity
  8
0
100
AcDbBlockBegin
  2
90_SP43520DK
 70
     0
 10
0.0
 20
0.0
 30
0.0
  3
90_SP43520DK
  1

  0
LWPOLYLINE
  5
292
100
AcDbEntity
  8
CENTRUM
100
AcDbPolyline
 90
        4
 70
     0
 43
0.0
 10
0.0
 20
57.5
 10
-40.0
 20
57.5
 10
-80.4
 20
57.5
 10
-90.0
 20
57.5
  0
LWPOLYLINE
  5
293
100
AcDbEntity
  8
GLAS_MED_FOGNING
100
AcDbPolyline
 90
        4
 70
     1
 43
0.0
 10
-80.4
 20
30.0
 10
-80.4
 20
25.0
 10
-40.0
 20
30.0
 10
-40.0
 20
25.0
  0
LINE
  5
294
100
AcDbEntity
  8
GLAS_MED_FOGNING
100
AcDbLine
 10
-40.0
 20
30.0
 30
0.0
 11
-80.4
 21
30.0
 31
0.0
  0
INSERT
  5
295
100
AcDbEntity
  8
0
100
AcDbBlockReference
  2
GLASV6_18
 10
-90.0
 20
0.0
 30
0.0
  0
LINE
  5
296
100
AcDbEntity
  8
GLAS_MED_FOGNING
100
AcDbLine
 10
-80.4
 20
57.5
 30
0.0
 11
-80.4
 21
49.0
 31
0.0
  0
INSERT
  5
297
100
AcDbEntity
  8
GLAS_MED_FOGNING
100
AcDbBlockReference
  2
GLASH5
 10
-15.0
 20
0.0
 30
0.0
  0
LINE
  5
298
100
AcDbEntity
  8
GLAS_MED_FOGNING
100
AcDbLine
 10
-40.0
 20
57.5
 30
0.0
 11
-40.0
 21
49.0
 31
0.0
  0
INSERT
  5
299
100
AcDbEntity
  8
0
100
AcDbBlockReference
  2
SP43520
 10
0.0
 20
0.0
 30
0.0
  0
ENDBLK
  5
29B
100
AcDbEntity
  8
0
100
AcDbBlockEnd
  0
BLOCK
  5
325
100
AcDbEntity
  8
0
100
AcDbBlockBegin
  2
90_SP43020DK
 70
     0
 10
0.0
 20
0.0
 30
0.0
  3
90_SP43020DK
  1

  0
LWPOLYLINE
  5
31D
100
AcDbEntity
  8
CENTRUM
100
AcDbPolyline
 90
        4
 70
     0
 43
0.0
 10
0.0
 20
57.5
 10
-35.0
 20
57.5
 10
-80.4
 20
57.5
 10
-90.0
 20
57.5
  0
LWPOLYLINE
  5
31E
100
AcDbEntity
  8
GLAS_MED_FOGNING
100
AcDbPolyline
 90
        4
 70
     1
 43
0.0
 10
-80.4
 20
30.0
 10
-80.4
 20
25.0
 10
-35.0
 20
30.0
 10
-35.0
 20
25.0
  0
LINE
  5
31F
100
AcDbEntity
  8
GLAS_MED_FOGNING
100
AcDbLine
 10
-35.0
 20
30.0
 30
0.0
 11
-80.4
 21
30.0
 31
0.0
  0
INSERT
  5
320
100
AcDbEntity
  8
0
100
AcDbBlockReference
  2
GLASV6_18
 10
-90.0
 20
0.0
 30
0.0
  0
LINE
  5
321
100
AcDbEntity
  8
GLAS_MED_FOGNING
100
AcDbLine
 10
-80.4
 20
57.5
 30
0.0
 11
-80.4
 21
49.0
 31
0.0
  0
INSERT
  5
322
100
AcDbEntity
  8
GLAS_MED_FOGNING
100
AcDbBlockReference
  2
GLASH5
 10
-10.0
 20
0.0
 30
0.0
  0
LINE
  5
323
100
AcDbEntity
  8
GLAS_MED_FOGNING
100
AcDbLine
 10
-35.0
 20
57.5
 30
0.0
 11
-35.0
 21
49.0
 31
0.0
  0
INSERT
  5
324
100
AcDbEntity
  8
0
100
AcDbBlockReference
  2
SP43020
 10
0.0
 20
0.0
 30
0.0
  0
ENDBLK
  5
326
100
AcDbEntity
  8
0
100
AcDbBlockEnd
  0
BLOCK
  5
3CC
100
AcDbEntity
  8
0
100
AcDbBlockBegin
  2
90_SP42520DK
 70
     0
 10
0.0
 20
0.0
 30
0.0
  3
90_SP42520DK
  1

  0
LWPOLYLINE
  5
3C4
100
AcDbEntity
  8
CENTRUM
100
AcDbPolyline
 90
        4
 70
     0
 43
0.0
 10
0.0
 20
57.5
 10
-30.0
 20
57.5
 10
-80.4
 20
57.5
 10
-90.0
 20
57.5
  0
LWPOLYLINE
  5
3C5
100
AcDbEntity
  8
GLAS_MED_FOGNING
100
AcDbPolyline
 90
        4
 70
     1
 43
0.0
 10
-80.4
 20
30.0
 10
-80.4
 20
25.0
 10
-30.0
 20
30.0
 10
-30.0
 20
25.0
  0
LINE
  5
3C6
100
AcDbEntity
  8
GLAS_MED_FOGNING
100
AcDbLine
 10
-30.0
 20
30.0
 30
0.0
 11
-80.4
 21
30.0
 31
0.0
  0
INSERT
  5
3C7
100
AcDbEntity
  8
0
100
AcDbBlockReference
  2
GLASV6_18
 10
-90.0
 20
0.0
 30
0.0
  0
LINE
  5
3C8
100
AcDbEntity
  8
GLAS_MED_FOGNING
100
AcDbLine
 10
-80.4
 20
57.5
 30
0.0
 11
-80.4
 21
49.0
 31
0.0
  0
INSERT
  5
3C9
100
AcDbEntity
  8
GLAS_MED_FOGNING
100
AcDbBlockReference
  2
GLASH5
 10
-5.0
 20
0.0
 30
0.0
  0
LINE
  5
3CA
100
AcDbEntity
  8
GLAS_MED_FOGNING
100
AcDbLine
 10
-30.0
 20
57.5
 30
0.0
 11
-30.0
 21
49.0
 31
0.0
  0
INSERT
  5
3CB
100
AcDbEntity
  8
0
100
AcDbBlockReference
  2
SP42520
 10
0.0
 20
0.0
 30
0.0
  0
ENDBLK
  5
3CD
100
AcDbEntity
  8
0
100
AcDbBlockEnd
  0
BLOCK
  5
36A
100
AcDbEntity
  8
0
100
AcDbBlockBegin
  2
*X31
 70
     1
 10
0.0
 20
0.0
 30
0.0
  3
*X31
  1

  0
LINE
  5
343
100
AcDbEntity
  8
0
 62
     0
100
AcDbLine
 10
-69.296285
 20
25.833501
 30
0.0
 11
-69.296285
 21
25.833501
 31
0.0
  0
LINE
  5
344
100
AcDbEntity
  8
0
 62
     0
100
AcDbLine
 10
-66.598884
 20
27.90329
 30
0.0
 11
-66.598884
 21
27.90329
 31
0.0
  0
LINE
  5
345
100
AcDbEntity
  8
0
 62
     0
100
AcDbLine
 10
-64.020485
 20
29.881765
 30
0.0
 11
-64.020485
 21
29.881765
 31
0.0
  0
LINE
  5
346
100
AcDbEntity
  8
0
 62
     0
100
AcDbLine
 10
-74.412464
 20
25.858039
 30
0.0
 11
-74.412464
 21
25.858039
 31
0.0
  0
LINE
  5
347
100
AcDbEntity
  8
0
 62
     0
100
AcDbLine
 10
-71.834066
 20
27.836514
 30
0.0
 11
-71.834066
 21
27.836514
 31
0.0
  0
LINE
  5
348
100
AcDbEntity
  8
0
 62
     0
100
AcDbLine
 10
-69.422272
 20
29.687149
 30
0.0
 11
-69.422272
 21
29.687149
 31
0.0
  0
LINE
  5
349
100
AcDbEntity
  8
0
 62
     0
100
AcDbLine
 10
-79.647646
 20
25.791263
 30
0.0
 11
-79.647646
 21
25.791263
 31
0.0
  0
LINE
  5
34A
100
AcDbEntity
  8
0
 62
     0
100
AcDbLine
 10
-77.235852
 20
27.641898
 30
0.0
 11
-77.235852
 21
27.641898
 31
0.0
  0
LINE
  5
34B
100
AcDbEntity
  8
0
 62
     0
100
AcDbLine
 10
-74.538451
 20
29.711687
 30
0.0
 11
-74.538451
 21
29.711687
 31
0.0
  0
LINE
  5
34C
100
AcDbEntity
  8
0
 62
     0
100
AcDbLine
 10
-79.773633
 20
29.644911
 30
0.0
 11
-79.773633
 21
29.644911
 31
0.0
  0
LINE
  5
34D
100
AcDbEntity
  8
0
 62
     0
100
AcDbLine
 10
-63.894499
 20
26.028117
 30
0.0
 11
-63.894499
 21
26.028117
 31
0.0
  0
LINE
  5
34E
100
AcDbEntity
  8
0
 62
     0
100
AcDbLine
 10
-78.55151
 20
25.906605
 30
0.0
 11
-78.55151
 21
25.906605
 31
0.0
  0
LINE
  5
34F
100
AcDbEntity
  8
0
 62
     0
100
AcDbLine
 10
-77.510492
 20
26.043658
 30
0.0
 11
-77.510492
 21
26.043658
 31
0.0
  0
LINE
  5
350
100
AcDbEntity
  8
0
 62
     0
100
AcDbLine
 10
-75.884523
 20
26.257721
 30
0.0
 11
-75.884523
 21
26.257721
 31
0.0
  0
LINE
  5
351
100
AcDbEntity
  8
0
 62
     0
100
AcDbLine
 10
-73.167964
 20
26.615362
 30
0.0
 11
-73.167964
 21
26.615362
 31
0.0
  0
LINE
  5
352
100
AcDbEntity
  8
0
 62
     0
100
AcDbLine
 10
-72.126947
 20
26.752415
 30
0.0
 11
-72.126947
 21
26.752415
 31
0.0
  0
LINE
  5
353
100
AcDbEntity
  8
0
 62
     0
100
AcDbLine
 10
-70.500977
 20
26.966478
 30
0.0
 11
-70.500977
 21
26.966478
 31
0.0
  0
LINE
  5
354
100
AcDbEntity
  8
0
 62
     0
100
AcDbLine
 10
-67.784418
 20
27.32412
 30
0.0
 11
-67.784418
 21
27.32412
 31
0.0
  0
LINE
  5
355
100
AcDbEntity
  8
0
 62
     0
100
AcDbLine
 10
-66.743401
 20
27.461172
 30
0.0
 11
-66.743401
 21
27.461172
 31
0.0
  0
LINE
  5
356
100
AcDbEntity
  8
0
 62
     0
100
AcDbLine
 10
-65.117432
 20
27.675235
 30
0.0
 11
-65.117432
 21
27.675235
 31
0.0
  0
LINE
  5
357
100
AcDbEntity
  8
0
 62
     0
100
AcDbLine
 10
-62.400873
 20
28.032877
 30
0.0
 11
-62.400873
 21
28.032877
 31
0.0
  0
LINE
  5
358
100
AcDbEntity
  8
0
 62
     0
100
AcDbLine
 10
-74.434378
 20
29.936046
 30
0.0
 11
-74.434378
 21
29.936046
 31
0.0
  0
LINE
  5
359
100
AcDbEntity
  8
0
 62
     0
100
AcDbLine
 10
-73.590986
 20
29.398746
 30
0.0
 11
-73.590986
 21
29.398746
 31
0.0
  0
LINE
  5
35A
100
AcDbEntity
  8
0
 62
     0
100
AcDbLine
 10
-70.554777
 20
27.464468
 30
0.0
 11
-70.554777
 21
27.464468
 31
0.0
  0
LINE
  5
35B
100
AcDbEntity
  8
0
 62
     0
100
AcDbLine
 10
-68.206094
 20
29.947364
 30
0.0
 11
-68.206094
 21
29.947364
 31
0.0
  0
LINE
  5
35C
100
AcDbEntity
  8
0
 62
     0
100
AcDbLine
 10
-67.362702
 20
29.410064
 30
0.0
 11
-67.362702
 21
29.410064
 31
0.0
  0
LINE
  5
35D
100
AcDbEntity
  8
0
 62
     0
100
AcDbLine
 10
-64.326493
 20
27.475786
 30
0.0
 11
-64.326493
 21
27.475786
 31
0.0
  0
LINE
  5
35E
100
AcDbEntity
  8
0
 62
     0
100
AcDbLine
 10
-79.81927
 20
29.387428
 30
0.0
 11
-79.81927
 21
29.387428
 31
0.0
  0
LINE
  5
35F
100
AcDbEntity
  8
0
 62
     0
100
AcDbLine
 10
-76.783061
 20
27.453149
 30
0.0
 11
-76.783061
 21
27.453149
 31
0.0
  0
LINE
  5
360
100
AcDbEntity
  8
0
 62
     0
100
AcDbLine
 10
-65.39302
 20
28.609223
 30
0.0
 11
-65.39302
 21
28.609223
 31
0.0
  0
LINE
  5
361
100
AcDbEntity
  8
0
 62
     0
100
AcDbLine
 10
-63.402371
 20
26.785129
 30
0.0
 11
-63.402371
 21
26.785129
 31
0.0
  0
LINE
  5
362
100
AcDbEntity
  8
0
 62
     0
100
AcDbLine
 10
-63.033732
 20
26.447334
 30
0.0
 11
-63.033732
 21
26.447334
 31
0.0
  0
LINE
  5
363
100
AcDbEntity
  8
0
 62
     0
100
AcDbLine
 10
-73.513886
 20
28.78606
 30
0.0
 11
-73.513886
 21
28.78606
 31
0.0
  0
LINE
  5
364
100
AcDbEntity
  8
0
 62
     0
100
AcDbLine
 10
-73.145247
 20
28.448265
 30
0.0
 11
-73.145247
 21
28.448265
 31
0.0
  0
LINE
  5
365
100
AcDbEntity
  8
0
 62
     0
100
AcDbLine
 10
-71.405273
 20
26.853872
 30
0.0
 11
-71.405273
 21
26.853872
 31
0.0
  0
LINE
  5
366
100
AcDbEntity
  8
0
 62
     0
100
AcDbLine
 10
-69.414624
 20
25.029778
 30
0.0
 11
-69.414624
 21
25.029778
 31
0.0
  0
LINE
  5
367
100
AcDbEntity
  8
0
 62
     0
100
AcDbLine
 10
-79.526139
 20
27.030709
 30
0.0
 11
-79.526139
 21
27.030709
 31
0.0
  0
LINE
  5
368
100
AcDbEntity
  8
0
 62
     0
100
AcDbLine
 10
-79.157501
 20
26.692914
 30
0.0
 11
-79.157501
 21
26.692914
 31
0.0
  0
LINE
  5
369
100
AcDbEntity
  8
0
 62
     0
100
AcDbLine
 10
-77.417526
 20
25.098521
 30
0.0
 11
-77.417526
 21
25.098521
 31
0.0
  0
ENDBLK
  5
36B
100
AcDbEntity
  8
0
100
AcDbBlockEnd
  0
BLOCK
  5
280
100
AcDbEntity
  8
0
100
AcDbBlockBegin
  2
*X32
 70
     1
 10
0.0
 20
0.0
 30
0.0
  3
*X32
  1

  0
LINE
  5
22F
100
AcDbEntity
  8
0
 62
     0
100
AcDbLine
 10
-58.659316
 20
26.094893
 30
0.0
 11
-58.659316
 21
26.094893
 31
0.0
  0
LINE
  5
230
100
AcDbEntity
  8
0
 62
     0
100
AcDbLine
 10
-56.080918
 20
28.073368
 30
0.0
 11
-56.080918
 21
28.073368
 31
0.0
  0
LINE
  5
231
100
AcDbEntity
  8
0
 62
     0
100
AcDbLine
 10
-53.669124
 20
29.924003
 30
0.0
 11
-53.669124
 21
29.924003
 31
0.0
  0
LINE
  5
232
100
AcDbEntity
  8
0
 62
     0
100
AcDbLine
 10
-63.894499
 20
26.028117
 30
0.0
 11
-63.894499
 21
26.028117
 31
0.0
  0
LINE
  5
233
100
AcDbEntity
  8
0
 62
     0
100
AcDbLine
 10
-61.482704
 20
27.878752
 30
0.0
 11
-61.482704
 21
27.878752
 31
0.0
  0
LINE
  5
234
100
AcDbEntity
  8
0
 62
     0
100
AcDbLine
 10
-58.785303
 20
29.948541
 30
0.0
 11
-58.785303
 21
29.948541
 31
0.0
  0
LINE
  5
235
100
AcDbEntity
  8
0
 62
     0
100
AcDbLine
 10
-69.296285
 20
25.833501
 30
0.0
 11
-69.296285
 21
25.833501
 31
0.0
  0
LINE
  5
236
100
AcDbEntity
  8
0
 62
     0
100
AcDbLine
 10
-66.598884
 20
27.90329
 30
0.0
 11
-66.598884
 21
27.90329
 31
0.0
  0
LINE
  5
237
100
AcDbEntity
  8
0
 62
     0
100
AcDbLine
 10
-64.020485
 20
29.881765
 30
0.0
 11
-64.020485
 21
29.881765
 31
0.0
  0
LINE
  5
238
100
AcDbEntity
  8
0
 62
     0
100
AcDbLine
 10
-74.412464
 20
25.858039
 30
0.0
 11
-74.412464
 21
25.858039
 31
0.0
  0
LINE
  5
239
100
AcDbEntity
  8
0
 62
     0
100
AcDbLine
 10
-71.834066
 20
27.836514
 30
0.0
 11
-71.834066
 21
27.836514
 31
0.0
  0
LINE
  5
23A
100
AcDbEntity
  8
0
 62
     0
100
AcDbLine
 10
-69.422272
 20
29.687149
 30
0.0
 11
-69.422272
 21
29.687149
 31
0.0
  0
LINE
  5
23B
100
AcDbEntity
  8
0
 62
     0
100
AcDbLine
 10
-79.647646
 20
25.791263
 30
0.0
 11
-79.647646
 21
25.791263
 31
0.0
  0
LINE
  5
23C
100
AcDbEntity
  8
0
 62
     0
100
AcDbLine
 10
-77.235852
 20
27.641898
 30
0.0
 11
-77.235852
 21
27.641898
 31
0.0
  0
LINE
  5
23D
100
AcDbEntity
  8
0
 62
     0
100
AcDbLine
 10
-74.538451
 20
29.711687
 30
0.0
 11
-74.538451
 21
29.711687
 31
0.0
  0
LINE
  5
23E
100
AcDbEntity
  8
0
 62
     0
100
AcDbLine
 10
-79.773633
 20
29.644911
 30
0.0
 11
-79.773633
 21
29.644911
 31
0.0
  0
LINE
  5
23F
100
AcDbEntity
  8
0
 62
     0
100
AcDbLine
 10
-53.543137
 20
26.070355
 30
0.0
 11
-53.543137
 21
26.070355
 31
0.0
  0
LINE
  5
240
100
AcDbEntity
  8
0
 62
     0
100
AcDbLine
 10
-50.845736
 20
28.140144
 30
0.0
 11
-50.845736
 21
28.140144
 31
0.0
  0
LINE
  5
241
100
AcDbEntity
  8
0
 62
     0
100
AcDbLine
 10
-48.141351
 20
26.264971
 30
0.0
 11
-48.141351
 21
26.264971
 31
0.0
  0
LINE
  5
242
100
AcDbEntity
  8
0
 62
     0
100
AcDbLine
 10
-45.729557
 20
28.115606
 30
0.0
 11
-45.729557
 21
28.115606
 31
0.0
  0
LINE
  5
243
100
AcDbEntity
  8
0
 62
     0
100
AcDbLine
 10
-42.906168
 20
26.331747
 30
0.0
 11
-42.906168
 21
26.331747
 31
0.0
  0
LINE
  5
244
100
AcDbEntity
  8
0
 62
     0
100
AcDbLine
 10
-40.32777
 20
28.310222
 30
0.0
 11
-40.32777
 21
28.310222
 31
0.0
  0
LINE
  5
245
100
AcDbEntity
  8
0
 62
     0
100
AcDbLine
 10
-44.406244
 20
25.223614
 30
0.0
 11
-44.406244
 21
25.223614
 31
0.0
  0
LINE
  5
246
100
AcDbEntity
  8
0
 62
     0
100
AcDbLine
 10
-43.365227
 20
25.360666
 30
0.0
 11
-43.365227
 21
25.360666
 31
0.0
  0
LINE
  5
247
100
AcDbEntity
  8
0
 62
     0
100
AcDbLine
 10
-41.739257
 20
25.574729
 30
0.0
 11
-41.739257
 21
25.574729
 31
0.0
  0
LINE
  5
248
100
AcDbEntity
  8
0
 62
     0
100
AcDbLine
 10
-78.55151
 20
25.906605
 30
0.0
 11
-78.55151
 21
25.906605
 31
0.0
  0
LINE
  5
249
100
AcDbEntity
  8
0
 62
     0
100
AcDbLine
 10
-77.510492
 20
26.043658
 30
0.0
 11
-77.510492
 21
26.043658
 31
0.0
  0
LINE
  5
24A
100
AcDbEntity
  8
0
 62
     0
100
AcDbLine
 10
-75.884523
 20
26.257721
 30
0.0
 11
-75.884523
 21
26.257721
 31
0.0
  0
LINE
  5
24B
100
AcDbEntity
  8
0
 62
     0
100
AcDbLine
 10
-73.167964
 20
26.615362
 30
0.0
 11
-73.167964
 21
26.615362
 31
0.0
  0
LINE
  5
24C
100
AcDbEntity
  8
0
 62
     0
100
AcDbLine
 10
-72.126947
 20
26.752415
 30
0.0
 11
-72.126947
 21
26.752415
 31
0.0
  0
LINE
  5
24D
100
AcDbEntity
  8
0
 62
     0
100
AcDbLine
 10
-70.500977
 20
26.966478
 30
0.0
 11
-70.500977
 21
26.966478
 31
0.0
  0
LINE
  5
24E
100
AcDbEntity
  8
0
 62
     0
100
AcDbLine
 10
-67.784418
 20
27.32412
 30
0.0
 11
-67.784418
 21
27.32412
 31
0.0
  0
LINE
  5
24F
100
AcDbEntity
  8
0
 62
     0
100
AcDbLine
 10
-66.743401
 20
27.461172
 30
0.0
 11
-66.743401
 21
27.461172
 31
0.0
  0
LINE
  5
250
100
AcDbEntity
  8
0
 62
     0
100
AcDbLine
 10
-65.117432
 20
27.675235
 30
0.0
 11
-65.117432
 21
27.675235
 31
0.0
  0
LINE
  5
251
100
AcDbEntity
  8
0
 62
     0
100
AcDbLine
 10
-62.400873
 20
28.032877
 30
0.0
 11
-62.400873
 21
28.032877
 31
0.0
  0
LINE
  5
252
100
AcDbEntity
  8
0
 62
     0
100
AcDbLine
 10
-61.359856
 20
28.169929
 30
0.0
 11
-61.359856
 21
28.169929
 31
0.0
  0
LINE
  5
253
100
AcDbEntity
  8
0
 62
     0
100
AcDbLine
 10
-59.733886
 20
28.383992
 30
0.0
 11
-59.733886
 21
28.383992
 31
0.0
  0
LINE
  5
254
100
AcDbEntity
  8
0
 62
     0
100
AcDbLine
 10
-57.017327
 20
28.741634
 30
0.0
 11
-57.017327
 21
28.741634
 31
0.0
  0
LINE
  5
255
100
AcDbEntity
  8
0
 62
     0
100
AcDbLine
 10
-55.97631
 20
28.878687
 30
0.0
 11
-55.97631
 21
28.878687
 31
0.0
  0
LINE
  5
256
100
AcDbEntity
  8
0
 62
     0
100
AcDbLine
 10
-54.350341
 20
29.09275
 30
0.0
 11
-54.350341
 21
29.09275
 31
0.0
  0
LINE
  5
257
100
AcDbEntity
  8
0
 62
     0
100
AcDbLine
 10
-51.633782
 20
29.450391
 30
0.0
 11
-51.633782
 21
29.450391
 31
0.0
  0
LINE
  5
258
100
AcDbEntity
  8
0
 62
     0
100
AcDbLine
 10
-50.592764
 20
29.587444
 30
0.0
 11
-50.592764
 21
29.587444
 31
0.0
  0
LINE
  5
259
100
AcDbEntity
  8
0
 62
     0
100
AcDbLine
 10
-48.966795
 20
29.801507
 30
0.0
 11
-48.966795
 21
29.801507
 31
0.0
  0
LINE
  5
25A
100
AcDbEntity
  8
0
 62
     0
100
AcDbLine
 10
-61.97781
 20
29.958682
 30
0.0
 11
-61.97781
 21
29.958682
 31
0.0
  0
LINE
  5
25B
100
AcDbEntity
  8
0
 62
     0
100
AcDbLine
 10
-61.134419
 20
29.421382
 30
0.0
 11
-61.134419
 21
29.421382
 31
0.0
  0
LINE
  5
25C
100
AcDbEntity
  8
0
 62
     0
100
AcDbLine
 10
-58.098209
 20
27.487104
 30
0.0
 11
-58.098209
 21
27.487104
 31
0.0
  0
LINE
  5
25D
100
AcDbEntity
  8
0
 62
     0
100
AcDbLine
 10
-55.749526
 20
29.97
 30
0.0
 11
-55.749526
 21
29.97
 31
0.0
  0
LINE
  5
25E
100
AcDbEntity
  8
0
 62
     0
100
AcDbLine
 10
-54.906135
 20
29.4327
 30
0.0
 11
-54.906135
 21
29.4327
 31
0.0
  0
LINE
  5
25F
100
AcDbEntity
  8
0
 62
     0
100
AcDbLine
 10
-51.869926
 20
27.498422
 30
0.0
 11
-51.869926
 21
27.498422
 31
0.0
  0
LINE
  5
260
100
AcDbEntity
  8
0
 62
     0
100
AcDbLine
 10
-49.521243
 20
29.981318
 30
0.0
 11
-49.521243
 21
29.981318
 31
0.0
  0
LINE
  5
261
100
AcDbEntity
  8
0
 62
     0
100
AcDbLine
 10
-48.677851
 20
29.444019
 30
0.0
 11
-48.677851
 21
29.444019
 31
0.0
  0
LINE
  5
262
100
AcDbEntity
  8
0
 62
     0
100
AcDbLine
 10
-45.641642
 20
27.50974
 30
0.0
 11
-45.641642
 21
27.50974
 31
0.0
  0
LINE
  5
263
100
AcDbEntity
  8
0
 62
     0
100
AcDbLine
 10
-43.292959
 20
29.992636
 30
0.0
 11
-43.292959
 21
29.992636
 31
0.0
  0
LINE
  5
264
100
AcDbEntity
  8
0
 62
     0
100
AcDbLine
 10
-42.449568
 20
29.455337
 30
0.0
 11
-42.449568
 21
29.455337
 31
0.0
  0
LINE
  5
265
100
AcDbEntity
  8
0
 62
     0
100
AcDbLine
 10
-68.206094
 20
29.947364
 30
0.0
 11
-68.206094
 21
29.947364
 31
0.0
  0
LINE
  5
266
100
AcDbEntity
  8
0
 62
     0
100
AcDbLine
 10
-67.362702
 20
29.410064
 30
0.0
 11
-67.362702
 21
29.410064
 31
0.0
  0
LINE
  5
267
100
AcDbEntity
  8
0
 62
     0
100
AcDbLine
 10
-64.326493
 20
27.475786
 30
0.0
 11
-64.326493
 21
27.475786
 31
0.0
  0
LINE
  5
268
100
AcDbEntity
  8
0
 62
     0
100
AcDbLine
 10
-74.434378
 20
29.936046
 30
0.0
 11
-74.434378
 21
29.936046
 31
0.0
  0
LINE
  5
269
100
AcDbEntity
  8
0
 62
     0
100
AcDbLine
 10
-73.590986
 20
29.398746
 30
0.0
 11
-73.590986
 21
29.398746
 31
0.0
  0
LINE
  5
26A
100
AcDbEntity
  8
0
 62
     0
100
AcDbLine
 10
-70.554777
 20
27.464468
 30
0.0
 11
-70.554777
 21
27.464468
 31
0.0
  0
LINE
  5
26B
100
AcDbEntity
  8
0
 62
     0
100
AcDbLine
 10
-79.81927
 20
29.387428
 30
0.0
 11
-79.81927
 21
29.387428
 31
0.0
  0
LINE
  5
26C
100
AcDbEntity
  8
0
 62
     0
100
AcDbLine
 10
-76.783061
 20
27.453149
 30
0.0
 11
-76.783061
 21
27.453149
 31
0.0
  0
LINE
  5
26D
100
AcDbEntity
  8
0
 62
     0
100
AcDbLine
 10
-57.390118
 20
28.540481
 30
0.0
 11
-57.390118
 21
28.540481
 31
0.0
  0
LINE
  5
26E
100
AcDbEntity
  8
0
 62
     0
100
AcDbLine
 10
-57.021479
 20
28.202685
 30
0.0
 11
-57.021479
 21
28.202685
 31
0.0
  0
LINE
  5
26F
100
AcDbEntity
  8
0
 62
     0
100
AcDbLine
 10
-55.281504
 20
26.608293
 30
0.0
 11
-55.281504
 21
26.608293
 31
0.0
  0
LINE
  5
270
100
AcDbEntity
  8
0
 62
     0
100
AcDbLine
 10
-51.009226
 20
29.958037
 30
0.0
 11
-51.009226
 21
29.958037
 31
0.0
  0
LINE
  5
271
100
AcDbEntity
  8
0
 62
     0
100
AcDbLine
 10
-49.269251
 20
28.363644
 30
0.0
 11
-49.269251
 21
28.363644
 31
0.0
  0
LINE
  5
272
100
AcDbEntity
  8
0
 62
     0
100
AcDbLine
 10
-47.278602
 20
26.53955
 30
0.0
 11
-47.278602
 21
26.53955
 31
0.0
  0
LINE
  5
273
100
AcDbEntity
  8
0
 62
     0
100
AcDbLine
 10
-46.909964
 20
26.201755
 30
0.0
 11
-46.909964
 21
26.201755
 31
0.0
  0
LINE
  5
274
100
AcDbEntity
  8
0
 62
     0
100
AcDbLine
 10
-41.266349
 20
28.294901
 30
0.0
 11
-41.266349
 21
28.294901
 31
0.0
  0
LINE
  5
275
100
AcDbEntity
  8
0
 62
     0
100
AcDbLine
 10
-40.89771
 20
27.957106
 30
0.0
 11
-40.89771
 21
27.957106
 31
0.0
  0
LINE
  5
276
100
AcDbEntity
  8
0
 62
     0
100
AcDbLine
 10
-65.39302
 20
28.609223
 30
0.0
 11
-65.39302
 21
28.609223
 31
0.0
  0
LINE
  5
277
100
AcDbEntity
  8
0
 62
     0
100
AcDbLine
 10
-63.402371
 20
26.785129
 30
0.0
 11
-63.402371
 21
26.785129
 31
0.0
  0
LINE
  5
278
100
AcDbEntity
  8
0
 62
     0
100
AcDbLine
 10
-63.033732
 20
26.447334
 30
0.0
 11
-63.033732
 21
26.447334
 31
0.0
  0
LINE
  5
279
100
AcDbEntity
  8
0
 62
     0
100
AcDbLine
 10
-73.513886
 20
28.78606
 30
0.0
 11
-73.513886
 21
28.78606
 31
0.0
  0
LINE
  5
27A
100
AcDbEntity
  8
0
 62
     0
100
AcDbLine
 10
-73.145247
 20
28.448265
 30
0.0
 11
-73.145247
 21
28.448265
 31
0.0
  0
LINE
  5
27B
100
AcDbEntity
  8
0
 62
     0
100
AcDbLine
 10
-71.405273
 20
26.853872
 30
0.0
 11
-71.405273
 21
26.853872
 31
0.0
  0
LINE
  5
27C
100
AcDbEntity
  8
0
 62
     0
100
AcDbLine
 10
-69.414624
 20
25.029778
 30
0.0
 11
-69.414624
 21
25.029778
 31
0.0
  0
LINE
  5
27D
100
AcDbEntity
  8
0
 62
     0
100
AcDbLine
 10
-79.526139
 20
27.030709
 30
0.0
 11
-79.526139
 21
27.030709
 31
0.0
  0
LINE
  5
27E
100
AcDbEntity
  8
0
 62
     0
100
AcDbLine
 10
-79.157501
 20
26.692914
 30
0.0
 11
-79.157501
 21
26.692914
 31
0.0
  0
LINE
  5
27F
100
AcDbEntity
  8
0
 62
     0
100
AcDbLine
 10
-77.417526
 20
25.098521
 30
0.0
 11
-77.417526
 21
25.098521
 31
0.0
  0
ENDBLK
  5
281
100
AcDbEntity
  8
0
100
AcDbBlockEnd
  0
BLOCK
  5
28E
100
AcDbEntity
  8
0
100
AcDbBlockBegin
  2
90_SP43520
 70
     0
 10
0.0
 20
0.0
 30
0.0
  3
90_SP43520
  1

  0
LINE
  5
22C
100
AcDbEntity
  8
GLAS_MED_FOGNING
100
AcDbLine
 10
-40.0
 20
30.0
 30
0.0
 11
-80.4
 21
30.0
 31
0.0
  0
INSERT
  5
22D
100
AcDbEntity
  8
GLAS_MED_FOGNING
100
AcDbBlockReference
  2
*X32
 10
0.0
 20
0.0
 30
0.0
1001
ACAD
1000
HATCH
1002
{
1070
    16
1000
AR-SAND
1040
2.0
1040
0.0
1002
}
  0
LWPOLYLINE
  5
282
100
AcDbEntity
  8
CENTRUM
100
AcDbPolyline
 90
        4
 70
     0
 43
0.0
 10
0.0
 20
57.5
 10
-40.0
 20
57.5
 10
-80.4
 20
57.5
 10
-90.0
 20
57.5
  0
INSERT
  5
283
100
AcDbEntity
  8
0
100
AcDbBlockReference
  2
GLASV6_18
 10
-90.0
 20
0.0
 30
0.0
  0
LINE
  5
284
100
AcDbEntity
  8
GLAS_MED_FOGNING
100
AcDbLine
 10
-80.4
 20
57.5
 30
0.0
 11
-80.4
 21
49.0
 31
0.0
  0
INSERT
  5
285
100
AcDbEntity
  8
0
100
AcDbBlockReference
  2
SP43520
 10
0.0
 20
0.0
 30
0.0
  0
INSERT
  5
28C
100
AcDbEntity
  8
GLAS_MED_FOGNING
100
AcDbBlockReference
  2
GLASH5
 10
-15.0
 20
0.0
 30
0.0
  0
LINE
  5
28D
100
AcDbEntity
  8
GLAS_MED_FOGNING
100
AcDbLine
 10
-40.0
 20
57.5
 30
0.0
 11
-40.0
 21
49.0
 31
0.0
  0
ENDBLK
  5
28F
100
AcDbEntity
  8
0
100
AcDbBlockEnd
  0
BLOCK
  5
309
100
AcDbEntity
  8
0
100
AcDbBlockBegin
  2
*X34
 70
     1
 10
0.0
 20
0.0
 30
0.0
  3
*X34
  1

  0
LINE
  5
2B0
100
AcDbEntity
  8
0
 62
     0
100
AcDbLine
 10
-58.659316
 20
26.094893
 30
0.0
 11
-58.659316
 21
26.094893
 31
0.0
  0
LINE
  5
2B1
100
AcDbEntity
  8
0
 62
     0
100
AcDbLine
 10
-56.080918
 20
28.073368
 30
0.0
 11
-56.080918
 21
28.073368
 31
0.0
  0
LINE
  5
2B2
100
AcDbEntity
  8
0
 62
     0
100
AcDbLine
 10
-53.669124
 20
29.924003
 30
0.0
 11
-53.669124
 21
29.924003
 31
0.0
  0
LINE
  5
2B3
100
AcDbEntity
  8
0
 62
     0
100
AcDbLine
 10
-63.894499
 20
26.028117
 30
0.0
 11
-63.894499
 21
26.028117
 31
0.0
  0
LINE
  5
2B4
100
AcDbEntity
  8
0
 62
     0
100
AcDbLine
 10
-61.482704
 20
27.878752
 30
0.0
 11
-61.482704
 21
27.878752
 31
0.0
  0
LINE
  5
2B5
100
AcDbEntity
  8
0
 62
     0
100
AcDbLine
 10
-58.785303
 20
29.948541
 30
0.0
 11
-58.785303
 21
29.948541
 31
0.0
  0
LINE
  5
2B6
100
AcDbEntity
  8
0
 62
     0
100
AcDbLine
 10
-69.296285
 20
25.833501
 30
0.0
 11
-69.296285
 21
25.833501
 31
0.0
  0
LINE
  5
2B7
100
AcDbEntity
  8
0
 62
     0
100
AcDbLine
 10
-66.598884
 20
27.90329
 30
0.0
 11
-66.598884
 21
27.90329
 31
0.0
  0
LINE
  5
2B8
100
AcDbEntity
  8
0
 62
     0
100
AcDbLine
 10
-64.020485
 20
29.881765
 30
0.0
 11
-64.020485
 21
29.881765
 31
0.0
  0
LINE
  5
2B9
100
AcDbEntity
  8
0
 62
     0
100
AcDbLine
 10
-74.412464
 20
25.858039
 30
0.0
 11
-74.412464
 21
25.858039
 31
0.0
  0
LINE
  5
2BA
100
AcDbEntity
  8
0
 62
     0
100
AcDbLine
 10
-71.834066
 20
27.836514
 30
0.0
 11
-71.834066
 21
27.836514
 31
0.0
  0
LINE
  5
2BB
100
AcDbEntity
  8
0
 62
     0
100
AcDbLine
 10
-69.422272
 20
29.687149
 30
0.0
 11
-69.422272
 21
29.687149
 31
0.0
  0
LINE
  5
2BC
100
AcDbEntity
  8
0
 62
     0
100
AcDbLine
 10
-79.647646
 20
25.791263
 30
0.0
 11
-79.647646
 21
25.791263
 31
0.0
  0
LINE
  5
2BD
100
AcDbEntity
  8
0
 62
     0
100
AcDbLine
 10
-77.235852
 20
27.641898
 30
0.0
 11
-77.235852
 21
27.641898
 31
0.0
  0
LINE
  5
2BE
100
AcDbEntity
  8
0
 62
     0
100
AcDbLine
 10
-74.538451
 20
29.711687
 30
0.0
 11
-74.538451
 21
29.711687
 31
0.0
  0
LINE
  5
2BF
100
AcDbEntity
  8
0
 62
     0
100
AcDbLine
 10
-79.773633
 20
29.644911
 30
0.0
 11
-79.773633
 21
29.644911
 31
0.0
  0
LINE
  5
2C0
100
AcDbEntity
  8
0
 62
     0
100
AcDbLine
 10
-53.543137
 20
26.070355
 30
0.0
 11
-53.543137
 21
26.070355
 31
0.0
  0
LINE
  5
2C1
100
AcDbEntity
  8
0
 62
     0
100
AcDbLine
 10
-50.845736
 20
28.140144
 30
0.0
 11
-50.845736
 21
28.140144
 31
0.0
  0
LINE
  5
2C2
100
AcDbEntity
  8
0
 62
     0
100
AcDbLine
 10
-48.141351
 20
26.264971
 30
0.0
 11
-48.141351
 21
26.264971
 31
0.0
  0
LINE
  5
2C3
100
AcDbEntity
  8
0
 62
     0
100
AcDbLine
 10
-45.729557
 20
28.115606
 30
0.0
 11
-45.729557
 21
28.115606
 31
0.0
  0
LINE
  5
2C4
100
AcDbEntity
  8
0
 62
     0
100
AcDbLine
 10
-42.906168
 20
26.331747
 30
0.0
 11
-42.906168
 21
26.331747
 31
0.0
  0
LINE
  5
2C5
100
AcDbEntity
  8
0
 62
     0
100
AcDbLine
 10
-40.32777
 20
28.310222
 30
0.0
 11
-40.32777
 21
28.310222
 31
0.0
  0
LINE
  5
2C6
100
AcDbEntity
  8
0
 62
     0
100
AcDbLine
 10
-37.789989
 20
26.307209
 30
0.0
 11
-37.789989
 21
26.307209
 31
0.0
  0
LINE
  5
2C7
100
AcDbEntity
  8
0
 62
     0
100
AcDbLine
 10
-35.092588
 20
28.376998
 30
0.0
 11
-35.092588
 21
28.376998
 31
0.0
  0
LINE
  5
2C8
100
AcDbEntity
  8
0
 62
     0
100
AcDbLine
 10
-44.406244
 20
25.223614
 30
0.0
 11
-44.406244
 21
25.223614
 31
0.0
  0
LINE
  5
2C9
100
AcDbEntity
  8
0
 62
     0
100
AcDbLine
 10
-43.365227
 20
25.360666
 30
0.0
 11
-43.365227
 21
25.360666
 31
0.0
  0
LINE
  5
2CA
100
AcDbEntity
  8
0
 62
     0
100
AcDbLine
 10
-41.739257
 20
25.574729
 30
0.0
 11
-41.739257
 21
25.574729
 31
0.0
  0
LINE
  5
2CB
100
AcDbEntity
  8
0
 62
     0
100
AcDbLine
 10
-39.022698
 20
25.932371
 30
0.0
 11
-39.022698
 21
25.932371
 31
0.0
  0
LINE
  5
2CC
100
AcDbEntity
  8
0
 62
     0
100
AcDbLine
 10
-37.981681
 20
26.069423
 30
0.0
 11
-37.981681
 21
26.069423
 31
0.0
  0
LINE
  5
2CD
100
AcDbEntity
  8
0
 62
     0
100
AcDbLine
 10
-36.355712
 20
26.283486
 30
0.0
 11
-36.355712
 21
26.283486
 31
0.0
  0
LINE
  5
2CE
100
AcDbEntity
  8
0
 62
     0
100
AcDbLine
 10
-78.55151
 20
25.906605
 30
0.0
 11
-78.55151
 21
25.906605
 31
0.0
  0
LINE
  5
2CF
100
AcDbEntity
  8
0
 62
     0
100
AcDbLine
 10
-77.510492
 20
26.043658
 30
0.0
 11
-77.510492
 21
26.043658
 31
0.0
  0
LINE
  5
2D0
100
AcDbEntity
  8
0
 62
     0
100
AcDbLine
 10
-75.884523
 20
26.257721
 30
0.0
 11
-75.884523
 21
26.257721
 31
0.0
  0
LINE
  5
2D1
100
AcDbEntity
  8
0
 62
     0
100
AcDbLine
 10
-73.167964
 20
26.615362
 30
0.0
 11
-73.167964
 21
26.615362
 31
0.0
  0
LINE
  5
2D2
100
AcDbEntity
  8
0
 62
     0
100
AcDbLine
 10
-72.126947
 20
26.752415
 30
0.0
 11
-72.126947
 21
26.752415
 31
0.0
  0
LINE
  5
2D3
100
AcDbEntity
  8
0
 62
     0
100
AcDbLine
 10
-70.500977
 20
26.966478
 30
0.0
 11
-70.500977
 21
26.966478
 31
0.0
  0
LINE
  5
2D4
100
AcDbEntity
  8
0
 62
     0
100
AcDbLine
 10
-67.784418
 20
27.32412
 30
0.0
 11
-67.784418
 21
27.32412
 31
0.0
  0
LINE
  5
2D5
100
AcDbEntity
  8
0
 62
     0
100
AcDbLine
 10
-66.743401
 20
27.461172
 30
0.0
 11
-66.743401
 21
27.461172
 31
0.0
  0
LINE
  5
2D6
100
AcDbEntity
  8
0
 62
     0
100
AcDbLine
 10
-65.117432
 20
27.675235
 30
0.0
 11
-65.117432
 21
27.675235
 31
0.0
  0
LINE
  5
2D7
100
AcDbEntity
  8
0
 62
     0
100
AcDbLine
 10
-62.400873
 20
28.032877
 30
0.0
 11
-62.400873
 21
28.032877
 31
0.0
  0
LINE
  5
2D8
100
AcDbEntity
  8
0
 62
     0
100
AcDbLine
 10
-61.359856
 20
28.169929
 30
0.0
 11
-61.359856
 21
28.169929
 31
0.0
  0
LINE
  5
2D9
100
AcDbEntity
  8
0
 62
     0
100
AcDbLine
 10
-59.733886
 20
28.383992
 30
0.0
 11
-59.733886
 21
28.383992
 31
0.0
  0
LINE
  5
2DA
100
AcDbEntity
  8
0
 62
     0
100
AcDbLine
 10
-57.017327
 20
28.741634
 30
0.0
 11
-57.017327
 21
28.741634
 31
0.0
  0
LINE
  5
2DB
100
AcDbEntity
  8
0
 62
     0
100
AcDbLine
 10
-55.97631
 20
28.878687
 30
0.0
 11
-55.97631
 21
28.878687
 31
0.0
  0
LINE
  5
2DC
100
AcDbEntity
  8
0
 62
     0
100
AcDbLine
 10
-54.350341
 20
29.09275
 30
0.0
 11
-54.350341
 21
29.09275
 31
0.0
  0
LINE
  5
2DD
100
AcDbEntity
  8
0
 62
     0
100
AcDbLine
 10
-51.633782
 20
29.450391
 30
0.0
 11
-51.633782
 21
29.450391
 31
0.0
  0
LINE
  5
2DE
100
AcDbEntity
  8
0
 62
     0
100
AcDbLine
 10
-50.592764
 20
29.587444
 30
0.0
 11
-50.592764
 21
29.587444
 31
0.0
  0
LINE
  5
2DF
100
AcDbEntity
  8
0
 62
     0
100
AcDbLine
 10
-48.966795
 20
29.801507
 30
0.0
 11
-48.966795
 21
29.801507
 31
0.0
  0
LINE
  5
2E0
100
AcDbEntity
  8
0
 62
     0
100
AcDbLine
 10
-55.749526
 20
29.97
 30
0.0
 11
-55.749526
 21
29.97
 31
0.0
  0
LINE
  5
2E1
100
AcDbEntity
  8
0
 62
     0
100
AcDbLine
 10
-54.906135
 20
29.4327
 30
0.0
 11
-54.906135
 21
29.4327
 31
0.0
  0
LINE
  5
2E2
100
AcDbEntity
  8
0
 62
     0
100
AcDbLine
 10
-51.869926
 20
27.498422
 30
0.0
 11
-51.869926
 21
27.498422
 31
0.0
  0
LINE
  5
2E3
100
AcDbEntity
  8
0
 62
     0
100
AcDbLine
 10
-49.521243
 20
29.981318
 30
0.0
 11
-49.521243
 21
29.981318
 31
0.0
  0
LINE
  5
2E4
100
AcDbEntity
  8
0
 62
     0
100
AcDbLine
 10
-48.677851
 20
29.444019
 30
0.0
 11
-48.677851
 21
29.444019
 31
0.0
  0
LINE
  5
2E5
100
AcDbEntity
  8
0
 62
     0
100
AcDbLine
 10
-45.641642
 20
27.50974
 30
0.0
 11
-45.641642
 21
27.50974
 31
0.0
  0
LINE
  5
2E6
100
AcDbEntity
  8
0
 62
     0
100
AcDbLine
 10
-43.292959
 20
29.992636
 30
0.0
 11
-43.292959
 21
29.992636
 31
0.0
  0
LINE
  5
2E7
100
AcDbEntity
  8
0
 62
     0
100
AcDbLine
 10
-42.449568
 20
29.455337
 30
0.0
 11
-42.449568
 21
29.455337
 31
0.0
  0
LINE
  5
2E8
100
AcDbEntity
  8
0
 62
     0
100
AcDbLine
 10
-39.413358
 20
27.521058
 30
0.0
 11
-39.413358
 21
27.521058
 31
0.0
  0
LINE
  5
2E9
100
AcDbEntity
  8
0
 62
     0
100
AcDbLine
 10
-36.221284
 20
29.466655
 30
0.0
 11
-36.221284
 21
29.466655
 31
0.0
  0
LINE
  5
2EA
100
AcDbEntity
  8
0
 62
     0
100
AcDbLine
 10
-61.97781
 20
29.958682
 30
0.0
 11
-61.97781
 21
29.958682
 31
0.0
  0
LINE
  5
2EB
100
AcDbEntity
  8
0
 62
     0
100
AcDbLine
 10
-61.134419
 20
29.421382
 30
0.0
 11
-61.134419
 21
29.421382
 31
0.0
  0
LINE
  5
2EC
100
AcDbEntity
  8
0
 62
     0
100
AcDbLine
 10
-58.098209
 20
27.487104
 30
0.0
 11
-58.098209
 21
27.487104
 31
0.0
  0
LINE
  5
2ED
100
AcDbEntity
  8
0
 62
     0
100
AcDbLine
 10
-68.206094
 20
29.947364
 30
0.0
 11
-68.206094
 21
29.947364
 31
0.0
  0
LINE
  5
2EE
100
AcDbEntity
  8
0
 62
     0
100
AcDbLine
 10
-67.362702
 20
29.410064
 30
0.0
 11
-67.362702
 21
29.410064
 31
0.0
  0
LINE
  5
2EF
100
AcDbEntity
  8
0
 62
     0
100
AcDbLine
 10
-64.326493
 20
27.475786
 30
0.0
 11
-64.326493
 21
27.475786
 31
0.0
  0
LINE
  5
2F0
100
AcDbEntity
  8
0
 62
     0
100
AcDbLine
 10
-74.434378
 20
29.936046
 30
0.0
 11
-74.434378
 21
29.936046
 31
0.0
  0
LINE
  5
2F1
100
AcDbEntity
  8
0
 62
     0
100
AcDbLine
 10
-73.590986
 20
29.398746
 30
0.0
 11
-73.590986
 21
29.398746
 31
0.0
  0
LINE
  5
2F2
100
AcDbEntity
  8
0
 62
     0
100
AcDbLine
 10
-70.554777
 20
27.464468
 30
0.0
 11
-70.554777
 21
27.464468
 31
0.0
  0
LINE
  5
2F3
100
AcDbEntity
  8
0
 62
     0
100
AcDbLine
 10
-79.81927
 20
29.387428
 30
0.0
 11
-79.81927
 21
29.387428
 31
0.0
  0
LINE
  5
2F4
100
AcDbEntity
  8
0
 62
     0
100
AcDbLine
 10
-76.783061
 20
27.453149
 30
0.0
 11
-76.783061
 21
27.453149
 31
0.0
  0
LINE
  5
2F5
100
AcDbEntity
  8
0
 62
     0
100
AcDbLine
 10
-57.390118
 20
28.540481
 30
0.0
 11
-57.390118
 21
28.540481
 31
0.0
  0
LINE
  5
2F6
100
AcDbEntity
  8
0
 62
     0
100
AcDbLine
 10
-57.021479
 20
28.202685
 30
0.0
 11
-57.021479
 21
28.202685
 31
0.0
  0
LINE
  5
2F7
100
AcDbEntity
  8
0
 62
     0
100
AcDbLine
 10
-55.281504
 20
26.608293
 30
0.0
 11
-55.281504
 21
26.608293
 31
0.0
  0
LINE
  5
2F8
100
AcDbEntity
  8
0
 62
     0
100
AcDbLine
 10
-51.009226
 20
29.958037
 30
0.0
 11
-51.009226
 21
29.958037
 31
0.0
  0
LINE
  5
2F9
100
AcDbEntity
  8
0
 62
     0
100
AcDbLine
 10
-49.269251
 20
28.363644
 30
0.0
 11
-49.269251
 21
28.363644
 31
0.0
  0
LINE
  5
2FA
100
AcDbEntity
  8
0
 62
     0
100
AcDbLine
 10
-47.278602
 20
26.53955
 30
0.0
 11
-47.278602
 21
26.53955
 31
0.0
  0
LINE
  5
2FB
100
AcDbEntity
  8
0
 62
     0
100
AcDbLine
 10
-46.909964
 20
26.201755
 30
0.0
 11
-46.909964
 21
26.201755
 31
0.0
  0
LINE
  5
2FC
100
AcDbEntity
  8
0
 62
     0
100
AcDbLine
 10
-41.266349
 20
28.294901
 30
0.0
 11
-41.266349
 21
28.294901
 31
0.0
  0
LINE
  5
2FD
100
AcDbEntity
  8
0
 62
     0
100
AcDbLine
 10
-40.89771
 20
27.957106
 30
0.0
 11
-40.89771
 21
27.957106
 31
0.0
  0
LINE
  5
2FE
100
AcDbEntity
  8
0
 62
     0
100
AcDbLine
 10
-39.157736
 20
26.362713
 30
0.0
 11
-39.157736
 21
26.362713
 31
0.0
  0
LINE
  5
2FF
100
AcDbEntity
  8
0
 62
     0
100
AcDbLine
 10
-65.39302
 20
28.609223
 30
0.0
 11
-65.39302
 21
28.609223
 31
0.0
  0
LINE
  5
300
100
AcDbEntity
  8
0
 62
     0
100
AcDbLine
 10
-63.402371
 20
26.785129
 30
0.0
 11
-63.402371
 21
26.785129
 31
0.0
  0
LINE
  5
301
100
AcDbEntity
  8
0
 62
     0
100
AcDbLine
 10
-63.033732
 20
26.447334
 30
0.0
 11
-63.033732
 21
26.447334
 31
0.0
  0
LINE
  5
302
100
AcDbEntity
  8
0
 62
     0
100
AcDbLine
 10
-73.513886
 20
28.78606
 30
0.0
 11
-73.513886
 21
28.78606
 31
0.0
  0
LINE
  5
303
100
AcDbEntity
  8
0
 62
     0
100
AcDbLine
 10
-73.145247
 20
28.448265
 30
0.0
 11
-73.145247
 21
28.448265
 31
0.0
  0
LINE
  5
304
100
AcDbEntity
  8
0
 62
     0
100
AcDbLine
 10
-71.405273
 20
26.853872
 30
0.0
 11
-71.405273
 21
26.853872
 31
0.0
  0
LINE
  5
305
100
AcDbEntity
  8
0
 62
     0
100
AcDbLine
 10
-69.414624
 20
25.029778
 30
0.0
 11
-69.414624
 21
25.029778
 31
0.0
  0
LINE
  5
306
100
AcDbEntity
  8
0
 62
     0
100
AcDbLine
 10
-79.526139
 20
27.030709
 30
0.0
 11
-79.526139
 21
27.030709
 31
0.0
  0
LINE
  5
307
100
AcDbEntity
  8
0
 62
     0
100
AcDbLine
 10
-79.157501
 20
26.692914
 30
0.0
 11
-79.157501
 21
26.692914
 31
0.0
  0
LINE
  5
308
100
AcDbEntity
  8
0
 62
     0
100
AcDbLine
 10
-77.417526
 20
25.098521
 30
0.0
 11
-77.417526
 21
25.098521
 31
0.0
  0
ENDBLK
  5
30A
100
AcDbEntity
  8
0
100
AcDbBlockEnd
  0
BLOCK
  5
317
100
AcDbEntity
  8
0
100
AcDbBlockBegin
  2
90_SP43020
 70
     0
 10
0.0
 20
0.0
 30
0.0
  3
90_SP43020
  1

  0
LINE
  5
2AD
100
AcDbEntity
  8
GLAS_MED_FOGNING
100
AcDbLine
 10
-35.0
 20
30.0
 30
0.0
 11
-80.4
 21
30.0
 31
0.0
  0
INSERT
  5
2AE
100
AcDbEntity
  8
GLAS_MED_FOGNING
100
AcDbBlockReference
  2
*X34
 10
0.0
 20
0.0
 30
0.0
1001
ACAD
1000
HATCH
1002
{
1070
    16
1000
AR-SAND
1040
2.0
1040
0.0
1002
}
  0
LWPOLYLINE
  5
30B
100
AcDbEntity
  8
CENTRUM
100
AcDbPolyline
 90
        4
 70
     0
 43
0.0
 10
0.0
 20
57.5
 10
-35.0
 20
57.5
 10
-80.4
 20
57.5
 10
-90.0
 20
57.5
  0
INSERT
  5
30C
100
AcDbEntity
  8
0
100
AcDbBlockReference
  2
GLASV6_18
 10
-90.0
 20
0.0
 30
0.0
  0
LINE
  5
30D
100
AcDbEntity
  8
GLAS_MED_FOGNING
100
AcDbLine
 10
-80.4
 20
57.5
 30
0.0
 11
-80.4
 21
49.0
 31
0.0
  0
INSERT
  5
30E
100
AcDbEntity
  8
0
100
AcDbBlockReference
  2
SP43020
 10
0.0
 20
0.0
 30
0.0
  0
INSERT
  5
315
100
AcDbEntity
  8
GLAS_MED_FOGNING
100
AcDbBlockReference
  2
GLASH5
 10
-10.0
 20
0.0
 30
0.0
  0
LINE
  5
316
100
AcDbEntity
  8
GLAS_MED_FOGNING
100
AcDbLine
 10
-35.0
 20
57.5
 30
0.0
 11
-35.0
 21
49.0
 31
0.0
  0
ENDBLK
  5
318
100
AcDbEntity
  8
0
100
AcDbBlockEnd
  0
BLOCK
  5
211
100
AcDbEntity
  8
0
100
AcDbBlockBegin
  2
*X36
 70
     1
 10
0.0
 20
0.0
 30
0.0
  3
*X36
  1

  0
LINE
  5
1AF
100
AcDbEntity
  8
0
 62
     0
100
AcDbLine
 10
-53.543137
 20
26.070355
 30
0.0
 11
-53.543137
 21
26.070355
 31
0.0
  0
LINE
  5
1B0
100
AcDbEntity
  8
0
 62
     0
100
AcDbLine
 10
-50.845736
 20
28.140144
 30
0.0
 11
-50.845736
 21
28.140144
 31
0.0
  0
LINE
  5
1B1
100
AcDbEntity
  8
0
 62
     0
100
AcDbLine
 10
-58.659316
 20
26.094893
 30
0.0
 11
-58.659316
 21
26.094893
 31
0.0
  0
LINE
  5
1B2
100
AcDbEntity
  8
0
 62
     0
100
AcDbLine
 10
-56.080918
 20
28.073368
 30
0.0
 11
-56.080918
 21
28.073368
 31
0.0
  0
LINE
  5
1B3
100
AcDbEntity
  8
0
 62
     0
100
AcDbLine
 10
-53.669124
 20
29.924003
 30
0.0
 11
-53.669124
 21
29.924003
 31
0.0
  0
LINE
  5
1B4
100
AcDbEntity
  8
0
 62
     0
100
AcDbLine
 10
-63.894499
 20
26.028117
 30
0.0
 11
-63.894499
 21
26.028117
 31
0.0
  0
LINE
  5
1B5
100
AcDbEntity
  8
0
 62
     0
100
AcDbLine
 10
-61.482704
 20
27.878752
 30
0.0
 11
-61.482704
 21
27.878752
 31
0.0
  0
LINE
  5
1B6
100
AcDbEntity
  8
0
 62
     0
100
AcDbLine
 10
-58.785303
 20
29.948541
 30
0.0
 11
-58.785303
 21
29.948541
 31
0.0
  0
LINE
  5
1B7
100
AcDbEntity
  8
0
 62
     0
100
AcDbLine
 10
-69.296285
 20
25.833501
 30
0.0
 11
-69.296285
 21
25.833501
 31
0.0
  0
LINE
  5
1B8
100
AcDbEntity
  8
0
 62
     0
100
AcDbLine
 10
-66.598884
 20
27.90329
 30
0.0
 11
-66.598884
 21
27.90329
 31
0.0
  0
LINE
  5
1B9
100
AcDbEntity
  8
0
 62
     0
100
AcDbLine
 10
-64.020485
 20
29.881765
 30
0.0
 11
-64.020485
 21
29.881765
 31
0.0
  0
LINE
  5
1BA
100
AcDbEntity
  8
0
 62
     0
100
AcDbLine
 10
-74.412464
 20
25.858039
 30
0.0
 11
-74.412464
 21
25.858039
 31
0.0
  0
LINE
  5
1BB
100
AcDbEntity
  8
0
 62
     0
100
AcDbLine
 10
-71.834066
 20
27.836514
 30
0.0
 11
-71.834066
 21
27.836514
 31
0.0
  0
LINE
  5
1BC
100
AcDbEntity
  8
0
 62
     0
100
AcDbLine
 10
-69.422272
 20
29.687149
 30
0.0
 11
-69.422272
 21
29.687149
 31
0.0
  0
LINE
  5
1BD
100
AcDbEntity
  8
0
 62
     0
100
AcDbLine
 10
-79.647646
 20
25.791263
 30
0.0
 11
-79.647646
 21
25.791263
 31
0.0
  0
LINE
  5
1BE
100
AcDbEntity
  8
0
 62
     0
100
AcDbLine
 10
-77.235852
 20
27.641898
 30
0.0
 11
-77.235852
 21
27.641898
 31
0.0
  0
LINE
  5
1BF
100
AcDbEntity
  8
0
 62
     0
100
AcDbLine
 10
-74.538451
 20
29.711687
 30
0.0
 11
-74.538451
 21
29.711687
 31
0.0
  0
LINE
  5
1C0
100
AcDbEntity
  8
0
 62
     0
100
AcDbLine
 10
-79.773633
 20
29.644911
 30
0.0
 11
-79.773633
 21
29.644911
 31
0.0
  0
LINE
  5
1C1
100
AcDbEntity
  8
0
 62
     0
100
AcDbLine
 10
-48.141351
 20
26.264971
 30
0.0
 11
-48.141351
 21
26.264971
 31
0.0
  0
LINE
  5
1C2
100
AcDbEntity
  8
0
 62
     0
100
AcDbLine
 10
-45.729557
 20
28.115606
 30
0.0
 11
-45.729557
 21
28.115606
 31
0.0
  0
LINE
  5
1C3
100
AcDbEntity
  8
0
 62
     0
100
AcDbLine
 10
-42.906168
 20
26.331747
 30
0.0
 11
-42.906168
 21
26.331747
 31
0.0
  0
LINE
  5
1C4
100
AcDbEntity
  8
0
 62
     0
100
AcDbLine
 10
-40.32777
 20
28.310222
 30
0.0
 11
-40.32777
 21
28.310222
 31
0.0
  0
LINE
  5
1C5
100
AcDbEntity
  8
0
 62
     0
100
AcDbLine
 10
-37.789989
 20
26.307209
 30
0.0
 11
-37.789989
 21
26.307209
 31
0.0
  0
LINE
  5
1C6
100
AcDbEntity
  8
0
 62
     0
100
AcDbLine
 10
-35.092588
 20
28.376998
 30
0.0
 11
-35.092588
 21
28.376998
 31
0.0
  0
LINE
  5
1C7
100
AcDbEntity
  8
0
 62
     0
100
AcDbLine
 10
-32.388203
 20
26.501825
 30
0.0
 11
-32.388203
 21
26.501825
 31
0.0
  0
LINE
  5
1C8
100
AcDbEntity
  8
0
 62
     0
100
AcDbLine
 10
-44.406244
 20
25.223614
 30
0.0
 11
-44.406244
 21
25.223614
 31
0.0
  0
LINE
  5
1C9
100
AcDbEntity
  8
0
 62
     0
100
AcDbLine
 10
-43.365227
 20
25.360666
 30
0.0
 11
-43.365227
 21
25.360666
 31
0.0
  0
LINE
  5
1CA
100
AcDbEntity
  8
0
 62
     0
100
AcDbLine
 10
-41.739257
 20
25.574729
 30
0.0
 11
-41.739257
 21
25.574729
 31
0.0
  0
LINE
  5
1CB
100
AcDbEntity
  8
0
 62
     0
100
AcDbLine
 10
-39.022698
 20
25.932371
 30
0.0
 11
-39.022698
 21
25.932371
 31
0.0
  0
LINE
  5
1CC
100
AcDbEntity
  8
0
 62
     0
100
AcDbLine
 10
-37.981681
 20
26.069423
 30
0.0
 11
-37.981681
 21
26.069423
 31
0.0
  0
LINE
  5
1CD
100
AcDbEntity
  8
0
 62
     0
100
AcDbLine
 10
-36.355712
 20
26.283486
 30
0.0
 11
-36.355712
 21
26.283486
 31
0.0
  0
LINE
  5
1CE
100
AcDbEntity
  8
0
 62
     0
100
AcDbLine
 10
-33.639153
 20
26.641128
 30
0.0
 11
-33.639153
 21
26.641128
 31
0.0
  0
LINE
  5
1CF
100
AcDbEntity
  8
0
 62
     0
100
AcDbLine
 10
-32.598136
 20
26.778181
 30
0.0
 11
-32.598136
 21
26.778181
 31
0.0
  0
LINE
  5
1D0
100
AcDbEntity
  8
0
 62
     0
100
AcDbLine
 10
-30.972166
 20
26.992244
 30
0.0
 11
-30.972166
 21
26.992244
 31
0.0
  0
LINE
  5
1D1
100
AcDbEntity
  8
0
 62
     0
100
AcDbLine
 10
-78.55151
 20
25.906605
 30
0.0
 11
-78.55151
 21
25.906605
 31
0.0
  0
LINE
  5
1D2
100
AcDbEntity
  8
0
 62
     0
100
AcDbLine
 10
-77.510492
 20
26.043658
 30
0.0
 11
-77.510492
 21
26.043658
 31
0.0
  0
LINE
  5
1D3
100
AcDbEntity
  8
0
 62
     0
100
AcDbLine
 10
-75.884523
 20
26.257721
 30
0.0
 11
-75.884523
 21
26.257721
 31
0.0
  0
LINE
  5
1D4
100
AcDbEntity
  8
0
 62
     0
100
AcDbLine
 10
-73.167964
 20
26.615362
 30
0.0
 11
-73.167964
 21
26.615362
 31
0.0
  0
LINE
  5
1D5
100
AcDbEntity
  8
0
 62
     0
100
AcDbLine
 10
-72.126947
 20
26.752415
 30
0.0
 11
-72.126947
 21
26.752415
 31
0.0
  0
LINE
  5
1D6
100
AcDbEntity
  8
0
 62
     0
100
AcDbLine
 10
-70.500977
 20
26.966478
 30
0.0
 11
-70.500977
 21
26.966478
 31
0.0
  0
LINE
  5
1D7
100
AcDbEntity
  8
0
 62
     0
100
AcDbLine
 10
-67.784418
 20
27.32412
 30
0.0
 11
-67.784418
 21
27.32412
 31
0.0
  0
LINE
  5
1D8
100
AcDbEntity
  8
0
 62
     0
100
AcDbLine
 10
-66.743401
 20
27.461172
 30
0.0
 11
-66.743401
 21
27.461172
 31
0.0
  0
LINE
  5
1D9
100
AcDbEntity
  8
0
 62
     0
100
AcDbLine
 10
-65.117432
 20
27.675235
 30
0.0
 11
-65.117432
 21
27.675235
 31
0.0
  0
LINE
  5
1DA
100
AcDbEntity
  8
0
 62
     0
100
AcDbLine
 10
-62.400873
 20
28.032877
 30
0.0
 11
-62.400873
 21
28.032877
 31
0.0
  0
LINE
  5
1DB
100
AcDbEntity
  8
0
 62
     0
100
AcDbLine
 10
-61.359856
 20
28.169929
 30
0.0
 11
-61.359856
 21
28.169929
 31
0.0
  0
LINE
  5
1DC
100
AcDbEntity
  8
0
 62
     0
100
AcDbLine
 10
-59.733886
 20
28.383992
 30
0.0
 11
-59.733886
 21
28.383992
 31
0.0
  0
LINE
  5
1DD
100
AcDbEntity
  8
0
 62
     0
100
AcDbLine
 10
-57.017327
 20
28.741634
 30
0.0
 11
-57.017327
 21
28.741634
 31
0.0
  0
LINE
  5
1DE
100
AcDbEntity
  8
0
 62
     0
100
AcDbLine
 10
-55.97631
 20
28.878687
 30
0.0
 11
-55.97631
 21
28.878687
 31
0.0
  0
LINE
  5
1DF
100
AcDbEntity
  8
0
 62
     0
100
AcDbLine
 10
-54.350341
 20
29.09275
 30
0.0
 11
-54.350341
 21
29.09275
 31
0.0
  0
LINE
  5
1E0
100
AcDbEntity
  8
0
 62
     0
100
AcDbLine
 10
-51.633782
 20
29.450391
 30
0.0
 11
-51.633782
 21
29.450391
 31
0.0
  0
LINE
  5
1E1
100
AcDbEntity
  8
0
 62
     0
100
AcDbLine
 10
-50.592764
 20
29.587444
 30
0.0
 11
-50.592764
 21
29.587444
 31
0.0
  0
LINE
  5
1E2
100
AcDbEntity
  8
0
 62
     0
100
AcDbLine
 10
-48.966795
 20
29.801507
 30
0.0
 11
-48.966795
 21
29.801507
 31
0.0
  0
LINE
  5
1E3
100
AcDbEntity
  8
0
 62
     0
100
AcDbLine
 10
-55.749526
 20
29.97
 30
0.0
 11
-55.749526
 21
29.97
 31
0.0
  0
LINE
  5
1E4
100
AcDbEntity
  8
0
 62
     0
100
AcDbLine
 10
-54.906135
 20
29.4327
 30
0.0
 11
-54.906135
 21
29.4327
 31
0.0
  0
LINE
  5
1E5
100
AcDbEntity
  8
0
 62
     0
100
AcDbLine
 10
-51.869926
 20
27.498422
 30
0.0
 11
-51.869926
 21
27.498422
 31
0.0
  0
LINE
  5
1E6
100
AcDbEntity
  8
0
 62
     0
100
AcDbLine
 10
-49.521243
 20
29.981318
 30
0.0
 11
-49.521243
 21
29.981318
 31
0.0
  0
LINE
  5
1E7
100
AcDbEntity
  8
0
 62
     0
100
AcDbLine
 10
-48.677851
 20
29.444019
 30
0.0
 11
-48.677851
 21
29.444019
 31
0.0
  0
LINE
  5
1E8
100
AcDbEntity
  8
0
 62
     0
100
AcDbLine
 10
-45.641642
 20
27.50974
 30
0.0
 11
-45.641642
 21
27.50974
 31
0.0
  0
LINE
  5
1E9
100
AcDbEntity
  8
0
 62
     0
100
AcDbLine
 10
-43.292959
 20
29.992636
 30
0.0
 11
-43.292959
 21
29.992636
 31
0.0
  0
LINE
  5
1EA
100
AcDbEntity
  8
0
 62
     0
100
AcDbLine
 10
-42.449568
 20
29.455337
 30
0.0
 11
-42.449568
 21
29.455337
 31
0.0
  0
LINE
  5
1EB
100
AcDbEntity
  8
0
 62
     0
100
AcDbLine
 10
-39.413358
 20
27.521058
 30
0.0
 11
-39.413358
 21
27.521058
 31
0.0
  0
LINE
  5
1EC
100
AcDbEntity
  8
0
 62
     0
100
AcDbLine
 10
-36.221284
 20
29.466655
 30
0.0
 11
-36.221284
 21
29.466655
 31
0.0
  0
LINE
  5
1ED
100
AcDbEntity
  8
0
 62
     0
100
AcDbLine
 10
-33.185075
 20
27.532376
 30
0.0
 11
-33.185075
 21
27.532376
 31
0.0
  0
LINE
  5
1EE
100
AcDbEntity
  8
0
 62
     0
100
AcDbLine
 10
-61.97781
 20
29.958682
 30
0.0
 11
-61.97781
 21
29.958682
 31
0.0
  0
LINE
  5
1EF
100
AcDbEntity
  8
0
 62
     0
100
AcDbLine
 10
-61.134419
 20
29.421382
 30
0.0
 11
-61.134419
 21
29.421382
 31
0.0
  0
LINE
  5
1F0
100
AcDbEntity
  8
0
 62
     0
100
AcDbLine
 10
-58.098209
 20
27.487104
 30
0.0
 11
-58.098209
 21
27.487104
 31
0.0
  0
LINE
  5
1F1
100
AcDbEntity
  8
0
 62
     0
100
AcDbLine
 10
-68.206094
 20
29.947364
 30
0.0
 11
-68.206094
 21
29.947364
 31
0.0
  0
LINE
  5
1F2
100
AcDbEntity
  8
0
 62
     0
100
AcDbLine
 10
-67.362702
 20
29.410064
 30
0.0
 11
-67.362702
 21
29.410064
 31
0.0
  0
LINE
  5
1F3
100
AcDbEntity
  8
0
 62
     0
100
AcDbLine
 10
-64.326493
 20
27.475786
 30
0.0
 11
-64.326493
 21
27.475786
 31
0.0
  0
LINE
  5
1F4
100
AcDbEntity
  8
0
 62
     0
100
AcDbLine
 10
-74.434378
 20
29.936046
 30
0.0
 11
-74.434378
 21
29.936046
 31
0.0
  0
LINE
  5
1F5
100
AcDbEntity
  8
0
 62
     0
100
AcDbLine
 10
-73.590986
 20
29.398746
 30
0.0
 11
-73.590986
 21
29.398746
 31
0.0
  0
LINE
  5
1F6
100
AcDbEntity
  8
0
 62
     0
100
AcDbLine
 10
-70.554777
 20
27.464468
 30
0.0
 11
-70.554777
 21
27.464468
 31
0.0
  0
LINE
  5
1F7
100
AcDbEntity
  8
0
 62
     0
100
AcDbLine
 10
-79.81927
 20
29.387428
 30
0.0
 11
-79.81927
 21
29.387428
 31
0.0
  0
LINE
  5
1F8
100
AcDbEntity
  8
0
 62
     0
100
AcDbLine
 10
-76.783061
 20
27.453149
 30
0.0
 11
-76.783061
 21
27.453149
 31
0.0
  0
LINE
  5
1F9
100
AcDbEntity
  8
0
 62
     0
100
AcDbLine
 10
-51.009226
 20
29.958037
 30
0.0
 11
-51.009226
 21
29.958037
 31
0.0
  0
LINE
  5
1FA
100
AcDbEntity
  8
0
 62
     0
100
AcDbLine
 10
-49.269251
 20
28.363644
 30
0.0
 11
-49.269251
 21
28.363644
 31
0.0
  0
LINE
  5
1FB
100
AcDbEntity
  8
0
 62
     0
100
AcDbLine
 10
-47.278602
 20
26.53955
 30
0.0
 11
-47.278602
 21
26.53955
 31
0.0
  0
LINE
  5
1FC
100
AcDbEntity
  8
0
 62
     0
100
AcDbLine
 10
-46.909964
 20
26.201755
 30
0.0
 11
-46.909964
 21
26.201755
 31
0.0
  0
LINE
  5
1FD
100
AcDbEntity
  8
0
 62
     0
100
AcDbLine
 10
-41.266349
 20
28.294901
 30
0.0
 11
-41.266349
 21
28.294901
 31
0.0
  0
LINE
  5
1FE
100
AcDbEntity
  8
0
 62
     0
100
AcDbLine
 10
-40.89771
 20
27.957106
 30
0.0
 11
-40.89771
 21
27.957106
 31
0.0
  0
LINE
  5
1FF
100
AcDbEntity
  8
0
 62
     0
100
AcDbLine
 10
-39.157736
 20
26.362713
 30
0.0
 11
-39.157736
 21
26.362713
 31
0.0
  0
LINE
  5
200
100
AcDbEntity
  8
0
 62
     0
100
AcDbLine
 10
-34.885457
 20
29.712457
 30
0.0
 11
-34.885457
 21
29.712457
 31
0.0
  0
LINE
  5
201
100
AcDbEntity
  8
0
 62
     0
100
AcDbLine
 10
-33.145483
 20
28.118064
 30
0.0
 11
-33.145483
 21
28.118064
 31
0.0
  0
LINE
  5
202
100
AcDbEntity
  8
0
 62
     0
100
AcDbLine
 10
-31.154834
 20
26.293971
 30
0.0
 11
-31.154834
 21
26.293971
 31
0.0
  0
LINE
  5
203
100
AcDbEntity
  8
0
 62
     0
100
AcDbLine
 10
-30.786195
 20
25.956176
 30
0.0
 11
-30.786195
 21
25.956176
 31
0.0
  0
LINE
  5
204
100
AcDbEntity
  8
0
 62
     0
100
AcDbLine
 10
-57.390118
 20
28.540481
 30
0.0
 11
-57.390118
 21
28.540481
 31
0.0
  0
LINE
  5
205
100
AcDbEntity
  8
0
 62
     0
100
AcDbLine
 10
-57.021479
 20
28.202685
 30
0.0
 11
-57.021479
 21
28.202685
 31
0.0
  0
LINE
  5
206
100
AcDbEntity
  8
0
 62
     0
100
AcDbLine
 10
-55.281504
 20
26.608293
 30
0.0
 11
-55.281504
 21
26.608293
 31
0.0
  0
LINE
  5
207
100
AcDbEntity
  8
0
 62
     0
100
AcDbLine
 10
-65.39302
 20
28.609223
 30
0.0
 11
-65.39302
 21
28.609223
 31
0.0
  0
LINE
  5
208
100
AcDbEntity
  8
0
 62
     0
100
AcDbLine
 10
-63.402371
 20
26.785129
 30
0.0
 11
-63.402371
 21
26.785129
 31
0.0
  0
LINE
  5
209
100
AcDbEntity
  8
0
 62
     0
100
AcDbLine
 10
-63.033732
 20
26.447334
 30
0.0
 11
-63.033732
 21
26.447334
 31
0.0
  0
LINE
  5
20A
100
AcDbEntity
  8
0
 62
     0
100
AcDbLine
 10
-73.513886
 20
28.78606
 30
0.0
 11
-73.513886
 21
28.78606
 31
0.0
  0
LINE
  5
20B
100
AcDbEntity
  8
0
 62
     0
100
AcDbLine
 10
-73.145247
 20
28.448265
 30
0.0
 11
-73.145247
 21
28.448265
 31
0.0
  0
LINE
  5
20C
100
AcDbEntity
  8
0
 62
     0
100
AcDbLine
 10
-71.405273
 20
26.853872
 30
0.0
 11
-71.405273
 21
26.853872
 31
0.0
  0
LINE
  5
20D
100
AcDbEntity
  8
0
 62
     0
100
AcDbLine
 10
-69.414624
 20
25.029778
 30
0.0
 11
-69.414624
 21
25.029778
 31
0.0
  0
LINE
  5
20E
100
AcDbEntity
  8
0
 62
     0
100
AcDbLine
 10
-79.526139
 20
27.030709
 30
0.0
 11
-79.526139
 21
27.030709
 31
0.0
  0
LINE
  5
20F
100
AcDbEntity
  8
0
 62
     0
100
AcDbLine
 10
-79.157501
 20
26.692914
 30
0.0
 11
-79.157501
 21
26.692914
 31
0.0
  0
LINE
  5
210
100
AcDbEntity
  8
0
 62
     0
100
AcDbLine
 10
-77.417526
 20
25.098521
 30
0.0
 11
-77.417526
 21
25.098521
 31
0.0
  0
ENDBLK
  5
212
100
AcDbEntity
  8
0
100
AcDbBlockEnd
  0
BLOCK
  5
3BF
100
AcDbEntity
  8
0
100
AcDbBlockBegin
  2
90_SP42520
 70
     0
 10
0.0
 20
0.0
 30
0.0
  3
90_SP42520
  1

  0
LINE
  5
3B1
100
AcDbEntity
  8
GLAS_MED_FOGNING
100
AcDbLine
 10
-30.0
 20
30.0
 30
0.0
 11
-80.4
 21
30.0
 31
0.0
  0
INSERT
  5
3B2
100
AcDbEntity
  8
GLAS_MED_FOGNING
100
AcDbBlockReference
  2
*X36
 10
0.0
 20
0.0
 30
0.0
1001
ACAD
1000
HATCH
1002
{
1070
    16
1000
AR-SAND
1040
2.0
1040
0.0
1002
}
  0
LWPOLYLINE
  5
3B3
100
AcDbEntity
  8
CENTRUM
100
AcDbPolyline
 90
        4
 70
     0
 43
0.0
 10
0.0
 20
57.5
 10
-30.0
 20
57.5
 10
-80.4
 20
57.5
 10
-90.0
 20
57.5
  0
INSERT
  5
3B4
100
AcDbEntity
  8
0
100
AcDbBlockReference
  2
GLASV6_18
 10
-90.0
 20
0.0
 30
0.0
  0
LINE
  5
3B5
100
AcDbEntity
  8
GLAS_MED_FOGNING
100
AcDbLine
 10
-80.4
 20
57.5
 30
0.0
 11
-80.4
 21
49.0
 31
0.0
  0
INSERT
  5
3B6
100
AcDbEntity
  8
0
100
AcDbBlockReference
  2
SP42520
 10
0.0
 20
0.0
 30
0.0
  0
INSERT
  5
3BD
100
AcDbEntity
  8
GLAS_MED_FOGNING
100
AcDbBlockReference
  2
GLASH5
 10
-5.0
 20
0.0
 30
0.0
  0
LINE
  5
3BE
100
AcDbEntity
  8
GLAS_MED_FOGNING
100
AcDbLine
 10
-30.0
 20
57.5
 30
0.0
 11
-30.0
 21
49.0
 31
0.0
  0
ENDBLK
  5
3C0
100
AcDbEntity
  8
0
100
AcDbBlockEnd
  0
BLOCK
  5
36F
100
AcDbEntity
  8
0
100
AcDbBlockBegin
  2
SP_90_45720
 70
     0
 10
0.0
 20
0.0
 30
0.0
  3
SP_90_45720
  1

  0
INSERT
  5
33B
100
AcDbEntity
  8
GLAS_MED_FOGNING
100
AcDbBlockReference
  2
SP40020
 10
0.0
 20
0.0
 30
0.0
  0
LWPOLYLINE
  5
33C
100
AcDbEntity
  8
STALPROFIL
100
AcDbPolyline
 90
       14
 70
     0
 43
1.25
 10
-7.592449
 20
29.838238
 10
-8.372969
 20
26.925296
 42
0.398381
 10
-7.0
 20
25.625
 10
-2.0
 20
25.625
 42
0.414214
 10
-0.625
 20
27.0
 10
-0.625
 20
43.0
 42
0.414214
 10
-2.0
 20
44.375
 10
-55.0
 20
44.375
 42
0.414214
 10
-56.375
 20
43.0
 10
-56.375
 20
27.0
 42
0.414214
 10
-55.0
 20
25.625
 10
-19.0
 20
25.625
 42
0.398381
 10
-17.627031
 20
26.925296
 10
-21.096893
 20
39.875
  0
LWPOLYLINE
  5
33D
100
AcDbEntity
  8
SPKONTUR
100
AcDbPolyline
 90
       14
 70
     0
 43
0.0
 10
-8.196152
 20
30.0
 10
-9.0
 20
27.0
 42
0.414214
 10
-7.0
 20
25.0
 10
-2.0
 20
25.0
 42
0.414214
 10
0.0
 20
27.0
 10
0.0
 20
43.0
 42
0.414214
 10
-2.0
 20
45.0
 10
-55.0
 20
45.0
 42
0.414214
 10
-57.0
 20
43.0
 10
-57.0
 20
27.0
 42
0.414214
 10
-55.0
 20
25.0
 10
-19.0
 20
25.0
 42
0.414214
 10
-17.0
 20
27.0
 10
-17.803848
 20
30.0
  0
LWPOLYLINE
  5
33E
100
AcDbEntity
  8
CENTRUM
100
AcDbPolyline
 90
        4
 70
     0
 43
0.0
 10
0.0
 20
57.5
 10
-62.0
 20
57.5
 10
-80.4
 20
57.5
 10
-90.0
 20
57.5
  0
INSERT
  5
33F
100
AcDbEntity
  8
GLAS_MED_FOGNING
100
AcDbBlockReference
  2
GLASH5
 10
-37.0
 20
0.0
 30
0.0
  0
INSERT
  5
340
100
AcDbEntity
  8
0
100
AcDbBlockReference
  2
GLASV6_18
 10
-90.0
 20
0.0
 30
0.0
  0
INSERT
  5
341
100
AcDbEntity
  8
GLAS_MED_FOGNING
100
AcDbBlockReference
  2
*X31
 10
0.0
 20
0.0
 30
0.0
1001
ACAD
1000
HATCH
1002
{
1070
    16
1000
AR-SAND
1040
2.0
1040
0.0
1002
}
  0
LINE
  5
36C
100
AcDbEntity
  8
GLAS_MED_FOGNING
100
AcDbLine
 10
-62.0
 20
30.0
 30
0.0
 11
-80.4
 21
30.0
 31
0.0
  0
LINE
  5
36D
100
AcDbEntity
  8
GLAS_MED_FOGNING
100
AcDbLine
 10
-62.0
 20
57.5
 30
0.0
 11
-62.0
 21
49.0
 31
0.0
  0
LINE
  5
36E
100
AcDbEntity
  8
GLAS_MED_FOGNING
100
AcDbLine
 10
-80.4
 20
57.5
 30
0.0
 11
-80.4
 21
49.0
 31
0.0
  0
ENDBLK
  5
370
100
AcDbEntity
  8
0
100
AcDbBlockEnd
  0
BLOCK
  5
2A9
100
AcDbEntity
  8
0
100
AcDbBlockBegin
  2
90_SP45720
 70
     0
 10
0.0
 20
0.0
 30
0.0
  3
90_SP45720
  1

  0
LWPOLYLINE
  5
29F
100
AcDbEntity
  8
STALPROFIL
100
AcDbPolyline
 90
       14
 70
     0
 43
1.25
 10
-7.592449
 20
29.838238
 10
-8.372969
 20
26.925296
 42
0.398381
 10
-7.0
 20
25.625
 10
-2.0
 20
25.625
 42
0.414214
 10
-0.625
 20
27.0
 10
-0.625
 20
43.0
 42
0.414214
 10
-2.0
 20
44.375
 10
-55.0
 20
44.375
 42
0.414214
 10
-56.375
 20
43.0
 10
-56.375
 20
27.0
 42
0.414214
 10
-55.0
 20
25.625
 10
-19.0
 20
25.625
 42
0.398381
 10
-17.627031
 20
26.925296
 10
-21.096893
 20
39.875
  0
LWPOLYLINE
  5
2A0
100
AcDbEntity
  8
SPKONTUR
100
AcDbPolyline
 90
       14
 70
     0
 43
0.0
 10
-8.196152
 20
30.0
 10
-9.0
 20
27.0
 42
0.414214
 10
-7.0
 20
25.0
 10
-2.0
 20
25.0
 42
0.414214
 10
0.0
 20
27.0
 10
0.0
 20
43.0
 42
0.414214
 10
-2.0
 20
45.0
 10
-55.0
 20
45.0
 42
0.414214
 10
-57.0
 20
43.0
 10
-57.0
 20
27.0
 42
0.414214
 10
-55.0
 20
25.0
 10
-19.0
 20
25.0
 42
0.414214
 10
-17.0
 20
27.0
 10
-17.803848
 20
30.0
  0
LWPOLYLINE
  5
2A1
100
AcDbEntity
  8
CENTRUM
100
AcDbPolyline
 90
        4
 70
     0
 43
0.0
 10
0.0
 20
57.5
 10
-62.0
 20
57.5
 10
-80.4
 20
57.5
 10
-90.0
 20
57.5
  0
INSERT
  5
2A2
100
AcDbEntity
  8
GLAS_MED_FOGNING
100
AcDbBlockReference
  2
GLASH5
 10
-37.0
 20
0.0
 30
0.0
  0
INSERT
  5
2A3
100
AcDbEntity
  8
0
100
AcDbBlockReference
  2
GLASV6_18
 10
-90.0
 20
0.0
 30
0.0
  0
LWPOLYLINE
  5
2A4
100
AcDbEntity
  8
GLAS_MED_FOGNING
100
AcDbPolyline
 90
        4
 70
     1
 43
0.0
 10
-80.4
 20
30.0
 10
-80.4
 20
25.0
 10
-62.0
 20
30.0
 10
-62.0
 20
25.0
  0
LINE
  5
2A5
100
AcDbEntity
  8
GLAS_MED_FOGNING
100
AcDbLine
 10
-62.0
 20
57.5
 30
0.0
 11
-62.0
 21
49.0
 31
0.0
  0
LINE
  5
2A6
100
AcDbEntity
  8
GLAS_MED_FOGNING
100
AcDbLine
 10
-80.4
 20
57.5
 30
0.0
 11
-80.4
 21
49.0
 31
0.0
  0
LINE
  5
2A7
100
AcDbEntity
  8
GLAS_MED_FOGNING
100
AcDbLine
 10
-62.0
 20
30.0
 30
0.0
 11
-80.4
 21
30.0
 31
0.0
  0
INSERT
  5
2A8
100
AcDbEntity
  8
GLAS_MED_FOGNING
100
AcDbBlockReference
  2
SP40020
 10
0.0
 20
0.0
 30
0.0
  0
ENDBLK
  5
2AA
100
AcDbEntity
  8
0
100
AcDbBlockEnd
  0
BLOCK
  5
19B
100
AcDbEntity
  8
0
100
AcDbBlockBegin
  2
42520
 70
     0
 10
0.0
 20
0.0
 30
0.0
  3
42520
  1

  0
LWPOLYLINE
  5
198
100
AcDbEntity
  8
STALPROFIL
100
AcDbPolyline
 90
       14
 70
     0
 43
1.25
 10
-2.092449
 20
29.838238
 10
-2.872969
 20
26.925296
 42
0.489446
 10
-1.53586
 20
25.793393
 10
-1.940698
 20
25.783149
 42
0.492008
 10
-0.625
 20
27.0
 10
-0.625
 20
43.0
 42
0.414214
 10
-2.0
 20
44.375
 10
-23.0
 20
44.375
 42
0.414214
 10
-24.375
 20
43.0
 10
-24.375
 20
27.0
 42
0.414214
 10
-23.0
 20
25.625
 10
-13.5
 20
25.625
 42
0.398381
 10
-12.127031
 20
26.925296
 10
-12.907551
 20
29.838238
  0
LWPOLYLINE
  5
199
100
AcDbEntity
  8
SPKONTUR
100
AcDbPolyline
 90
       14
 70
     0
 43
0.0
 10
-2.696152
 20
30.0
 10
-3.5
 20
27.0
 42
0.471257
 10
-1.494318
 20
25.150732
 10
-2.005608
 20
25.154877
 42
0.472716
 10
0.0
 20
27.0
 10
0.0
 20
43.0
 42
0.414214
 10
-2.0
 20
45.0
 10
-23.0
 20
45.0
 42
0.414214
 10
-25.0
 20
43.0
 10
-25.0
 20
27.0
 42
0.414214
 10
-23.0
 20
25.0
 10
-13.5
 20
25.0
 42
0.414214
 10
-11.5
 20
27.0
 10
-12.303848
 20
30.0
  0
INSERT
  5
19A
100
AcDbEntity
  8
0
100
AcDbBlockReference
  2
SP40020
 10
5.5
 20
0.0
 30
0.0
  0
ENDBLK
  5
19C
100
AcDbEntity
  8
0
100
AcDbBlockEnd
  0
BLOCK
  5
226
100
AcDbEntity
  8
0
100
AcDbBlockBegin
  2
90_SP42520-2
 70
     0
 10
0.0
 20
0.0
 30
0.0
  3
90_SP42520-2
  1

  0
INSERT
  5
1AA
100
AcDbEntity
  8
GLAS_MED_FOGNING
100
AcDbBlockReference
  2
42520
 10
0.0
 20
0.0
 30
0.0
  0
LINE
  5
1AB
100
AcDbEntity
  8
CENTRUM
100
AcDbLine
 10
0.0
 20
57.5
 30
0.0
 11
-30.0
 21
57.5
 31
0.0
  0
LINE
  5
1AC
100
AcDbEntity
  8
GLAS_MED_FOGNING
100
AcDbLine
 10
-30.0
 20
30.0
 30
0.0
 11
-80.4
 21
30.0
 31
0.0
  0
INSERT
  5
1AD
100
AcDbEntity
  8
GLAS_MED_FOGNING
100
AcDbBlockReference
  2
*X36
 10
0.0
 20
0.0
 30
0.0
1001
ACAD
1000
HATCH
1002
{
1070
    16
1000
AR-SAND
1040
2.0
1040
0.0
1002
}
  0
LINE
  5
213
100
AcDbEntity
  8
CENTRUM
100
AcDbLine
 10
-30.0
 20
57.5
 30
0.0
 11
-80.4
 21
57.5
 31
0.0
  0
INSERT
  5
214
100
AcDbEntity
  8
0
100
AcDbBlockReference
  2
GLASV6_18
 10
-90.0
 20
0.0
 30
0.0
  0
LINE
  5
215
100
AcDbEntity
  8
GLAS_MED_FOGNING
100
AcDbLine
 10
-80.4
 20
57.5
 30
0.0
 11
-80.4
 21
49.0
 31
0.0
  0
LINE
  5
216
100
AcDbEntity
  8
CENTRUM
100
AcDbLine
 10
-80.4
 20
57.5
 30
0.0
 11
-90.0
 21
57.5
 31
0.0
  0
LINE
  5
217
100
AcDbEntity
  8
GLAS_MED_FOGNING
100
AcDbLine
 10
-30.0
 20
49.0
 30
0.0
 11
-30.0
 21
30.0
 31
0.0
  0
ARC
  5
218
100
AcDbEntity
  8
GLAS_MED_FOGNING
100
AcDbCircle
 10
-25.0
 20
48.0
 30
0.0
 40
5.0
100
AcDbArc
 50
180.0
 51
270.0
  0
INSERT
  5
219
100
AcDbEntity
  8
GLAS_MED_FOGNING
100
AcDbBlockReference
  2
*X8
 10
10.0
 20
0.0
 30
0.0
1001
ACAD
1000
HATCH
1002
{
1070
    16
1000
AR-SAND
1040
2.0
1040
0.0
1002
}
  0
LINE
  5
21A
100
AcDbEntity
  8
GLAS_MED_FOGNING
100
AcDbLine
 10
-25.0
 20
31.0
 30
0.0
 11
-30.0
 21
31.0
 31
0.0
  0
LINE
  5
21B
100
AcDbEntity
  8
GLAS_MED_FOGNING
100
AcDbLine
 10
-25.0
 20
32.0
 30
0.0
 11
-30.0
 21
32.0
 31
0.0
  0
LINE
  5
21C
100
AcDbEntity
  8
GLAS_MED_FOGNING
100
AcDbLine
 10
-25.0
 20
41.0
 30
0.0
 11
-30.0
 21
41.0
 31
0.0
  0
LINE
  5
21D
100
AcDbEntity
  8
GLAS_MED_FOGNING
100
AcDbLine
 10
-25.0
 20
40.0
 30
0.0
 11
-30.0
 21
40.0
 31
0.0
  0
LINE
  5
21E
100
AcDbEntity
  8
GLAS_MED_FOGNING
100
AcDbLine
 10
-25.0
 20
39.0
 30
0.0
 11
-30.0
 21
39.0
 31
0.0
  0
LINE
  5
21F
100
AcDbEntity
  8
GLAS_MED_FOGNING
100
AcDbLine
 10
-25.0
 20
38.0
 30
0.0
 11
-30.0
 21
38.0
 31
0.0
  0
LINE
  5
220
100
AcDbEntity
  8
GLAS_MED_FOGNING
100
AcDbLine
 10
-25.0
 20
37.0
 30
0.0
 11
-30.0
 21
37.0
 31
0.0
  0
LINE
  5
221
100
AcDbEntity
  8
GLAS_MED_FOGNING
100
AcDbLine
 10
-25.0
 20
36.0
 30
0.0
 11
-30.0
 21
36.0
 31
0.0
  0
LINE
  5
222
100
AcDbEntity
  8
GLAS_MED_FOGNING
100
AcDbLine
 10
-25.0
 20
35.0
 30
0.0
 11
-30.0
 21
35.0
 31
0.0
  0
LINE
  5
223
100
AcDbEntity
  8
GLAS_MED_FOGNING
100
AcDbLine
 10
-25.0
 20
34.0
 30
0.0
 11
-30.0
 21
34.0
 31
0.0
  0
LINE
  5
224
100
AcDbEntity
  8
GLAS_MED_FOGNING
100
AcDbLine
 10
-25.0
 20
33.0
 30
0.0
 11
-30.0
 21
33.0
 31
0.0
  0
LINE
  5
225
100
AcDbEntity
  8
GLAS_MED_FOGNING
100
AcDbLine
 10
-30.0
 20
57.5
 30
0.0
 11
-30.0
 21
49.0
 31
0.0
  0
ENDBLK
  5
227
100
AcDbEntity
  8
0
100
AcDbBlockEnd
  0
BLOCK
  5
1A4
100
AcDbEntity
  8
0
100
AcDbBlockBegin
  2
90-SP42520_2DK
 70
     0
 10
0.0
 20
0.0
 30
0.0
  3
90-SP42520_2DK
  1

  0
INSERT
  5
196
100
AcDbEntity
  8
GLAS_MED_FOGNING
100
AcDbBlockReference
  2
42520
 10
0.0
 20
0.0
 30
0.0
  0
LWPOLYLINE
  5
19D
100
AcDbEntity
  8
CENTRUM
100
AcDbPolyline
 90
        4
 70
     0
 43
0.0
 10
0.0
 20
57.5
 10
-30.0
 20
57.5
 10
-80.4
 20
57.5
 10
-90.0
 20
57.5
  0
LINE
  5
19E
100
AcDbEntity
  8
GLAS_MED_FOGNING
100
AcDbLine
 10
-30.0
 20
30.0
 30
0.0
 11
-80.4
 21
30.0
 31
0.0
  0
LWPOLYLINE
  5
19F
100
AcDbEntity
  8
GLAS_MED_FOGNING
100
AcDbPolyline
 90
        4
 70
     1
 43
0.0
 10
-80.4
 20
30.0
 10
-80.4
 20
25.0
 10
-30.0
 20
30.0
 10
-30.0
 20
25.0
  0
LINE
  5
1A0
100
AcDbEntity
  8
GLAS_MED_FOGNING
100
AcDbLine
 10
-80.4
 20
57.5
 30
0.0
 11
-80.4
 21
49.0
 31
0.0
  0
INSERT
  5
1A1
100
AcDbEntity
  8
0
100
AcDbBlockReference
  2
GLASV6_18
 10
-90.0
 20
0.0
 30
0.0
  0
LINE
  5
1A2
100
AcDbEntity
  8
GLAS_MED_FOGNING
100
AcDbLine
 10
-30.0
 20
57.5
 30
0.0
 11
-30.0
 21
49.0
 31
0.0
  0
INSERT
  5
1A3
100
AcDbEntity
  8
GLAS_MED_FOGNING
100
AcDbBlockReference
  2
GLASH5
 10
-5.0
 20
0.0
 30
0.0
  0
ENDBLK
  5
1A5
100
AcDbEntity
  8
0
100
AcDbBlockEnd
  0
ENDSEC
  0
SECTION
  2
ENTITIES
  0
INSERT
  5
1E
100
AcDbEntity
  8
0
100
AcDbBlockReference
  2
SIDA
 10
0.0
 20
0.0
 30
0.0
  0
INSERT
  5
31
100
AcDbEntity
  8
0
100
AcDbBlockReference
  2
SP45020
 10
-105.0
 20
65.0
 30
0.0
  0
LWPOLYLINE
  5
4F
100
AcDbEntity
  8
CENTRUM
100
AcDbPolyline
 90
        4
 70
     0
 43
0.0
 10
-145.0
 20
127.5
 10
-165.0
 20
127.5
 10
-205.4
 20
127.5
 10
-215.0
 20
127.5
  0
INSERT
  5
50
100
AcDbEntity
  8
GLAS_MED_FOGNING
100
AcDbBlockReference
  2
GLASH5
 10
-140.0
 20
65.0
 30
0.0
  0
INSERT
  5
77
100
AcDbEntity
  8
0
100
AcDbBlockReference
  2
GLASV6_18
 10
-215.0
 20
65.0
 30
0.0
  0
LINE
  5
9E
100
AcDbEntity
  8
GLAS_MED_FOGNING
100
AcDbLine
 10
-308.0
 20
95.0
 30
0.0
 11
-347.4
 21
95.0
 31
0.0
  0
LWPOLYLINE
  5
9F
100
AcDbEntity
  8
GLAS_MED_FOGNING
100
AcDbPolyline
 90
        4
 70
     1
 43
0.0
 10
-347.4
 20
90.0
 10
-347.4
 20
85.0
 10
-308.0
 20
90.0
 10
-308.0
 20
85.0
  0
TEXT
  5
A0
100
AcDbEntity
  8
TEXT
100
AcDbText
 10
-378.271429
 20
73.0
 30
0.0
 40
5.0
  1
%%UGLASSV4_18
 41
0.8
  7
ROMANS
 72
     1
 11
-360.0
 21
73.0
 31
0.0
100
AcDbText
  0
INSERT
  5
A3
100
AcDbEntity
  8
0
100
AcDbBlockReference
  2
GLASV4_18
 10
-360.0
 20
65.0
 30
0.0
  0
INSERT
  5
C8
100
AcDbEntity
  8
0
100
AcDbBlockReference
  2
SP44020
 10
-255.0
 20
65.0
 30
0.0
  0
TEXT
  5
CF
100
AcDbEntity
  8
TEXT
100
AcDbText
 10
-322.557143
 20
73.0
 30
0.0
 40
5.0
  1
%%UGLASSH3
 41
0.8
  7
ROMANS
 72
     1
 11
-310.0
 21
73.0
 31
0.0
100
AcDbText
  0
INSERT
  5
D0
100
AcDbEntity
  8
0
100
AcDbBlockReference
  2
GLASH3
 10
-295.0
 20
65.0
 30
0.0
  0
TEXT
  5
F4
100
AcDbEntity
  8
TEXT
100
AcDbText
 10
-285.0
 20
73.0
 30
0.0
 40
5.0
  1
%%USP44020
 41
0.8
  7
ROMANS
 72
     1
 11
-272.157143
 21
73.0
 31
0.0
100
AcDbText
  0
LINE
  5
F5
100
AcDbEntity
  8
GLAS_MED_FOGNING
100
AcDbLine
 10
-170.0
 20
95.0
 30
0.0
 11
-200.4
 21
95.0
 31
0.0
  0
TEXT
  5
F6
100
AcDbEntity
  8
TEXT
100
AcDbText
 10
-233.271429
 20
73.0
 30
0.0
 40
5.0
  1
%%UGLASSV6_18
 41
0.8
  7
ROMANS
 72
     1
 11
-215.0
 21
73.0
 31
0.0
100
AcDbText
  0
INSERT
  5
F7
100
AcDbEntity
  8
GLAS_MED_FOGNING
100
AcDbBlockReference
  2
*X12
 10
-145.0
 20
60.0
 30
0.0
1001
ACAD
1000
HATCH
1002
{
1070
    16
1000
AR-SAND
1040
2.0
1040
0.0
1002
}
  0
TEXT
  5
132
100
AcDbEntity
  8
TEXT
100
AcDbText
 10
-182.557143
 20
73.0
 30
0.0
 40
5.0
  1
%%UGLASSH5
 41
0.8
  7
ROMANS
 72
     1
 11
-170.0
 21
73.0
 31
0.0
100
AcDbText
  0
INSERT
  5
133
100
AcDbEntity
  8
0
100
AcDbBlockReference
  2
90_SP40520FYLLN
 10
-275.0
 20
170.0
 30
0.0
  0
LWPOLYLINE
  5
187
100
AcDbEntity
  8
CENTRUM
100
AcDbPolyline
 90
        4
 70
     0
 43
0.0
 10
-285.0
 20
127.5
 10
-303.0
 20
127.5
 10
-352.4
 20
127.5
 10
-360.0
 20
127.5
  0
LINE
  5
188
100
AcDbEntity
  8
GLAS_MED_FOGNING
100
AcDbLine
 10
-352.4
 20
127.5
 30
0.0
 11
-352.4
 21
117.0
 31
0.0
  0
LINE
  5
189
100
AcDbEntity
  8
GLAS_MED_FOGNING
100
AcDbLine
 10
-303.0
 20
127.5
 30
0.0
 11
-303.0
 21
117.0
 31
0.0
  0
TEXT
  5
18A
100
AcDbEntity
  8
TEXT
100
AcDbText
 10
-272.747619
 20
135.0
 30
0.0
 40
5.0
  1
%%UEXPLODE
 41
0.8
  7
ROMANS
 72
     1
 11
-260.0
 21
135.0
 31
0.0
100
AcDbText
  0
TEXT
  5
18B
100
AcDbEntity
  8
TEXT
100
AcDbText
 10
-323.033333
 20
178.0
 30
0.0
 40
5.0
  1
%%UFYLLNING
 41
0.8
  7
ROMANS
 72
     1
 11
-310.0
 21
178.0
 31
0.0
100
AcDbText
  0
LINE
  5
18C
100
AcDbEntity
  8
TEXT
100
AcDbLine
 10
-329.954674
 20
198.997033
 30
0.0
 11
-323.636196
 21
176.999677
 31
0.0
  0
LINE
  5
18D
100
AcDbEntity
  8
GLAS_MED_FOGNING
100
AcDbLine
 10
-205.4
 20
127.5
 30
0.0
 11
-205.4
 21
119.0
 31
0.0
  0
LINE
  5
18E
100
AcDbEntity
  8
GLAS_MED_FOGNING
100
AcDbLine
 10
-165.0
 20
127.5
 30
0.0
 11
-165.0
 21
119.0
 31
0.0
  0
INSERT
  5
18F
100
AcDbEntity
  8
0
100
AcDbBlockReference
  2
SP40520
 10
-275.0
 20
225.0
 30
0.0
  0
TEXT
  5
190
100
AcDbEntity
  8
TEXT
100
AcDbText
 10
-307.842857
 20
233.0
 30
0.0
 40
5.0
  1
%%USP40520
 41
0.8
  7
ROMANS
 72
     1
 11
-295.0
 21
233.0
 31
0.0
100
AcDbText
  0
TEXT
  5
192
100
AcDbEntity
  8
TEXT
100
AcDbText
 10
-81.571429
 20
40.0
 30
0.0
 40
5.0
  1
SP 79000  %%UGLASS
 41
0.8
  7
ROMANS
 72
     2
 11
-25.0
 21
40.0
 31
0.0
100
AcDbText
  0
TEXT
  5
193
100
AcDbEntity
  8
TEXT
100
AcDbText
 10
-140.0
 20
73.0
 30
0.0
 40
5.0
  1
%%USP45020
 41
0.8
  7
ROMANS
 72
     1
 11
-127.157143
 21
73.0
 31
0.0
100
AcDbText
  0
INSERT
  5
194
100
AcDbEntity
  8
GLAS_MED_FOGNING
100
AcDbBlockReference
  2
90-SP42520_2DK
 10
-35.0
 20
160.0
 30
0.0
  0
TEXT
  5
1A6
100
AcDbEntity
  8
TEXT
100
AcDbText
 10
-89.938095
 20
168.0
 30
0.0
 40
5.0
  1
%%UDISTANCE BLOCK
 41
0.8
  7
ROMANS
 72
     1
 11
-65.0
 21
168.0
 31
0.0
100
AcDbText
  0
LINE
  5
1A7
100
AcDbEntity
  8
TEXT
100
AcDbLine
 10
-103.932664
 20
186.137633
 30
0.0
 11
-90.215734
 21
166.815799
 31
0.0
  0
INSERT
  5
1A8
100
AcDbEntity
  8
GLAS_MED_FOGNING
100
AcDbBlockReference
  2
90_SP42520-2
 10
-35.0
 20
215.0
 30
0.0
  0
TEXT
  5
228
100
AcDbEntity
  8
TEXT
100
AcDbText
 10
-98.938095
 20
223.0
 30
0.0
 40
5.0
  1
%%U90_SP42520
 41
0.8
  7
ROMANS
 72
     1
 11
-80.0
 21
223.0
 31
0.0
100
AcDbText
  0
LINE
  5
229
100
AcDbEntity
  8
TEXT
100
AcDbLine
 10
-346.280586
 20
326.12864
 30
0.0
 11
-336.458937
 21
307.001134
 31
0.0
  0
INSERT
  5
22A
100
AcDbEntity
  8
GLAS_MED_FOGNING
100
AcDbBlockReference
  2
90_SP43520
 10
-275.0
 20
355.0
 30
0.0
  0
INSERT
  5
290
100
AcDbEntity
  8
GLAS_MED_FOGNING
100
AcDbBlockReference
  2
90_SP43520DK
 10
-275.0
 20
300.0
 30
0.0
  0
LINE
  5
29C
100
AcDbEntity
  8
TEXT
100
AcDbLine
 10
-350.697705
 20
456.277797
 30
0.0
 11
-336.458937
 21
437.001134
 31
0.0
  0
INSERT
  5
29D
100
AcDbEntity
  8
GLAS_MED_FOGNING
100
AcDbBlockReference
  2
90_SP45720
 10
-275.0
 20
430.0
 30
0.0
  0
INSERT
  5
2AB
100
AcDbEntity
  8
GLAS_MED_FOGNING
100
AcDbBlockReference
  2
90_SP43020
 10
-155.0
 20
355.0
 30
0.0
  0
TEXT
  5
319
100
AcDbEntity
  8
TEXT
100
AcDbText
 10
-335.842857
 20
308.0
 30
0.0
 40
5.0
  1
%%UDISTANSKLOSS
 41
0.8
  7
ROMANS
 72
     1
 11
-315.0
 21
308.0
 31
0.0
100
AcDbText
  0
TEXT
  5
31A
100
AcDbEntity
  8
TEXT
100
AcDbText
 10
-338.938095
 20
363.0
 30
0.0
 40
5.0
  1
%%U90_SP43520
 41
0.8
  7
ROMANS
 72
     1
 11
-320.0
 21
363.0
 31
0.0
100
AcDbText
  0
INSERT
  5
31B
100
AcDbEntity
  8
GLAS_MED_FOGNING
100
AcDbBlockReference
  2
90_SP43020DK
 10
-155.0
 20
300.0
 30
0.0
  0
TEXT
  5
327
100
AcDbEntity
  8
TEXT
100
AcDbText
 10
-215.842857
 20
308.0
 30
0.0
 40
5.0
  1
%%UDISTANSKLOSS
 41
0.8
  7
ROMANS
 72
     1
 11
-195.0
 21
308.0
 31
0.0
100
AcDbText
  0
LINE
  5
328
100
AcDbEntity
  8
TEXT
100
AcDbLine
 10
-225.177654
 20
326.125809
 30
0.0
 11
-216.458937
 21
307.001134
 31
0.0
  0
TEXT
  5
329
100
AcDbEntity
  8
TEXT
100
AcDbText
 10
-218.938095
 20
363.0
 30
0.0
 40
5.0
  1
%%U90_SP43020
 41
0.8
  7
ROMANS
 72
     1
 11
-200.0
 21
363.0
 31
0.0
100
AcDbText
  0
TEXT
  5
32A
100
AcDbEntity
  8
TEXT
100
AcDbText
 10
-335.842857
 20
438.0
 30
0.0
 40
5.0
  1
%%UDISTANSKLOSS
 41
0.8
  7
ROMANS
 72
     1
 11
-315.0
 21
438.0
 31
0.0
100
AcDbText
  0
LINE
  5
32B
100
AcDbEntity
  8
TEXT
100
AcDbLine
 10
-228.836872
 20
456.291954
 30
0.0
 11
-216.458937
 21
437.001134
 31
0.0
  0
TEXT
  5
32C
100
AcDbEntity
  8
TEXT
100
AcDbText
 10
-215.842857
 20
438.0
 30
0.0
 40
5.0
  1
%%UDISTANSKLOSS
 41
0.8
  7
ROMANS
 72
     1
 11
-195.0
 21
438.0
 31
0.0
100
AcDbText
  0
INSERT
  5
32D
100
AcDbEntity
  8
0
100
AcDbBlockReference
  2
90_SP45020DK
 10
-155.0
 20
430.0
 30
0.0
  0
INSERT
  5
339
100
AcDbEntity
  8
GLAS_MED_FOGNING
100
AcDbBlockReference
  2
SP_90_45720
 10
-275.0
 20
485.0
 30
0.0
  0
TEXT
  5
371
100
AcDbEntity
  8
TEXT
100
AcDbText
 10
-338.938095
 20
493.0
 30
0.0
 40
5.0
  1
%%U90_SP45720
 41
0.8
  7
ROMANS
 72
     1
 11
-320.0
 21
493.0
 31
0.0
100
AcDbText
  0
INSERT
  5
372
100
AcDbEntity
  8
0
100
AcDbBlockReference
  2
90_SP45020
 10
-155.0
 20
485.0
 30
0.0
  0
TEXT
  5
3AE
100
AcDbEntity
  8
TEXT
100
AcDbText
 10
-218.938095
 20
493.0
 30
0.0
 40
5.0
  1
%%U90_SP45020
 41
0.8
  7
ROMANS
 72
     1
 11
-200.0
 21
493.0
 31
0.0
100
AcDbText
  0
INSERT
  5
3AF
100
AcDbEntity
  8
GLAS_MED_FOGNING
100
AcDbBlockReference
  2
90_SP42520
 10
-35.0
 20
355.0
 30
0.0
  0
TEXT
  5
3C1
100
AcDbEntity
  8
TEXT
100
AcDbText
 10
-95.842857
 20
308.0
 30
0.0
 40
5.0
  1
%%UDISTANSKLOSS
 41
0.8
  7
ROMANS
 72
     1
 11
-75.0
 21
308.0
 31
0.0
100
AcDbText
  0
INSERT
  5
3C2
100
AcDbEntity
  8
GLAS_MED_FOGNING
100
AcDbBlockReference
  2
90_SP42520DK
 10
-35.0
 20
300.0
 30
0.0
  0
LINE
  5
3CE
100
AcDbEntity
  8
TEXT
100
AcDbLine
 10
-103.932664
 20
326.137633
 30
0.0
 11
-96.444358
 21
306.998604
 31
0.0
  0
TEXT
  5
3CF
100
AcDbEntity
  8
TEXT
100
AcDbText
 10
-98.938095
 20
363.0
 30
0.0
 40
5.0
  1
%%U90_SP42520
 41
0.8
  7
ROMANS
 72
     1
 11
-80.0
 21
363.0
 31
0.0
100
AcDbText
  0
TEXT
  5
3D0
100
AcDbEntity
  8
TEXT
100
AcDbText
 10
-95.842857
 20
438.0
 30
0.0
 40
5.0
  1
%%UDISTANSKLOSS
 41
0.8
  7
ROMANS
 72
     1
 11
-75.0
 21
438.0
 31
0.0
100
AcDbText
  0
INSERT
  5
3D1
100
AcDbEntity
  8
0
100
AcDbBlockReference
  2
90_SP44020DK
 10
-35.0
 20
430.0
 30
0.0
  0
LINE
  5
3DD
100
AcDbEntity
  8
TEXT
100
AcDbLine
 10
-108.532272
 20
455.970018
 30
0.0
 11
-96.444358
 21
436.998604
 31
0.0
  0
INSERT
  5
3DE
100
AcDbEntity
  8
0
100
AcDbBlockReference
  2
90_SP44020
 10
-35.0
 20
485.0
 30
0.0
  0
TEXT
  5
42E
100
AcDbEntity
  8
TEXT
100
AcDbText
 10
-98.938095
 20
493.0
 30
0.0
 40
5.0
  1
%%U90_SP44020
 41
0.8
  7
ROMANS
 72
     1
 11
-80.0
 21
493.0
 31
0.0
100
AcDbText
  0
ENDSEC
  0
SECTION
  2
OBJECTS
  0
DICTIONARY
  5
1A
100
AcDbDictionary
  3
ACAD_GROUP
350
18
  3
ACAD_MLINESTYLE
350
19
  0
DICTIONARY
  5
18
102
{ACAD_REACTORS
330
1A
102
}
100
AcDbDictionary
  0
DICTIONARY
  5
19
102
{ACAD_REACTORS
330
1A
102
}
100
AcDbDictionary
  3
STANDARD
350
1C
  0
MLINESTYLE
  5
1C
102
{ACAD_REACTORS
330
19
102
}
100
AcDbMlineStyle
  2
STANDARD
 70
     0
  3

 62
     0
 51
90.0
 52
90.0
 71
     2
 49
0.5
 62
   256
  6
BYLAYER
 49
-0.5
 62
   256
  6
BYLAYER
  0
ENDSEC
  0
EOF
