  0
SECTION
  2
HEADER
  9
$ACADVER
  1
AC1014
  9
$ACADMAINTVER
 70
     0
  9
$DWGCODEPAGE
  3
ANSI_1252
  9
$INSBASE
 10
-5.0
 20
20.0
 30
0.0
  9
$EXTMIN
 10
-750.0
 20
24.0
 30
0.0
  9
$EXTMAX
 10
-20.0
 20
560.0
 30
0.0
  9
$LIMMIN
 10
0.0
 20
0.0
  9
$LIMMAX
 10
840.0
 20
600.0
  9
$ORTHOMODE
 70
     0
  9
$REGENMODE
 70
     1
  9
$FILLMODE
 70
     1
  9
$QTEXTMODE
 70
     0
  9
$MIRRTEXT
 70
     1
  9
$DRAGMODE
 70
     2
  9
$LTSCALE
 40
5.0
  9
$OSMODE
 70
   547
  9
$ATTMODE
 70
     1
  9
$TEXTSIZE
 40
3.15
  9
$TRACEWID
 40
0.05
  9
$TEXTSTYLE
  7
STANDARD
  9
$CLAYER
  8
GLAS_MED_FOGNING
  9
$CELTYPE
  6
BYLAYER
  9
$CECOLOR
 62
   256
  9
$CELTSCALE
 40
1.0
  9
$DELOBJ
 70
     1
  9
$DISPSILH
 70
     0
  9
$DIMSCALE
 40
1.0
  9
$DIMASZ
 40
0.0
  9
$DIMEXO
 40
1.0
  9
$DIMDLI
 40
10.0
  9
$DIMRND
 40
0.0
  9
$DIMDLE
 40
0.0
  9
$DIMEXE
 40
2.0
  9
$DIMTP
 40
0.0
  9
$DIMTM
 40
0.0
  9
$DIMTXT
 40
3.5
  9
$DIMCEN
 40
2.5
  9
$DIMTSZ
 40
1.0
  9
$DIMTOL
 70
     0
  9
$DIMLIM
 70
     0
  9
$DIMTIH
 70
     0
  9
$DIMTOH
 70
     0
  9
$DIMSE1
 70
     0
  9
$DIMSE2
 70
     0
  9
$DIMTAD
 70
     1
  9
$DIMZIN
 70
     8
  9
$DIMBLK
  1

  9
$DIMASO
 70
     1
  9
$DIMSHO
 70
     1
  9
$DIMPOST
  1

  9
$DIMAPOST
  1

  9
$DIMALT
 70
     0
  9
$DIMALTD
 70
     2
  9
$DIMALTF
 40
25.4
  9
$DIMLFAC
 40
1.0
  9
$DIMTOFL
 70
     1
  9
$DIMTVP
 40
0.0
  9
$DIMTIX
 70
     0
  9
$DIMSOXD
 70
     0
  9
$DIMSAH
 70
     0
  9
$DIMBLK1
  1

  9
$DIMBLK2
  1

  9
$DIMSTYLE
  2
STANDARD
  9
$DIMCLRD
 70
     0
  9
$DIMCLRE
 70
     0
  9
$DIMCLRT
 70
     6
  9
$DIMTFAC
 40
1.0
  9
$DIMGAP
 40
0.1
  9
$DIMJUST
 70
     0
  9
$DIMSD1
 70
     0
  9
$DIMSD2
 70
     0
  9
$DIMTOLJ
 70
     1
  9
$DIMTZIN
 70
     0
  9
$DIMALTZ
 70
     0
  9
$DIMALTTZ
 70
     0
  9
$DIMFIT
 70
     3
  9
$DIMUPT
 70
     0
  9
$DIMUNIT
 70
     2
  9
$DIMDEC
 70
     4
  9
$DIMTDEC
 70
     4
  9
$DIMALTU
 70
     2
  9
$DIMALTTD
 70
     2
  9
$DIMTXSTY
  7
STANDARD
  9
$DIMAUNIT
 70
     0
  9
$LUNITS
 70
     2
  9
$LUPREC
 70
     2
  9
$SKETCHINC
 40
0.1
  9
$FILLETRAD
 40
0.5
  9
$AUNITS
 70
     0
  9
$AUPREC
 70
     4
  9
$MENU
  1
acad
  9
$ELEVATION
 40
0.0
  9
$PELEVATION
 40
0.0
  9
$THICKNESS
 40
0.0
  9
$LIMCHECK
 70
     0
  9
$BLIPMODE
 70
     0
  9
$CHAMFERA
 40
10.0
  9
$CHAMFERB
 40
10.0
  9
$CHAMFERC
 40
0.0
  9
$CHAMFERD
 40
0.0
  9
$SKPOLY
 70
     0
  9
$TDCREATE
 40
2450609.790026851
  9
$TDUPDATE
 40
2452293.560339815
  9
$TDINDWG
 40
0.0159840278
  9
$TDUSRTIMER
 40
0.0159840278
  9
$USRTIMER
 70
     1
  9
$ANGBASE
 50
0.0
  9
$ANGDIR
 70
     0
  9
$PDMODE
 70
    35
  9
$PDSIZE
 40
0.0
  9
$PLINEWID
 40
0.0
  9
$COORDS
 70
     1
  9
$SPLFRAME
 70
     0
  9
$SPLINETYPE
 70
     6
  9
$SPLINESEGS
 70
     8
  9
$ATTDIA
 70
     0
  9
$ATTREQ
 70
     1
  9
$HANDLING
 70
     1
  9
$HANDSEED
  5
3A5
  9
$SURFTAB1
 70
     6
  9
$SURFTAB2
 70
     6
  9
$SURFTYPE
 70
     6
  9
$SURFU
 70
     6
  9
$SURFV
 70
     6
  9
$UCSNAME
  2

  9
$UCSORG
 10
0.0
 20
0.0
 30
0.0
  9
$UCSXDIR
 10
1.0
 20
0.0
 30
0.0
  9
$UCSYDIR
 10
0.0
 20
1.0
 30
0.0
  9
$PUCSNAME
  2

  9
$PUCSORG
 10
0.0
 20
0.0
 30
0.0
  9
$PUCSXDIR
 10
1.0
 20
0.0
 30
0.0
  9
$PUCSYDIR
 10
0.0
 20
1.0
 30
0.0
  9
$USERI1
 70
     0
  9
$USERI2
 70
     0
  9
$USERI3
 70
     0
  9
$USERI4
 70
     0
  9
$USERI5
 70
     0
  9
$USERR1
 40
0.0
  9
$USERR2
 40
0.0
  9
$USERR3
 40
0.0
  9
$USERR4
 40
0.0
  9
$USERR5
 40
0.0
  9
$WORLDVIEW
 70
     1
  9
$SHADEDGE
 70
     3
  9
$SHADEDIF
 70
    70
  9
$TILEMODE
 70
     1
  9
$MAXACTVP
 70
    16
  9
$PINSBASE
 10
0.0
 20
0.0
 30
0.0
  9
$PLIMCHECK
 70
     0
  9
$PEXTMIN
 10
1.000000E+20
 20
1.000000E+20
 30
1.000000E+20
  9
$PEXTMAX
 10
-1.000000E+20
 20
-1.000000E+20
 30
-1.000000E+20
  9
$PLIMMIN
 10
0.0
 20
0.0
  9
$PLIMMAX
 10
420.0
 20
297.0
  9
$UNITMODE
 70
     0
  9
$VISRETAIN
 70
     0
  9
$PLINEGEN
 70
     0
  9
$PSLTSCALE
 70
     1
  9
$TREEDEPTH
 70
  3020
  9
$PICKSTYLE
 70
     1
  9
$CMLSTYLE
  2
STANDARD
  9
$CMLJUST
 70
     0
  9
$CMLSCALE
 40
1.0
  9
$PROXYGRAPHICS
 70
     1
  9
$MEASUREMENT
 70
     0
  0
ENDSEC
  0
SECTION
  2
CLASSES
  0
CLASS
  1
LWPOLYLINE
  2
AcDbPolyline
  3
"AutoCAD"
 90
        0
280
     0
281
     1
  0
CLASS
  1
HATCH
  2
AcDbHatch
  3
"ACAD_SEDONA"
 90
        0
280
     0
281
     1
  0
CLASS
  1
DICTIONARYVAR
  2
AcDbDictionaryVar
  3
"AutoCAD"
 90
        0
280
     0
281
     0
  0
CLASS
  1
ACDBDICTIONARYWDFLT
  2
AcDbDictionaryWithDefault
  3
AutoCAD 2000
 90
        0
280
     0
281
     0
  0
CLASS
  1
ACDBPLACEHOLDER
  2
AcDbPlaceHolder
  3
AutoCAD 2000
 90
        0
280
     0
281
     0
  0
CLASS
  1
LAYOUT
  2
AcDbLayout
  3
AutoCAD 2000
 90
        0
280
     0
281
     0
  0
CLASS
  1
LONG_TRANSACTION
  2
AcDbLongTransaction
  3
AutoCAD 2000
 90
        0
280
     0
281
     0
  0
CLASS
  1
LWPOLYLINE
  2
AcDbPolyline
  3
"AutoCAD"
 90
        0
280
     0
281
     1
  0
CLASS
  1
HATCH
  2
AcDbHatch
  3
"ACAD_SEDONA"
 90
        0
280
     0
281
     1
  0
CLASS
  1
XRECORD
  2
AcDbXrecord
  3
"<Built In>"
 90
        0
280
     0
281
     0
  0
ENDSEC
  0
SECTION
  2
TABLES
  0
TABLE
  2
VPORT
  5
12
100
AcDbSymbolTable
 70
     1
  0
VPORT
  5
3A0
100
AcDbSymbolTableRecord
100
AcDbViewportTableRecord
  2
*ACTIVE
 70
     0
 10
0.0
 20
0.0
 11
1.0
 21
1.0
 12
-414.37773
 22
351.672778
 13
0.0
 23
0.0
 14
5.0
 24
5.0
 15
10.0
 25
10.0
 16
0.0
 26
0.0
 36
1.0
 17
0.0
 27
0.0
 37
0.0
 40
833.938805
 41
1.47625
 42
50.0
 43
0.0
 44
0.0
 50
0.0
 51
0.0
 71
     0
 72
   100
 73
     1
 74
     1
 75
     1
 76
     0
 77
     0
 78
     0
  0
ENDTAB
  0
TABLE
  2
LTYPE
  5
D
100
AcDbSymbolTable
 70
     2
  0
LTYPE
  5
E
100
AcDbSymbolTableRecord
100
AcDbLinetypeTableRecord
  2
BYBLOCK
 70
     0
  3

 72
    65
 73
     0
 40
0.0
  0
LTYPE
  5
F
100
AcDbSymbolTableRecord
100
AcDbLinetypeTableRecord
  2
BYLAYER
 70
     0
  3

 72
    65
 73
     0
 40
0.0
  0
LTYPE
  5
5
100
AcDbSymbolTableRecord
100
AcDbLinetypeTableRecord
  2
CONTINUOUS
 70
     0
  3
Solid line
 72
    65
 73
     0
 40
0.0
  0
LTYPE
  5
23
100
AcDbSymbolTableRecord
100
AcDbLinetypeTableRecord
  2
DASHDOT
 70
     0
  3
__ . __ . __ . __ . __ . __ . __ . __ . __ . __
 72
    65
 73
     4
 40
1.0
 49
0.5
 74
     0
 49
-0.25
 74
     0
 49
0.0
 74
     0
 49
-0.25
 74
     0
  0
ENDTAB
  0
TABLE
  2
LAYER
  5
A
100
AcDbSymbolTable
 70
     6
  0
LAYER
  5
4
100
AcDbSymbolTableRecord
100
AcDbLayerTableRecord
  2
0
 70
     0
 62
     7
  6
CONTINUOUS
  0
LAYER
  5
10C
100
AcDbSymbolTableRecord
100
AcDbLayerTableRecord
  2
STALPROFIL
 70
     0
 62
     1
  6
CONTINUOUS
  0
LAYER
  5
10E
100
AcDbSymbolTableRecord
100
AcDbLayerTableRecord
  2
SPKONTUR
 70
     0
 62
     7
  6
CONTINUOUS
  0
LAYER
  5
1B
100
AcDbSymbolTableRecord
100
AcDbLayerTableRecord
  2
GLAS_MED_FOGNING
 70
     0
 62
     2
  6
CONTINUOUS
  0
LAYER
  5
116
100
AcDbSymbolTableRecord
100
AcDbLayerTableRecord
  2
TEXT
 70
     0
 62
     6
  6
CONTINUOUS
  0
LAYER
  5
21
100
AcDbSymbolTableRecord
100
AcDbLayerTableRecord
  2
RAM
 70
     0
 62
     5
  6
CONTINUOUS
  0
ENDTAB
  0
TABLE
  2
STYLE
  5
B
100
AcDbSymbolTable
 70
     2
  0
STYLE
  5
C
100
AcDbSymbolTableRecord
100
AcDbTextStyleTableRecord
  2
STANDARD
 70
     0
 40
0.0
 41
1.0
 50
0.0
 71
     0
 42
5.0
  3
txt
  4

  0
STYLE
  5
117
100
AcDbSymbolTableRecord
100
AcDbTextStyleTableRecord
  2
ROMANS
 70
     0
 40
0.0
 41
0.8
 50
0.0
 71
     0
 42
5.0
  3
romans
  4

  0
ENDTAB
  0
TABLE
  2
VIEW
  5
10
100
AcDbSymbolTable
 70
     0
  0
ENDTAB
  0
TABLE
  2
UCS
  5
11
100
AcDbSymbolTable
 70
     0
  0
ENDTAB
  0
TABLE
  2
APPID
  5
14
100
AcDbSymbolTable
 70
     3
  0
APPID
  5
15
100
AcDbSymbolTableRecord
100
AcDbRegAppTableRecord
  2
ACAD
 70
     0
  0
APPID
  5
31
100
AcDbSymbolTableRecord
100
AcDbRegAppTableRecord
  2
CONTENTBLOCKICON
 70
     0
  0
APPID
  5
1B5
100
AcDbSymbolTableRecord
100
AcDbRegAppTableRecord
  2
CONTENTBLOCKDESCRIPTION
 70
     0
  0
ENDTAB
  0
TABLE
  2
DIMSTYLE
  5
16
100
AcDbSymbolTable
 70
     1
  0
DIMSTYLE
105
1D
100
AcDbSymbolTableRecord
100
AcDbDimStyleTableRecord
  2
STANDARD
 70
     0
  3

  4

  5

  6

  7

 40
1.0
 41
0.18
 42
0.0625
 43
0.38
 44
0.18
 45
0.0
 46
0.0
 47
0.0
 48
0.0
140
0.18
141
0.09
142
0.0
143
25.4
144
1.0
145
0.0
146
1.0
147
0.09
 71
     0
 72
     0
 73
     1
 74
     1
 75
     0
 76
     0
 77
     0
 78
     0
170
     0
171
     2
172
     0
173
     0
174
     0
175
     0
176
     0
177
     0
178
     0
270
     2
271
     4
272
     4
273
     2
274
     2
340
C
275
     0
280
     0
281
     0
282
     0
283
     1
284
     0
285
     0
286
     0
287
     3
288
     0
  0
ENDTAB
  0
TABLE
  2
BLOCK_RECORD
  5
1
100
AcDbSymbolTable
 70
    34
  0
BLOCK_RECORD
  5
2
102
{ACAD_XDICTIONARY
360
379
102
}
100
AcDbSymbolTableRecord
100
AcDbBlockTableRecord
  2
*MODEL_SPACE
  0
BLOCK_RECORD
  5
7
102
{ACAD_XDICTIONARY
360
37B
102
}
100
AcDbSymbolTableRecord
100
AcDbBlockTableRecord
  2
*PAPER_SPACE
  0
BLOCK_RECORD
  5
1F
100
AcDbSymbolTableRecord
100
AcDbBlockTableRecord
  2
SIDA
1001
CONTENTBLOCKICON
1071
        0
1004
2800000020000000200000000100040000000000000200000000000000000000000000000000000000000000000080000080000000808000800000008000800080800000C0C0C000808080000000FF0000FF000000FFFF00FF000000FF00FF00FFFF0000FFFFFF00FFFFFCCCCCCCCCCCCCCCCCCCCCCFFFFFFFFFFCFFFFFFFF
1004
FFFFFFFFFFFFCFFFFFFFFFFCFFFFFFFFFFFFFFFFFFFFCFFFFFFFFFFCFFFFFFFFFFFFFFFFFFFFCFFFFFFFFFFCFFFFFFFFFFFFFFFFFFFFCFFFFFFFFFFCFFFFFFFFFFFFFFFFFFFFCFFFFFFFFFFCFFFFFFFFFFFFFFFFFFFFCFFFFFFFFFFCFFFFFFDFFFFFFDFFFFFFCFFFFFFFFFFCFFFFFDDDFFFFFDDFFFFFCFFFFFFFFFFCFFFFFF
1004
FFFFFFFFFFFFFFCFFFFFFFFFFCFFFFFFFFFFFFFFFFFFFFCFFFFFFFFFFCFFFFFFFFFFFFFFFFFFFFCFFFFFFFFFFCFFFFFFFFFFFFFFFFFFFFCFFFFFFFFFFCFFFFFFFFFFFFFFFFFFFFCFFFFFFFFFFCFFFFFFFFFFFFFFFFFFFFCFFFFFFFFFFCFFFFFFDFFFFFFDFFFFFFCFFFFFFFFFFCFFFFFDDDFFFFFDDFFFFFCFFFFFFFFFFCFFFF
1004
FFFFFFFFFFFFFFFFCFFFFFFFFFFCFFFFFFFFFFFFFFFFFFFFCFFFFFFFFFFCFFFFFFFFFFFFFFFFFFFFCFFFFFFFFFFCFFFFFFFFFFFFFFFFFFFFCFFFFFFFFFFCFFFFFFFFFFFFFFFFFFFFCFFFFFFFFFFCFFFFFFFFFFFFFFFFFFFFCFFFFFFFFFFCFFFFFDDDFFFFFDDFFFFFCFFFFFFFFFFCFFFFFFDFFFFFFDFFFFFFCFFFFFFFFFFCFF
1004
FFFFFFFFFFFFFFFFFFCFFFFFFFFFFCFFFFFFFFFFFFFFFFFFFFCFFFFFFFFFFCFFFFFFFFFFFFFFFFFFFFCFFFFFFFFFFCFFFFFFFFFFFFFFFFFFFFCFFFFFFFFFFCFFFFFFFFFFFFFFFFFFFFCFFFFFFFFFFCFFFFFFFFFFFFFFFFFFFFCFFFFFFFFFFCCCCCCCCCCCCCCCCCCCCCCFFFFF
  0
BLOCK_RECORD
  5
12C
100
AcDbSymbolTableRecord
100
AcDbBlockTableRecord
  2
*X1
  0
BLOCK_RECORD
  5
129
100
AcDbSymbolTableRecord
100
AcDbBlockTableRecord
  2
SP40010
1001
CONTENTBLOCKICON
1071
        0
1004
2800000020000000200000000100040000000000000200000000000000000000000000000000000000000000000080000080000000808000800000008000800080800000C0C0C000808080000000FF0000FF000000FFFF00FF000000FF00FF00FFFF0000FFFFFF00FFFFFFFFFFFFFFFFFFFFFFFFFFFFFFFFFFFFFFFFFFFFFF
1004
FFFFFFFFFFFFFFFFFFFFFFFFFFFFFFFFFFFFFFFFFFFFFFFFFFFFFFFFFFFFFFFFFFFFFFFFFFFFFFBBFFFFFFFFFFFFFFFFFFFFFFFFFFFFBBFBFFFFFFFFFFFFFFFFFFFFFFFFFFFFBFFBFFFFFFFFFFFFFFFFFFFFFFFFFFFFBFBBFFFFFFFFFFFFFFFFFFFFFFFFFFFFBBFBFFFFFFFFFFFFFFFFFFFFFFFFFFBBFBFFBFFFFBBFFFFFFF
1004
FFFFFFFFFFFBBFBBFFBFFFFBFBFFFFFFFFFFFFFFFFFBBFFBFFBFFFFBFFFFFFFFFFFFFFFFFFBFFFBBFBBFFFBFBBFFFFFFFFFFFFFFFFBFFBFBBFBFFFBBFBFFFFFFFFFFFFFFFBFFFBBBFFBFFFBFFFBBBBFFFFFFFFFBBFFFBFBFFBFFFFBFFFBFFFBBBBBBBBBFFFFFBFBFFBFFFBFFFBFFFFFBFFFFFBFFFFFBFFBFBFFFFBFBBFFFFF
1004
BFFFFFBFFFFFBBFBFBBFFFFBBFFFFFFBFFFFBBFFFFFBFBBBBFBFFFFBFFFFFFBFFFFBFFFFFBBFFFBBFBFFFFBFFFFFFBFFFFBFFFFFBFFFFBFFFBFFFFBFFFFFBFFFFBFFFFFBFFFFBFFFFFFFFFFFFFBBBBBBBFFFFFBFFFFBFFFBBFFFFFFBBBFFFFFFFBBBBBBBFFBFFFFFBFFFFFFFFFFFFFFFFFFFFFFFBBFFFFFBBFFFFFFFFFFFFF
1004
FFFFFFFFFFFBFFFFBBFFFFFFFFFFFFFFFFFFFFFFFFFFBFFBFBFFFFFFFFFFFFFFFFFFFFFFFFFFFBBFFBFFFFFFFFFFFFFFFFFFFFFFFFFFFFBFBFFFFFFFFFFFFFFFFFFFFFFFFFFFFFFFBFFFFFFFFFFFFFFFFFFFFFFFFFFFFFFBFFFFFFFFFFFFFFFFFFFFFFFFFFFFFFFFFFFFFFFF
  0
BLOCK_RECORD
  5
11C
100
AcDbSymbolTableRecord
100
AcDbBlockTableRecord
  2
SP30001
1001
CONTENTBLOCKICON
1071
        0
1004
2800000020000000200000000100040000000000000200000000000000000000000000000000000000000000000080000080000000808000800000008000800080800000C0C0C000808080000000FF0000FF000000FFFF00FF000000FF00FF00FFFF0000FFFFFF00FFFFFFF0FFFFFFFFFFFFFFFFFFFFFFFFFFFFFFF0FFFFFF
1004
FFFFFFFFFFFFFFFFFFFFFFFFF0FFFFFFFFFFFFFFFFFFFFFFFFFFFFFFF0FFFFFFFFFFFFFFFFFFFFFFFFFFFFFFF0FFFFFFFFFFFFFFFFFFFFFFFFFFFFFFF0FFFFFFFFFFFFFFFFFFFFFFFFFFFFFFF0FFFFFFFFFFFFFFFFFFFFFFFFFFFFFFF0FFFFFFFFFFFFFFFFFFFFFFFFFFFFFFF0FFFFFFFFFFFFFFFFFFFFFFFFFFFFFFF0FFFF
1004
FFFFFFFFFFFFFFFFFFFFFFFFFFF0FFFFFFFFFFFFFFFFFFFFFFFFFFFFFFF0F90000000000000FFFFFFFFFFFFFFFF0990FFFFFFFFFFFFFFFFFFFFFFFFFFFF0990FFFFFFFFFFFFFFFFFFFFFFFFFFFF0990FFFFFFFFFFFFFFFFFFFFFFFFFFFF0990FFFFFFFFFFFFFFFFFFFFFFFFFFFF0990FFFFFFFFFFFFFFFFFFFFFFFFFFFF099
1004
0FFFFFFFFFFFFFFFFFFFFFFFFFFFF0990FFFFFFFFFFFFFFFFFFFFFFFFFFFF0990FFFFFFFFFFFFFFFFFFFFFFFFFFFF0990FFFFFFFFFFFFFFFFFFFFFFFFFFFF0990FFFFFFFFFFFFFFFFFFFFFFFFFFFF0990FFFFFFFFFFFFFFFFFFFFFFFFFFFF0990FFFFFFFFFFFFFFFFFFFFFFFFFFFF0990FFFFFFFFFFFFFFFFFFFFFFFFFFFF0
1004
990FFFFFFFFFFFFFFFFFFFFFFFFFFFF0990FFFFFFFFFFFFFFFFFFFFFFFFFFFF0990FFFFFFFFFFFFFFFFFFFFFFFFFFFF0990FFFFFFFFFFFFFFFFFFFFFFFFFFFF0990FFFFFFFFFFFFFFFFFFFFFFFFFFFF9990FFFFFFFFFFFFFFFFFFFFFFFFFFFF000FFFFFFFFFFFFFFFFFFFFFF
  0
BLOCK_RECORD
  5
35
100
AcDbSymbolTableRecord
100
AcDbBlockTableRecord
  2
HATSH
1001
CONTENTBLOCKICON
1071
        0
1004
2800000020000000200000000100040000000000000200000000000000000000000000000000000000000000000080000080000000808000800000008000800080800000C0C0C000808080000000FF0000FF000000FFFF00FF000000FF00FF00FFFF0000FFFFFF00FFFFFFFFFFFFFFFBBBBFFFFFFFFFFFFFFFFFFFFFFFFFFF
1004
FBBBBFFFFFFFFFFFFFFFFFFFFFFFFFFFBBBBBFFFFFFFFFFFFFFFFFFFFFFFFFFFBBBBBFFFFFFFFFFFFFFFFFFFFFFFFFFFFBBBBFFFFFFFFFFFFFFFFFFFFFFFFFFFBBBBBFFFFFFFFFFFFFFFFFFFFFFFFFFFFBBBBFFFFFFFFFFFFFFFFFFFFFFFFFFFBBBBBFFFFFFFFFFFFFFFFFFFFFFFFFFFFBBBBFFFFFFFFFFFFFFFFFFFFFFFFF
1004
FFBBBBBFFFFFFFFFFFFFFFFFFFFFFFFFFFFBBBBFFFFFFFFFFFFFFFFFFFFFFFFFFFBBBBBFFFFFFFFFFFFFFFFFFFFFFFFFFFFBBBBFFFFFFFFFFFFFFFFFFFFFFFFFFFBBBBBFFFFFFFFFFFFFFFFFFFFFFFFFFFBBBBBFFFFFFFFFFFFFFFFFFFFFFFFFFFFBBBBFFFFFFFFFFFFFFFFFFFFFFFFFFFBBBBBFFFFFFFFFFFFFFFFFFFFFFF
1004
FFFFFBBBBFFFFFFFFFFFFFFFFFFFFFFFFFFFBBBBBFFFFFFFFFFFFFFFFFFFFFFFFFFFFBBBBFFFFFFFFFFFFFFFFFFFFFFFFFFFBBBBBFFFFFFFFFFFFFFFFFFFFFFFFFFFFBBBBFFFFFFFFFFFFFFFFFFFFFFFFFFFBBBBBFFFFFFFFFFFFFFFFFFFFFFFFFFFFBBBBFFFFFFFFFFFFFFFFFFFFFFFFFFFBBBBBFFFFFFFFFFFFFFFFFFFFF
1004
FFFFFFBBBBBFFFFFFFFFFFFFFFFFFFFFFFFFFFFBBBBFFFFFFFFFFFFFFFFFFFFFFFFFFFBBBBBFFFFFFFFFFFFFFFFFFFFFFFFFFFFBBBBFFFFFFFFFFFFFFFFFFFFFFFFFFFBBBBBFFFFFFFFFFFFFFFFFFFFFFFFFFFFBBBBFFFFFFFFFFFFFFFFFFFFFFFFFFFBBBBFFFFFFFFFFFFFF
  0
BLOCK_RECORD
  5
37
100
AcDbSymbolTableRecord
100
AcDbBlockTableRecord
  2
*X5
  0
BLOCK_RECORD
  5
17D
100
AcDbSymbolTableRecord
100
AcDbBlockTableRecord
  2
SP955010-585-10
1001
CONTENTBLOCKICON
1071
        0
1004
2800000020000000200000000100040000000000000200000000000000000000000000000000000000000000000080000080000000808000800000008000800080800000C0C0C000808080000000FF0000FF000000FFFF00FF000000FF00FF00FFFF0000FFFFFF00FFFFFF0F00000BBBBBF000000FFFFFFFFFFFFF9999999F
1004
BBBB999999FFFFFFFFFFFFFF9FFFFFF0BBB0FFFFFF0FFFFFFFFFFFFF9FFFFFF0BBB0FFFFFF0FFFFFFFFFFFFF9FFFFFF0BBB0FFFFFF0FFFFFFFFFFFFF9FFFFFF0BBB0FFFFFF0FFFFFFFFFFFFF9FFFFFF0BBB0FFFFFF0FFFFFFFFFFFFF9FFFFFF0BBB0FFFFFF0FFFFFFFFFFFFF9FFFFFF0BBB0FFFFFF0FFFFFFFFFFFFF9FFFFF
1004
F0BBB0FFFFFF0FFFFFFFFFFFFF9FFFFFF0BBB0FFFFFF0FFFFFFFFFFFFF9FFFFFF0BBB0FFFFFF0FFFFFFFFFFFFF9FFFFFF0BBB0FFFFFF0FFFFFFFFFFFFF9FFFFFF0BBB0FFFFFF0FFFFFFFFFFFFF9FFFFFF0BBB0FFFFFF0FFFFFFFFFFFFF9FFFFFF0BBB0FFFFFF0FFFFFFFFFFFFF9FFFFFF0BBB0FFFFFF0FFFFFFFFFFFFF9FFF
1004
FFF0BBB0FFFFFF0FFFFFFFFFFFFF9FFFFFF0BBB0FFFFFF0FFFFFFFFFFFFF9FFFFFF0BBB0FFFFFF0FFFFFFFFFFFFF9FFFFFF0BBB0FFFFFF0FFFFFFFFFFFFF9FFFFFF0BBB0FFFFFF0FFFFFFFFFFFFF9FFFFFF0BBB0FFFFFF0FFFFFFFFFFFFF9FFFFFF0BBB0FFFFFF0FFFFFFFFFFFFF9FFFFFF0BBB0FFFFFF0FFFFFFFFFFFFF9F
1004
FFFFF0BBB0FFFFFF0FFFFFFFFFFFFF9FFFFFF0BBB0FFFF000FFFFFFFFFFFFF9FFFFFF0BBB0FFFF0BFFFFFFFFFFFFFF9FFFFFF0BBB090B0BBFFFFFFFFFFFFFF9FFFFFF0BBB090BBBBFFFFFFFFFFFFFF9FFFFFF0BBBBF90BBFFFFFFFFFFFFFFF9999999BBBBB00090FFFFFFFFF
  0
BLOCK_RECORD
  5
189
100
AcDbSymbolTableRecord
100
AcDbBlockTableRecord
  2
SP955014-585-10
1001
CONTENTBLOCKICON
1071
        0
1004
2800000020000000200000000100040000000000000200000000000000000000000000000000000000000000000080000080000000808000800000008000800080800000C0C0C000808080000000FF0000FF000000FFFF00FF000000FF00FF00FFFF0000FFFFFF00FFFFFFFF00FFFFFFFFFFFFFFFFFFFFFFFFFFFFFF90FFFF
1004
FFFFFFFFFFFFFFFFFFFFFFFFFF90FFFFFFFFFFFFFFFFFFFFFFFFFFFFFF90FFFFFFFFFFFFFFFFFFFFFFFFFFFFFF90FFFFFFFFFFFFFFFFFFFFFFFFFFFFFF90FFFFFFFFFFFFFFFFFFFFFFFFFFFFFF900000BBBB000000FFFFFFFFFFFFFFFF9999990BBB99999FFFFFFFFFFFFFFFFF9FFFF90BB0FFFF90FFFFFFFFFFFFFFFF9FFF
1004
F90BB0FFFF90FFFFFFFFFFFFFFFF9FFFF90BB0FFFF90FFFFFFFFFFFFFFFF9FFFF90BB0FFFF90FFFFFFFFFFFFFFFF9FFFF90BB0FFFF90FFFFFFFFFFFFFFFF9FFFF90BB0FFFF90FFFFFFFFFFFFFFFF9FFFF90BB0FFFF90FFFFFFFFFFFFFFFF9FFFF90BB0FFFF90FFFFFFFFFFFFFFFF9FFFF90BB0FFFF90FFFFFFFFFFFFFFFF9F
1004
FFF90BB0FFFF90FFFFFFFFFFFFFFFF9FFFF90BB0FFFF90FFFFFFFFFFFFFFFF9FFFF90BB0FFFF90FFFFFFFFFFFFFFFF9FFFF90BB0FFFF90FFFFFFFFFFFFFFFF9FFFF90BB0FFFF90FFFFFFFFFFFFFFFF9FFFF90BB0FFFF90FFFFFFFFFFFFFFFF9FFFF90BB0FFFF90FFFFFFFFFFFFFFFF9FFFF90BB0FFFF90FFFFFFFFFFFFFFFF
1004
9FFFF90BB0FFFF90FFFFFFFFFFFFFFFF9FFFF90BB0FFFF90FFFFFFFFFFFFFFFF9FFFF90BB0FFF00FFFFFFFFFFFFFFFFF9FFFF90BB0F0FBBFFFFFFFFFFFFFFFFF9FFFF90BB09BBBBFFFFFFFFFFFFFFFFF9FFFF90BBB9BBBFFFFFFFFFFFFFFFFFF999999BBBB0090FFFFFFFFFF
  0
BLOCK_RECORD
  5
170
100
AcDbSymbolTableRecord
100
AcDbBlockTableRecord
  2
SP955023-585-10
1001
CONTENTBLOCKICON
1071
        0
1004
2800000020000000200000000100040000000000000200000000000000000000000000000000000000000000000080000080000000808000800000008000800080800000C0C0C000808080000000FF0000FF000000FFFF00FF000000FF00FF00FFFF0000FFFFFF00FFFFFFFFFFFFFFFFFFFFF0FFFFFFFFFFFFFFFFFFFFFFFF
1004
FFFFFFF0FFFFFFFFFFFFFFFFFFFFFFFFFFFFFFF0FFFFFFFFFFFFFFFFFFFFFFFFFFFFFFF0FFFFFFFFFFFFFFFFFFFFFFFFFFFFFFF0FFFFFFFFFFFFFFFFFFF0F000BBB00000FFFFFFFFFFFFFFFFFFF0FFFF0B0FFFF0FFFFFFFFFFFFFFFFFFF0FFFF0B0FFFF0FFFFFFFFFFFFFFFFFFF0FFFF0B0FFFF0FFFFFFFFFFFFFFFFFFF0FF
1004
FF0B0FFFF0FFFFFFFFFFFFFFFFFFF0FFFF0B0FFFF0FFFFFFFFFFFFFFFFFFF0FFFF0B0FFFF0FFFFFFFFFFFFFFFFFFF0FFFF0B0FFFF0FFFFFFFFFFFFFFFFFFF0FFFF0B0FFFF0FFFFFFFFFFFFFFFFFFF0FFFF0B0FFFF0FFFFFFFFFFFFFFFFFFF0FFFF0B0FFFF0FFFFFFFFFFFFFFFFFFF0FFFF0B0FFFF0FFFFFFFFFFFFFFFFFFF0
1004
FFFF0B0FFFF0FFFFFFFFFFFFFFFFFFF0FFFF0B0FFFF0FFFFFFFFFFFFFFFFFFF0FFFF0B0FFFF0FFFFFFFFFFFFFFFFFFF0FFFF0B0FFFF0FFFFFFFFFFFFFFFFFFF0FFFF0B0FFFF0FFFFFFFFFFFFFFFFFFF0FFFF0B0FFFF0FFFFFFFFFFFFFFFFFFF0FFFF0B0FFFF0FFFFFFFFFFFFFFFFFFF0FFFF0B0FFFF0FFFFFFFFFFFFFFFFFF
1004
F0FFFF0B0FFFF0FFFFFFFFFFFFFFFFFFF00000BBB00000FFFFFFFFFFFFFFFFFFF00FFFFFFFFFFFFFFFFFFFFFFFFFFFFFF00FFFFFFFFFFFFFFFFFFFFFFFFFFFFFF00FFFFFFFFFFFFFFFFFFFFFFFFFFFFFF90FFFFFFFFFFFFFFFFFFFFFFFFFFFFFF00FFFFFFFFFFFFFFFFFFFFF
  0
BLOCK_RECORD
  5
195
100
AcDbSymbolTableRecord
100
AcDbBlockTableRecord
  2
SP955011-585-10
1001
CONTENTBLOCKICON
1071
        0
1004
2800000020000000200000000100040000000000000200000000000000000000000000000000000000000000000080000080000000808000800000008000800080800000C0C0C000808080000000FF0000FF000000FFFF00FF000000FF00FF00FFFF0000FFFFFF00FFFFFFFF0F0000BBBB000000FFFFFFFFFFFFFFFF099999
1004
BBBB99999FFFFFFFFFFFFFFFFF0FFFF90BB0FFFF90FFFFFFFFFFFFFFFF0FFFF9BBB0FFFF90FFFFFFFFFFFFFFFF0FFFF9BBB0FFFF90FFFFFFFFFFFFFFFF0FFFF90BB0FFFF90FFFFFFFFFFFFFFFF0FFFF9BBB0FFFF90FFFFFFFFFFFFFFFF0FFFF9BBB0FFFF90FFFFFFFFFFFFFFFF0FFFF90BB0FFFF90FFFFFFFFFFFFFFFF0FFF
1004
F9BBB0FFFF90FFFFFFFFFFFFFFFF0FFFF9BBB0FFFF90FFFFFFFFFFFFFFFF0FFFF90BB0FFFF90FFFFFFFFFFFFFFFF0FFFF9BBB0FFFF90FFFFFFFFFFFFFFFF0FFFF9BBB0FFFF90FFFFFFFFFFFFFFFF0FFFF90BB0FFFF90FFFFFFFFFFFFFFFF0FFFF9BBB0FFFF90FFFFFFFFFFFFFFFF0FFFF9BBB0FFFF90FFFFFFFFFFFFFFFF0F
1004
FFF90BB0FFFF90FFFFFFFFFFFFFFFF0FFFF9BBB0FFFF90FFFFFFFFFFFFFFFF0FFFF9BBB0FFFF90FFFFFFFFFFFFFFFF0FFFF90BB0FFFF90FFFFFFFFFFFFFFFF0FFFF9BBB0FFF00FFFFFFFFFFFFFFFFF0FFFF9BBB0FFFBBFFFFFFFFFFFFFFFFF0FFFF9BBB09BBBBFFFFFFFFFFFFFFFFF0FFFF90BBB9BBBFFFFFFFFFFFFFFFFFF
1004
000009BBBB999BFFFFFFFFFFFFFFFFFF00FFFFFFFFFFFFFFFFFFFFFFFFFFFFFF00FFFFFFFFFFFFFFFFFFFFFFFFFFFFFF00FFFFFFFFFFFFFFFFFFFFFFFFFFFFFF00FFFFFFFFFFFFFFFFFFFFFFFFFFFFFF90FFFFFFFFFFFFFFFFFFFFFFFFFFFFFF00FFFFFFFFFFFFFFFFFFFFFF
  0
BLOCK_RECORD
  5
1A3
100
AcDbSymbolTableRecord
100
AcDbBlockTableRecord
  2
SP955020-585-10
1001
CONTENTBLOCKICON
1071
        0
1004
2800000020000000200000000100040000000000000200000000000000000000000000000000000000000000000080000080000000808000800000008000800080800000C0C0C000808080000000FF0000FF000000FFFF00FF000000FF00FF00FFFF0000FFFFFF00FFFFFF0F00000BBBBBF000000FFFFFFFFFFFFF0999999F
1004
BBBB999999FFFFFFFFFFFFFF0FFFFFF0BBB9FFFFFF0FFFFFFFFFFFFF0FFFFFF0BBB9FFFFFF0FFFFFFFFFFFFF0FFFFFF0BBB9FFFFFF0FFFFFFFFFFFFF0FFFFFF0BBB9FFFFFF0FFFFFFFFFFFFF0FFFFFF0BBB9FFFFFF0FFFFFFFFFFFFF0FFFFFF0BBB9FFFFFF0FFFFFFFFFFFFF0FFFFFF0BBB9FFFFFF0FFFFFFFFFFFFF0FFFFF
1004
F0BBB9FFFFFF0FFFFFFFFFFFFF0FFFFFF0BBB9FFFFFF0FFFFFFFFFFFFF0FFFFFF0BBB9FFFFFF0FFFFFFFFFFFFF0FFFFFF0BBB9FFFFFF0FFFFFFFFFFFFF0FFFFFF0BBB9FFFFFF0FFFFFFFFFFFFF0FFFFFF0BBB9FFFFFF0FFFFFFFFFFFFF0FFFFFF0BBB9FFFFFF0FFFFFFFFFFFFF0FFFFFF0BBB9FFFFFF0FFFFFFFFFFFFF0FFF
1004
FFF0BBB9FFFFFF0FFFFFFFFFFFFF0FFFFFF0BBB9FFFFFF0FFFFFFFFFFFFF0FFFFFF0BBB9FFFFFF0FFFFFFFFFFFFF0FFFFFF0BBB9FFFFFF0FFFFFFFFFFFFF0FFFFFF0BBB9FFFFFF0FFFFFFFFFFFFF0FFFFFF0BBB9FFFFFF0FFFFFFFFFFFFF0FFFFFF0BBB9FFFFFF0FFFFFFFFFFFFF0FFFFFF0BBB9FFFFFF0FFFFFFFFFFFFF0F
1004
FFFFF0BBB9FFFFFF0FFFFFFFFFFFFF0FFFFFF0BBB9FFFFFF0FFFFFFFFFFFFF0FFFFFF0BBB9FFFFFF0FFFFFFFFFFFFF0FFFFFF0BBB9FFFFFF0FFFFFFFFFFFFF0FFFFFF0BBB9FFFFFF0FFFFFFFFFFFFF9FFFFFF0BBBBFFFFFF0FFFFFFFFFFFFF0000000BBBBB9999990FFFFFFF
  0
BLOCK_RECORD
  5
165
100
AcDbSymbolTableRecord
100
AcDbBlockTableRecord
  2
SP955024-585-10
1001
CONTENTBLOCKICON
1071
        0
1004
2800000020000000200000000100040000000000000200000000000000000000000000000000000000000000000080000080000000808000800000008000800080800000C0C0C000808080000000FF0000FF000000FFFF00FF000000FF00FF00FFFF0000FFFFFF00FFFFFFFF0F0000BBBB000000FFFFFFFFFFFFFFFF999999
1004
BBBB999990FFFFFFFFFFFFFFFF9FFFF90BB0FFFF90FFFFFFFFFFFFFFFF9FFFF90BB0FFFF90FFFFFFFFFFFFFFFF9FFFF90BB0FFFF90FFFFFFFFFFFFFFFF9FFFF90BB0FFFF90FFFFFFFFFFFFFFFF9FFFF90BB0FFFF90FFFFFFFFFFFFFFFF9FFFF90BB0FFFF90FFFFFFFFFFFFFFFF9FFFF90BB0FFFF90FFFFFFFFFFFFFFFF9FFF
1004
F90BB0FFFF90FFFFFFFFFFFFFFFF9FFFF90BB0FFFF90FFFFFFFFFFFFFFFF9FFFF90BB0FFFF90FFFFFFFFFFFFFFFF9FFFF90BB0FFFF90FFFFFFFFFFFFFFFF9FFFF90BB0FFFF90FFFFFFFFFFFFFFFF9FFFF90BB0FFFF90FFFFFFFFFFFFFFFF9FFFF90BB0FFFF90FFFFFFFFFFFFFFFF9FFFF90BB0FFFF90FFFFFFFFFFFFFFFF9F
1004
FFF90BB0FFFF90FFFFFFFFFFFFFFFF9FFFF90BB0FFFF90FFFFFFFFFFFFFFFF9FFFF90BB0FFFF90FFFFFFFFFFFFFFFF9FFFF90BB0FFFF90FFFFFFFFFFFFFFFF9FFFF90BB0FFFF90FFFFFFFFFFFFFFFF9FFFF90BB0FFFF90FFFFFFFFFFFFFFFF9FFFF90BB0FFFF90FFFFFFFFFFFFFFFF9FFFF90BBBFFFF90FFFFFFFFFFFFFFFF
1004
999999BBBB999990FFFFFFFFFFFFFFFF90FFFFFFFFFFFF90FFFFFFFFFFFFFFFF90FFFFFFFFFFFF90FFFFFFFFFFFFFFFF90FFFFFFFFFFFF90FFFFFFFFFFFFFFFF90FFFFFFFFFFFF90FFFFFFFFFFFFFFFF90FFFFFFFFFFFF90FFFFFFFFFFFFFFFF90FFFFFFFFFFFF90FFFFFFFF
  0
BLOCK_RECORD
  5
149
100
AcDbSymbolTableRecord
100
AcDbBlockTableRecord
  2
SP955012-585-10
1001
CONTENTBLOCKICON
1071
        0
1004
2800000020000000200000000100040000000000000200000000000000000000000000000000000000000000000080000080000000808000800000008000800080800000C0C0C000808080000000FF0000FF000000FFFF00FF000000FF00FF00FFFF0000FFFFFF00FFFFFFFFF00FFFFFFFFFFFFFFFFFFFFFFFFFFFFFF00FFF
1004
FFFFFFFFFFFFFFFFFFFFFFFFFFF00FFFFFFFFFFFFFFFFFFFFFFFFFFFFFF00FFFFFFFFFFFFFFFFFFFFFFFFFFFFFF00FFFFFFFFFFFFFFFFFFFFFFFFFFFFFF00000BBB00000FFFFFFFFFFFFFFFFFFF0FFFF0B9FFFF0FFFFFFFFFFFFFFFFFFF0FFFF0B9FFFF0FFFFFFFFFFFFFFFFFFF0FFFF0B9FFFF0FFFFFFFFFFFFFFFFFFF0FF
1004
FF0B9FFFF0FFFFFFFFFFFFFFFFFFF0FFFF0B9FFFF0FFFFFFFFFFFFFFFFFFF0FFFF0B9FFFF0FFFFFFFFFFFFFFFFFFF0FFFF0B9FFFF0FFFFFFFFFFFFFFFFFFF0FFFF0B9FFFF0FFFFFFFFFFFFFFFFFFF0FFFF0B9FFFF0FFFFFFFFFFFFFFFFFFF0FFFF0B9FFFF0FFFFFFFFFFFFFFFFFFF0FFFF0B9FFFF0FFFFFFFFFFFFFFFFFFF0
1004
FFFF0B9FFFF0FFFFFFFFFFFFFFFFFFF0FFFF0B9FFFF0FFFFFFFFFFFFFFFFFFF0FFFF0B9FFFF0FFFFFFFFFFFFFFFFFFF0FFFF0B9FFFF0FFFFFFFFFFFFFFFFFFF0FFFF0B9FFFF0FFFFFFFFFFFFFFFFFFF0FFFF0B9FFFF0FFFFFFFFFFFFFFFFFFF0FFFF0B9FFFBBFFFFFFFFFFFFFFFFFFF0FFFF0B9FBBBFFFFFFFFFFFFFFFFFFF
1004
F0FFFF0B99BBBFFFFFFFFFFFFFFFFFFFF00000BBB099BFFFFFFFFFFFFFFFFFFFF00FFFFFFFFFFFFFFFFFFFFFFFFFFFFFF00FFFFFFFFFFFFFFFFFFFFFFFFFFFFFF00FFFFFFFFFFFFFFFFFFFFFFFFFFFFFF00FFFFFFFFFFFFFFFFFFFFFFFFFFFFFF00FFFFFFFFFFFFFFFFFFFFF
  0
BLOCK_RECORD
  5
157
100
AcDbSymbolTableRecord
100
AcDbBlockTableRecord
  2
SP955021-585-10
1001
CONTENTBLOCKICON
1071
        0
1004
2800000020000000200000000100040000000000000200000000000000000000000000000000000000000000000080000080000000808000800000008000800080800000C0C0C000808080000000FF0000FF000000FFFF00FF000000FF00FF00FFFF0000FFFFFF00FFFFFFFF0F0000BBBB000000FFFFFFFFFFFFFFFF999999
1004
BBBB99999FFFFFFFFFFFFFFFFF9FFFF90BB0FFFF90FFFFFFFFFFFFFFFF9FFFF90BB0FFFF90FFFFFFFFFFFFFFFF9FFFF90BB0FFFF90FFFFFFFFFFFFFFFF9FFFF90BB0FFFF90FFFFFFFFFFFFFFFF9FFFF90BB0FFFF90FFFFFFFFFFFFFFFF9FFFF90BB0FFFF90FFFFFFFFFFFFFFFF9FFFF90BB0FFFF90FFFFFFFFFFFFFFFF9FFF
1004
F90BB0FFFF90FFFFFFFFFFFFFFFF9FFFF90BB0FFFF90FFFFFFFFFFFFFFFF9FFFF90BB0FFFF90FFFFFFFFFFFFFFFF9FFFF90BB0FFFF90FFFFFFFFFFFFFFFF9FFFF90BB0FFFF90FFFFFFFFFFFFFFFF9FFFF90BB0FFFF90FFFFFFFFFFFFFFFF9FFFF90BB0FFFF90FFFFFFFFFFFFFFFF9FFFF90BB0FFFF90FFFFFFFFFFFFFFFF9F
1004
FFF90BB0FFFF90FFFFFFFFFFFFFFFF9FFFF90BB0FFFF90FFFFFFFFFFFFFFFF9FFFF90BB0FFFF90FFFFFFFFFFFFFFFF9FFFF90BB0FFFF90FFFFFFFFFFFFFFFF9FFFF90BB0FFFF90FFFFFFFFFFFFFFFF9FFFF90BB0FFFF90FFFFFFFFFFFFFFFF9FFFF90BB0FFFF90FFFFFFFFFFFFFFFF9FFFF90BBBFFFF90FFFFFFFFFFFFFFFF
1004
999999BBBB999990FFFFFFFFFFFFFFFF90FFFFFFFFFFFFFFFFFFFFFFFFFFFFFF90FFFFFFFFFFFFFFFFFFFFFFFFFFFFFF90FFFFFFFFFFFFFFFFFFFFFFFFFFFFFF90FFFFFFFFFFFFFFFFFFFFFFFFFFFFFF90FFFFFFFFFFFFFFFFFFFFFFFFFFFFFF90FFFFFFFFFFFFFFFFFFFFFF
  0
BLOCK_RECORD
  5
33
100
AcDbSymbolTableRecord
100
AcDbBlockTableRecord
  2
SP955025-585-10
1001
CONTENTBLOCKICON
1071
        0
1004
2800000020000000200000000100040000000000000200000000000000000000000000000000000000000000000080000080000000808000800000008000800080800000C0C0C000808080000000FF0000FF000000FFFF00FF000000FF00FF00FFFF0000FFFFFF00FFFFFFFFF00FFFFFFFFFFFFFFFFFFFFFFFFFFFFFF00FFF
1004
FFFFFFFFFFFFFFFFFFFFFFFFFFF00FFFFFFFFFFFFFFFFFFFFFFFFFFFFFF00FFFFFFFFFFFFFFFFFFFFFFFFFFFFFF00FFFFFFFFFFFFFFFFFFFFFFFFFFFFFF00000BBB00000FFFFFFFFFFFFFFFFFFF0FFFF0B0FFFF0FFFFFFFFFFFFFFFFFFF0FFFF0B0FFFF0FFFFFFFFFFFFFFFFFFF0FFFF0B0FFFF0FFFFFFFFFFFFFFFFFFF0FF
1004
FF0B0FFFF0FFFFFFFFFFFFFFFFFFF0FFFF0B0FFFF0FFFFFFFFFFFFFFFFFFF0FFFF0B0FFFF0FFFFFFFFFFFFFFFFFFF0FFFF0B0FFFF0FFFFFFFFFFFFFFFFFFF0FFFF0B0FFFF0FFFFFFFFFFFFFFFFFFF0FFFF0B0FFFF0FFFFFFFFFFFFFFFFFFF0FFFF0B0FFFF0FFFFFFFFFFFFFFFFFFF0FFFF0B0FFFF0FFFFFFFFFFFFFFFFFFF0
1004
FFFF0B0FFFF0FFFFFFFFFFFFFFFFFFF0FFFF0B0FFFF0FFFFFFFFFFFFFFFFFFF0FFFF0B0FFFF0FFFFFFFFFFFFFFFFFFF0FFFF0B0FFFF0FFFFFFFFFFFFFFFFFFF0FFFF0B0FFFF0FFFFFFFFFFFFFFFFFFF0FFFF0B0FFFF0FFFFFFFFFFFFFFFFFFF0FFFF0B0FFFF0FFFFFFFFFFFFFFFFFFF0FFFF0B0FFFF0FFFFFFFFFFFFFFFFFF
1004
F0FFFF0B0FFFF0FFFFFFFFFFFFFFFFFFF00000BBB00000FFFFFFFFFFFFFFFFFFF00FFFFFFFFFF0FFFFFFFFFFFFFFFFFFF00FFFFFFFFFF0FFFFFFFFFFFFFFFFFFF00FFFFFFFFFF0FFFFFFFFFFFFFFFFFFF00FFFFFFFFFF0FFFFFFFFFFFFFFFFFFF00FFFFFFFFFF0FFFFFFFFFF
  0
BLOCK_RECORD
  5
11A
100
AcDbSymbolTableRecord
100
AcDbBlockTableRecord
  2
SP955013-585-10
1001
CONTENTBLOCKICON
1071
        0
1004
2800000020000000200000000100040000000000000200000000000000000000000000000000000000000000000080000080000000808000800000008000800080800000C0C0C000808080000000FF0000FF000000FFFF00FF000000FF00FF00FFFF0000FFFFFF00FFFFFFFFFFFFFFFFFFFFF0FFFFFFFFFFFFFFFFFFFFFFFF
1004
FFFFFFF00FFFFFFFFFFFFFFFFFFFFFFFFFFFFFF00FFFFFFFFFFFFFFFFFFFFFFFFFFFFFF00FFFFFFFFFFFFFFFFFFFFFFFFFFFFFF00FFFFFFFFFFFFFFFFFF0F000BBBB00000FFFFFFFFFFFFFFFFFF0FFFFBBB0FFF00FFFFFFFFFFFFFFFFFF0FFFFBBB0FFF00FFFFFFFFFFFFFFFFFF0FFFF0BB0FFF0FFFFFFFFFFFFFFFFFFF0FF
1004
FFBBB0FFF0FFFFFFFFFFFFFFFFFFF0FFFFBBB0FFF0FFFFFFFFFFFFFFFFFFF0FFFFBBB0FFF0FFFFFFFFFFFFFFFFFFF0FFFFBBB0FFF0FFFFFFFFFFFFFFFFFFF0FFFFBBB0FFF0FFFFFFFFFFFFFFFFFFF0FFFF0BB0FFF0FFFFFFFFFFFFFFFFFFF0FFFFBBB0FFF0FFFFFFFFFFFFFFFFFFF0FFFFBBB0FFF0FFFFFFFFFFFFFFFFFFF0
1004
FFFFBBB0FFF0FFFFFFFFFFFFFFFFFFF0FFFFBBB0FFF0FFFFFFFFFFFFFFFFFFF0FFFF0BB0FFF0FFFFFFFFFFFFFFFFFFF0FFFFBBB0FFF0FFFFFFFFFFFFFFFFFFF0FFFFBBB0FFF0FFFFFFFFFFFFFFFFFFF0FFFFBBB0FFF0FFFFFFFFFFFFFFFFFFF0FFFFBBB0FFBBFFFFFFFFFFFFFFFFFFF0FFFF0BB0BBBFFFFFFFFFFFFFFFFFFF
1004
F0FFFFBBB9BBBFFFFFFFFFFFFFFFFFFFF00000BBBB99BFFFFFFFFFFFFFFFFFFFF00FFFFFFFFFFFFFFFFFFFFFFFFFFFFFF00FFFFFFFFFFFFFFFFFFFFFFFFFFFFFF00FFFFFFFFFFFFFFFFFFFFFFFFFFFFFF90FFFFFFFFFFFFFFFFFFFFFFFFFFFFFF00FFFFFFFFFFFFFFFFFFFFF
  0
BLOCK_RECORD
  5
13E
100
AcDbSymbolTableRecord
100
AcDbBlockTableRecord
  2
SP955022-585-10
1001
CONTENTBLOCKICON
1071
        0
1004
2800000020000000200000000100040000000000000200000000000000000000000000000000000000000000000080000080000000808000800000008000800080800000C0C0C000808080000000FF0000FF000000FFFF00FF000000FF00FF00FFFF0000FFFFFF00FFFFFFFFF00FFFFFFFFFFFFFFFFFFFFFFFFFFFFFF90FFF
1004
FFFFFFFFFFFFFFFFFFFFFFFFFFF90FFFFFFFFFFFFFFFFFFFFFFFFFFFFFF90FFFFFFFFFFFFFFFFFFFFFFFFFFFFFF90FFFFFFFFFFFFFFFFFFFFFFFFFFFFFF90000BBB00000FFFFFFFFFFFFFFFFFFF9FFFFBB0FFFF0FFFFFFFFFFFFFFFFFFF9FFFFBB0FFFF0FFFFFFFFFFFFFFFFFFF9FFFF0B0FFFF0FFFFFFFFFFFFFFFFFFF9FF
1004
FFBB0FFFF0FFFFFFFFFFFFFFFFFFF9FFFFBB0FFFF0FFFFFFFFFFFFFFFFFFF9FFFFBB0FFFF0FFFFFFFFFFFFFFFFFFF9FFFFBB0FFFF0FFFFFFFFFFFFFFFFFFF9FFFF0B0FFFF0FFFFFFFFFFFFFFFFFFF9FFFFBB0FFFF0FFFFFFFFFFFFFFFFFFF9FFFFBB0FFFF0FFFFFFFFFFFFFFFFFFF9FFFFBB0FFFF0FFFFFFFFFFFFFFFFFFF9
1004
FFFFBB0FFFF0FFFFFFFFFFFFFFFFFFF9FFFFBB0FFFF0FFFFFFFFFFFFFFFFFFF9FFFF0B0FFFF0FFFFFFFFFFFFFFFFFFF9FFFFBB0FFFF0FFFFFFFFFFFFFFFFFFF9FFFFBB0FFFF0FFFFFFFFFFFFFFFFFFF9FFFFBB0FFFF0FFFFFFFFFFFFFFFFFFF9FFFFBB0FFFF0FFFFFFFFFFFFFFFFFFF9FFFF0B0FFFF0FFFFFFFFFFFFFFFFFF
1004
F9FFFFBB0FFFF0FFFFFFFFFFFFFFFFFFF90000BBB00000FFFFFFFFFFFFFFFFFFF90FFFFFFFFFFFFFFFFFFFFFFFFFFFFFF90FFFFFFFFFFFFFFFFFFFFFFFFFFFFFF90FFFFFFFFFFFFFFFFFFFFFFFFFFFFFF90FFFFFFFFFFFFFFFFFFFFFFFFFFFFFF90FFFFFFFFFFFFFFFFFFFFF
  0
BLOCK_RECORD
  5
1C8
100
AcDbSymbolTableRecord
100
AcDbBlockTableRecord
  2
955010-550-10
1001
CONTENTBLOCKICON
1071
        0
1004
2800000020000000200000000100040000000000000200000000000000000000000000000000000000000000000080000080000000808000800000008000800080800000C0C0C000808080000000FF0000FF000000FFFF00FF000000FF00FF00FFFF0000FFFFFF00FFFFFFFFFFFFFFFFFFFFFFFFFFFFFFFFFF0000000000BB
1004
BBBBBFF000000000FF0999999999990FBBFBB999999999990F9FFFFFFFFFF90FBBFB99FFFFFFFFF9909FFFFFFFFFF90BBBBB99FFFFFFFFF9909FFFFFFFFFF90FBBFB99FFFFFFFFF9909FFFFFFFFFF90FBBFB99FFFFFFFFF9909FFFFFFFFFF90BBBBB99FFFFFFFFF9909FFFFFFFFFF90FBBFB99FFFFFFFFF9909FFFFFFFFFF9
1004
0FBBFB99FFFFFFFFF9909FFFFFFFFFF90BBBBB99FFFFFFFFF9909FFFFFFFFFF90FBBFB99FFFFFFFFF9909FFFFFFFFFF90FBBFB99FFFFFFFFF9909FFFFFFFFFF90BBBBB99FFFFFFFFF9909FFFFFFFFFF90FBBFB99FFFFFFFFF9909FFFFFFFFFF90FBBFB99FFFFFFFFF9909FFFFFFFFFF90BBBBB99FFFFFFFFF9909FFFFFFFFF
1004
F90FBBFB99FFFFFFFFF9909FFFFFFFFFF90FBBFB99FFFFFFFFF9909FFFFFFFFFF90BBBBB99FFFFFFFFF9909FFFFFFFFFF90FBBFB99FFFFFFFFF9909FFFFFFFFFF90FBBFB99FFFFFFFFF9909FFFFFFFFFF90BBBBB99FFFFFFFFF99F9FFFFFFFFFF90FBBFB99FFFFFFFF990F9FFFFFFFFFF90FBBFB99FFFFFFF900FF9FFFFFFF
1004
FFF90BBBBB99FFFFFF90BFFF9FFFFFFFFFF90FBBFB99F9999F9BBFFF9FFFFFFFFFF90FBBFB99F90BB9BBBFFF9FFFFFFFFFF90BBFBB99F90BBBBBBFFF9FFFFFFFFFF90FBBFB99F90BBBBFBFFF9FFFFFFFFFF90FBBFBB9F999999BFFFFF99999999999BBBFBBB999999990FFFF
  0
BLOCK_RECORD
  5
1D3
100
AcDbSymbolTableRecord
100
AcDbBlockTableRecord
  2
*X18
  0
BLOCK_RECORD
  5
251
100
AcDbSymbolTableRecord
100
AcDbBlockTableRecord
  2
HATCH
1001
CONTENTBLOCKICON
1071
        0
1004
2800000020000000200000000100040000000000000200000000000000000000000000000000000000000000000080000080000000808000800000008000800080800000C0C0C000808080000000FF0000FF000000FFFF00FF000000FF00FF00FFFF0000FFFFFF00FFFFFFFFFFFFFFBBFBBFFFFFFFFFFFFFFFFFFFFFFFFFFF
1004
BBFBFFFFFFFFFFFFFFFFFFFFFFFFFFFFBBFBBFFFFFFFFFFFFFFFFFFFFFFFFFBFBBFBBFFFFFFFFFFFFFFFFFFFFFFFFFFFBBFBFFFFFFFFFFFFFFFFFFFFFFFFFFFFBBFBBFFFFFFFFFFFFFFFFFFFFFFFFFBFBBFBBFFFFFFFFFFFFFFFFFFFFFFFFFFFBBFBFFFFFFFFFFFFFFFFFFFFFFFFFFFFBBFBBFFFFFFFFFFFFFFFFFFFFFFFFF
1004
BFBBFBBFFFFFFFFFFFFFFFFFFFFFFFFFFFBBFBFFFFFFFFFFFFFFFFFFFFFFFFFFFFBBFBBFFFFFFFFFFFFFFFFFFFFFFFFFBFBBFBBFFFFFFFFFFFFFFFFFFFFFFFFFFFBBFBFFFFFFFFFFFFFFFFFFFFFFFFFFFFBBFBBFFFFFFFFFFFFFFFFFFFFFFFFFBFBBFBBFFFFFFFFFFFFFFFFFFFFFFFFFFFBBFBFFFFFFFFFFFFFFFFFFFFFFFF
1004
FFFFBBFBBFFFFFFFFFFFFFFFFFFFFFFFFFBFBBFBFFFFFFFFFFFFFFFFFFFFFFFFFFFFBBFBBFFFFFFFFFFFFFFFFFFFFFFFFFFFBBFBBFFFFFFFFFFFFFFFFFFFFFFFFFBFBBFBFFFFFFFFFFFFFFFFFFFFFFFFFFFFBBFBBFFFFFFFFFFFFFFFFFFFFFFFFFFFBBFBBFFFFFFFFFFFFFFFFFFFFFFFFFFFFFFFFFFFFFFFFFFFFFFFFFFFFF
1004
FFFFBFBBFBBFFFFFFFFFFFFFFFFFFFFFFFFFFFBBFBBFFFFFFFFFFFFFFFFFFFFFFFFFFFFFFFFFFFFFFFFFFFFFFFFFFFFFFFFFBFBBFBBFFFFFFFFFFFFFFFFFFFFFFFFFFFBBFBBFFFFFFFFFFFFFFFFFFFFFFFFFFFFFFFFFFFFFFFFFFFFFFFFFFFFFFFFFBFBBFBFFFFFFFFFFFFFF
  0
BLOCK_RECORD
  5
255
100
AcDbSymbolTableRecord
100
AcDbBlockTableRecord
  2
*X20
  0
BLOCK_RECORD
  5
28B
100
AcDbSymbolTableRecord
100
AcDbBlockTableRecord
  2
955014-550-10
1001
CONTENTBLOCKICON
1071
        0
1004
2800000020000000200000000100040000000000000200000000000000000000000000000000000000000000000080000080000000808000800000008000800080800000C0C0C000808080000000FF0000FF000000FFFF00FF000000FF00FF00FFFF0000FFFFFF00FFFF000FFFFFFFFFFFFFFFFFFFFFFFFFFFFF990FFFFFFF
1004
FFFFFFFFFFFFFFFFFFFFFF990FFFFFFFFFFFFFFFFFFFFFFFFFFFFF990FFFFFFFFFFFFFFFFFFFFFFFFFFFFF990FFFFFFFFFFFFFFFFFFFFFFFFFFFFF990FFFFFFFFFFFFFFFFFFFFFFFFFFFFF990FFFFFFFFFFFFFFFFFFFFFFFFFFFFF990FFFFFFFFFFFFFFFFFFFFFFFFFFFFF990FFFFFFFFFFFFFFFFFFFFFFFFFFFFF99000000
1004
0BBBBB000000000FFFFFFFFF9F99999990BBBB99999999FFFFFFFFFF9FFFFFFF90BBB9FFFFFFF90FFFFFFFFF9FFFFFFF90BBB9FFFFFFF90FFFFFFFFF9FFFFFFF90BBB9FFFFFFF90FFFFFFFFF9FFFFFFF90BBB9FFFFFFF90FFFFFFFFF9FFFFFFF90BBB9FFFFFFF90FFFFFFFFF9FFFFFFF90BBB9FFFFFFF90FFFFFFFFF9FFFFF
1004
FF90BBB9FFFFFFF90FFFFFFFFF9FFFFFFF90BBB9FFFFFFF90FFFFFFFFF9FFFFFFF90BBB9FFFFFFF90FFFFFFFFF9FFFFFFF90BBB9FFFFFFF90FFFFFFFFF9FFFFFFF90BBB9FFFFFFF90FFFFFFFFF9FFFFFFF90BBB9FFFFFFF90FFFFFFFFF9FFFFFFF90BBB9FFFFFFF90FFFFFFFFF9FFFFFFF90BBB9FFFFFFF90FFFFFFFFF9FFF
1004
FFFF90BBB9FFFFF9990FFFFFFFFF9FFFFFFF90BBB9FFFFF9BBFFFFFFFFFF9FFFFFFF90BBB9F99BF9BBFFFFFFFFFF9FFFFFFF90BBB9F9BBBBBFFFFFFFFFFF9FFFFFFF90BBB9F9BBBBBFFFFFFFFFFF9FFFFFFF90BBBBF9999BBFFFFFFFFFFF999999999BBBBB999990FFFFFFFF
  0
BLOCK_RECORD
  5
296
100
AcDbSymbolTableRecord
100
AcDbBlockTableRecord
  2
955022-550-10
1001
CONTENTBLOCKICON
1071
        0
1004
2800000020000000200000000100040000000000000200000000000000000000000000000000000000000000000080000080000000808000800000008000800080800000C0C0C000808080000000FF0000FF000000FFFF00FF000000FF00FF00FFFF0000FFFFFF00FFFFFFF00FFFFFFFFFFFFFFFFFFFFFFFFFFFFFF90FFFFF
1004
FFFFFFFFFFFFFFFFFFFFFFFFF90FFFFFFFFFFFFFFFFFFFFFFFFFFFFFF90FFFFFFFFFFFFFFFFFFFFFFFFFFFFFF90FFFFFFFFFFFFFFFFFFFFFFFFFFFFFF90FFFFFFFFFFFFFFFFFFFFFFFFFFFFFF90FFFFFFFFFFFFFFFFFFFFFFFFFFFFFF9000000BBBB0000000FFFFFFFFFFFFFF99999990BBB999999FFFFFFFFFFFFFFF9FFFF
1004
F90BB9FFFFFF0FFFFFFFFFFFFFF9FFFFF90BB9FFFFFF0FFFFFFFFFFFFFF9FFFFF90BB9FFFFFF0FFFFFFFFFFFFFF9FFFFF90BB9FFFFFF0FFFFFFFFFFFFFF9FFFFF90BB9FFFFFF0FFFFFFFFFFFFFF9FFFFF90BB9FFFFFF0FFFFFFFFFFFFFF9FFFFF90BB9FFFFFF0FFFFFFFFFFFFFF9FFFFF90BB9FFFFFF0FFFFFFFFFFFFFF9FF
1004
FFF90BB9FFFFFF0FFFFFFFFFFFFFF9FFFFF90BB9FFFFFF0FFFFFFFFFFFFFF9FFFFF90BB9FFFFFF0FFFFFFFFFFFFFF9FFFFF90BB9FFFFFF0FFFFFFFFFFFFFF9FFFFF90BB9FFFFFF0FFFFFFFFFFFFFF9FFFFF90BB9FFFFFF0FFFFFFFFFFFFFF9FFFFF90BBBFFFFFF0FFFFFFFFFFFFFF9999999BBBB9999990FFFFFFFFFFFFFF9
1004
0FFFFFFFFFFFFFFFFFFFFFFFFFFFFFF90FFFFFFFFFFFFFFFFFFFFFFFFFFFFFF90FFFFFFFFFFFFFFFFFFFFFFFFFFFFFF90FFFFFFFFFFFFFFFFFFFFFFFFFFFFFF90FFFFFFFFFFFFFFFFFFFFFFFFFFFFFF90FFFFFFFFFFFFFFFFFFFFFFFFFFFFFF90FFFFFFFFFFFFFFFFFFFFFFF
  0
BLOCK_RECORD
  5
2A0
100
AcDbSymbolTableRecord
100
AcDbBlockTableRecord
  2
955011-550-10
1001
CONTENTBLOCKICON
1071
        0
1004
2800000020000000200000000100040000000000000200000000000000000000000000000000000000000000000080000080000000808000800000008000800080800000C0C0C000808080000000FF0000FF000000FFFF00FF000000FF00FF00FFFF0000FFFFFF00FFFF0F0000000BBBBB000000000FFFFFFFFF099999999F
1004
BBBB99999999FFFFFFFFFF0FFFFFFF9BBBB9FFFFFFF90FFFFFFFFF0FFFFFFF90BBB9FFFFFFF90FFFFFFFFF0FFFFFFF9BBBB9FFFFFFF90FFFFFFFFF0FFFFFFF90BBB9FFFFFFF90FFFFFFFFF0FFFFFFF90BBB9FFFFFFF90FFFFFFFFF0FFFFFFF9BBBB9FFFFFFF90FFFFFFFFF0FFFFFFF90BBB9FFFFFFF90FFFFFFFFF0FFFFFFF
1004
9BBBB9FFFFFFF90FFFFFFFFF0FFFFFFF90BBB9FFFFFFF90FFFFFFFFF0FFFFFFF9BBBB9FFFFFFF90FFFFFFFFF0FFFFFFF90BBB9FFFFFFF90FFFFFFFFF0FFFFFFF9BBBB9FFFFFFF90FFFFFFFFF0FFFFFFF90BBB9FFFFFFF90FFFFFFFFF0FFFFFFF9BBBB9FFFFFFF90FFFFFFFFF0FFFFFFF90BBB9FFFFFF990FFFFFFFFF0FFFFF
1004
FF9BBBB9FFFFF90FFFFFFFFFFF0FFFFFFF90BBB9FFF0F9BBFFFFFFFFFF0FFFFFFF90BBB9F90BBBBFFFFFFFFFFF0FFFFFFF9BBBB9F9BBBBBFFFFFFFFFFF0FFFFFFF90BBBBF9999BBFFFFFFFFFFF090000009BBBBB999990FFFFFFFFFFFF090FFFFFFFFFFFFFFFFFFFFFFFFFFFFF090FFFFFFFFFFFFFFFFFFFFFFFFFFFFF090F
1004
FFFFFFFFFFFFFFFFFFFFFFFFFFFF090FFFFFFFFFFFFFFFFFFFFFFFFFFFFF090FFFFFFFFFFFFFFFFFFFFFFFFFFFFF090FFFFFFFFFFFFFFFFFFFFFFFFFFFFF090FFFFFFFFFFFFFFFFFFFFFFFFFFFFF990FFFFFFFFFFFFFFFFFFFFFFFFFFFFF000FFFFFFFFFFFFFFFFFFFFFFFFF
  0
BLOCK_RECORD
  5
2AB
100
AcDbSymbolTableRecord
100
AcDbBlockTableRecord
  2
955015-550-10
1001
CONTENTBLOCKICON
1071
        0
1004
2800000020000000200000000100040000000000000200000000000000000000000000000000000000000000000080000080000000808000800000008000800080800000C0C0C000808080000000FF0000FF000000FFFF00FF000000FF00FF00FFFF0000FFFFFF00FFFFFFFFFFFFFFFFFFFFFFFFF00FFFFFFFFFFFFFFFFFFF
1004
FFFFFFFFFF99FFFFFFFFFFFFFFFFFFFFFFFFFFFFFF990FFFFFFFFFFFFFFFFFFFFFFFFFFFFF990FFFFFFFFFFFFFFFFFFFFFFFFFFFFF990FFFFFFFFFFFFFFFFFFFFFFFFFFFFF990FFFFFFFFFFFFFFFFFFFFFFFFFFFFF990FFFFFFFFFFFFFFFFFFFFFFFFFFFFF990FFFFFFFFFFFFFFFFFFFFFFFFFFFFF990FFFFFFFFF0F000000
1004
0BBBBB000000990FFFFFFFFF999999999FBBBB999999F90FFFFFFFFF9FFFFFFF90BBB9FFFFFFF90FFFFFFFFF9FFFFFFF90BBB9FFFFFFF90FFFFFFFFF9FFFFFFF90BBB9FFFFFFF90FFFFFFFFF9FFFFFFF90BBB9FFFFFFF90FFFFFFFFF9FFFFFFF90BBB9FFFFFFF90FFFFFFFFF9FFFFFFF90BBB9FFFFFFF90FFFFFFFFF9FFFFF
1004
FF90BBB9FFFFFFF90FFFFFFFFF9FFFFFFF90BBB9FFFFFFF90FFFFFFFFF9FFFFFFF90BBB9FFFFFFF90FFFFFFFFF9FFFFFFF90BBB9FFFFFFF90FFFFFFFFF9FFFFFFF90BBB9FFFFFFF90FFFFFFFFF9FFFFFFF90BBB9FFFFFFF90FFFFFFFFF9FFFFFFF90BBB9FFFFFFF90FFFFFFFFF9FFFFFFF90BBB9FFFFFFF90FFFFFFFFF9FFF
1004
FFFF90BBB9FFFFF9990FFFFFFFFF9FFFFFFF90BBB9FFFFF9BBFFFFFFFFFF9FFFFFFF90BBB9F99BF9BBFFFFFFFFFF9FFFFFFF90BBB9F9BBBBBFFFFFFFFFFF9FFFFFFF90BBB9F9BBBBBFFFFFFFFFFF9FFFFFFF90BBBBF9999BBFFFFFFFFFFF999999999BBBBB999990FFFFFFFF
  0
BLOCK_RECORD
  5
2B6
100
AcDbSymbolTableRecord
100
AcDbBlockTableRecord
  2
955023-550-10
1001
CONTENTBLOCKICON
1071
        0
1004
2800000020000000200000000100040000000000000200000000000000000000000000000000000000000000000080000080000000808000800000008000800080800000C0C0C000808080000000FF0000FF000000FFFF00FF000000FF00FF00FFFF0000FFFFFF00FFFFFFFFFFFFFFFFFFFFFFF00FFFFFFFFFFFFFFFFFFFFF
1004
FFFFFFFFF0FFFFFFFFFFFFFFFFFFFFFFFFFFFFFFF00FFFFFFFFFFFFFFFFFFFFFFFFFFFFFF00FFFFFFFFFFFFFFFFFFFFFFFFFFFFFF00FFFFFFFFFFFFFFFFFFFFFFFFFFFFFF00FFFFFFFFFFFFFFFFFFFFFFFFFFFFFF00FFFFFFFFFFFFFF0F00000BBBB0000000FFFFFFFFFFFFFF0999999FBBB99999F0FFFFFFFFFFFFFF0FFFF
1004
F9BBBBFFFFFF0FFFFFFFFFFFFFF0FFFFF9BBBBFFFFFF0FFFFFFFFFFFFFF0FFFFF90BBBFFFFFF0FFFFFFFFFFFFFF0FFFFF9BBBBFFFFFF0FFFFFFFFFFFFFF0FFFFF90BBBFFFFFF0FFFFFFFFFFFFFF0FFFFF9BBBBFFFFFF0FFFFFFFFFFFFFF0FFFFF9BBBBFFFFFF0FFFFFFFFFFFFFF0FFFFF90BBBFFFFFF0FFFFFFFFFFFFFF0FF
1004
FFF9BBBBFFFFFF0FFFFFFFFFFFFFF0FFFFF90BBBFFFFFF0FFFFFFFFFFFFFF0FFFFF9BBBBFFFFFF0FFFFFFFFFFFFFF0FFFFF9BBBBFFFFFF0FFFFFFFFFFFFFF0FFFFF90BBBFFFFFF0FFFFFFFFFFFFFF0FFFFF9BBBBFFFFFF0FFFFFFFFFFFFFF0FFFFF90BBBFFFFFF0FFFFFFFFFFFFFF0000009BBBB0000000FFFFFFFFFFFFFF0
1004
0FFFFFFFFFFFFFFFFFFFFFFFFFFFFFF00FFFFFFFFFFFFFFFFFFFFFFFFFFFFFF00FFFFFFFFFFFFFFFFFFFFFFFFFFFFFF00FFFFFFFFFFFFFFFFFFFFFFFFFFFFFF00FFFFFFFFFFFFFFFFFFFFFFFFFFFFFF90FFFFFFFFFFFFFFFFFFFFFFFFFFFFFF00FFFFFFFFFFFFFFFFFFFFFFF
  0
BLOCK_RECORD
  5
2C0
100
AcDbSymbolTableRecord
100
AcDbBlockTableRecord
  2
955012-550-10
1001
CONTENTBLOCKICON
1071
        0
1004
2800000020000000200000000100040000000000000200000000000000000000000000000000000000000000000080000080000000808000800000008000800080800000C0C0C000808080000000FF0000FF000000FFFF00FF000000FF00FF00FFFF0000FFFFFF00FFFFFFF00FFFFFFFFFFFFFFFFFFFFFFFFFFFFFF00FFFFF
1004
FFFFFFFFFFFFFFFFFFFFFFFFF00FFFFFFFFFFFFFFFFFFFFFFFFFFFFFF00FFFFFFFFFFFFFFFFFFFFFFFFFFFFFF00FFFFFFFFFFFFFFFFFFFFFFFFFFFFFF00FFFFFFFFFFFFFFFFFFFFFFFFFFFFFF00FFFFFFFFFFFFFFFFFFFFFFFFFFFFFF0000000BBBB0000000FFFFFFFFFFFFFF09999990BBB999999FFFFFFFFFFFFFFF0FFFF
1004
F9BBB9FFFFFF0FFFFFFFFFFFFFF0FFFFF9BBB9FFFFFF0FFFFFFFFFFFFFF0FFFFF90BB9FFFFFF0FFFFFFFFFFFFFF0FFFFF9BBB9FFFFFF0FFFFFFFFFFFFFF0FFFFF90BB9FFFFFF0FFFFFFFFFFFFFF0FFFFF9BBB9FFFFFF0FFFFFFFFFFFFFF0FFFFF9BBB9FFFFFF0FFFFFFFFFFFFFF0FFFFF90BB9FFFFFF0FFFFFFFFFFFFFF0FF
1004
FFF9BBB9FFFFFF0FFFFFFFFFFFFFF0FFFFF90BB9FFFFFF0FFFFFFFFFFFFFF0FFFFF9BBB9FFFFF90FFFFFFFFFFFFFF0FFFFF9BBB9FFFF90FFFFFFFFFFFFFFF0FFFFF90BB9F9900BFFFFFFFFFFFFFFF0FFFFF9BBB9F0B90BFFFFFFFFFFFFFFF0FFFFF90BBBF0000BFFFFFFFFFFFFFFF0000000BBBB99990FFFFFFFFFFFFFFFF0
1004
0FFFFFFFFFFFFFFFFFFFFFFFFFFFFFF00FFFFFFFFFFFFFFFFFFFFFFFFFFFFFF00FFFFFFFFFFFFFFFFFFFFFFFFFFFFFF00FFFFFFFFFFFFFFFFFFFFFFFFFFFFFF00FFFFFFFFFFFFFFFFFFFFFFFFFFFFFF00FFFFFFFFFFFFFFFFFFFFFFFFFFFFFF00FFFFFFFFFFFFFFFFFFFFFFF
  0
BLOCK_RECORD
  5
2CB
100
AcDbSymbolTableRecord
100
AcDbBlockTableRecord
  2
955020-550-10
1001
CONTENTBLOCKICON
1071
        0
1004
2800000020000000200000000100040000000000000200000000000000000000000000000000000000000000000080000080000000808000800000008000800080800000C0C0C000808080000000FF0000FF000000FFFF00FF000000FF00FF00FFFF0000FFFFFF00FFFFFFFFFFFFFFFFFFFFFFFFFFFFFFFFFF0000000000BB
1004
BBBBBBF0000000000F0099999999990FBFBBFB99999999990F0FFFFFFFFFF90FBBFBF9FFFFFFFFFF900FFFFFFFFFF90BBFBBF9FFFFFFFFFF900FFFFFFFFFF90FBFBBF9FFFFFFFFFF900FFFFFFFFFF90FBBFBF9FFFFFFFFFF900FFFFFFFFFF90BBFBBF9FFFFFFFFFF900FFFFFFFFFF90FBFBBF9FFFFFFFFFF900FFFFFFFFFF9
1004
0FBBFBF9FFFFFFFFFF900FFFFFFFFFF90BBFBBF9FFFFFFFFFF900FFFFFFFFFF90FBFBBF9FFFFFFFFFF900FFFFFFFFFF90FBBFBF9FFFFFFFFFF900FFFFFFFFFF90BBFBBF9FFFFFFFFFF900FFFFFFFFFF90FBFBBF9FFFFFFFFFF900FFFFFFFFFF90FBBFBF9FFFFFFFFFF900FFFFFFFFFF90BBFBBF9FFFFFFFFFF900FFFFFFFFF
1004
F90FBFBBF9FFFFFFFFFF900FFFFFFFFFF90FBBFBF9FFFFFFFFFF900FFFFFFFFFF90BBFBBF9FFFFFFFFFF900FFFFFFFFFF90FBFBBF9FFFFFFFFFF900FFFFFFFFFF90FBBFBF9FFFFFFFFFF900FFFFFFFFFF90BBFBBF9FFFFFFFFFF900FFFFFFFFFF90FBFBBF9FFFFFFFFFF900FFFFFFFFFF90FBBFBF9FFFFFFFFFF900FFFFFFF
1004
FFF90BBFBBF9FFFFFFFFFF900FFFFFFFFFF90FBFBBF9FFFFFFFFFF900FFFFFFFFFF90FBBFBF9FFFFFFFFFF900FFFFFFFFFF90BBFBBF9FFFFFFFFFF900FFFFFFFFFF90FBFBBF9FFFFFFFFFF900FFFFFFFFFF90FBBFBF9FFFFFFFFFF9090FFFFFFFFF90FFFFFFBFFFFFFFFFF90
  0
BLOCK_RECORD
  5
2D5
100
AcDbSymbolTableRecord
100
AcDbBlockTableRecord
  2
955024-550-10
1001
CONTENTBLOCKICON
1071
        0
1004
2800000020000000200000000100040000000000000200000000000000000000000000000000000000000000000080000080000000808000800000008000800080800000C0C0C000808080000000FF0000FF000000FFFF00FF000000FF00FF00FFFF0000FFFFFF00FFFF0F0000000BBBBB000000000FFFFFFFFF999999999F
1004
BBBB999999990FFFFFFFFF9FFFFFFF90BBBBFFFFFFF90FFFFFFFFF9FFFFFFF90BBBBFFFFFFF90FFFFFFFFF9FFFFFFF90BBB9FFFFFFF90FFFFFFFFF9FFFFFFF90BBBBFFFFFFF90FFFFFFFFF9FFFFFFF90BBBBFFFFFFF90FFFFFFFFF9FFFFFFF90BBBBFFFFFFF90FFFFFFFFF9FFFFFFF90BBBBFFFFFFF90FFFFFFFFF9FFFFFFF
1004
90BBBBFFFFFFF90FFFFFFFFF9FFFFFFF90BBBBFFFFFFF90FFFFFFFFF9FFFFFFF90BBBBFFFFFFF90FFFFFFFFF9FFFFFFF90BBBBFFFFFFF90FFFFFFFFF9FFFFFFF90BBBBFFFFFFF90FFFFFFFFF9FFFFFFF90BBBBFFFFFFF90FFFFFFFFF9FFFFFFF90BBBBFFFFFFF90FFFFFFFFF9FFFFFFF90BBB9FFFFFFF90FFFFFFFFF9FFFFF
1004
FF90BBBBFFFFFFF90FFFFFFFFF9FFFFFFF90BBBBFFFFFFF90FFFFFFFFF9FFFFFFF90BBBBFFFFFFF90FFFFFFFFF9FFFFFFF90BBBBFFFFFFF90FFFFFFFFF9FFFFFFF90BBBBFFFFFFF90FFFFFFFFF999999999BBBBB999999990FFFFFFFFF990FFFFFFFFFFFFFFFFF990FFFFFFFFF990FFFFFFFFFFFFFFFFF990FFFFFFFFF990F
1004
FFFFFFFFFFFFFFFF990FFFFFFFFF990FFFFFFFFFFFFFFFFF990FFFFFFFFF990FFFFFFFFFFFFFFFFF990FFFFFFFFF990FFFFFFFFFFFFFFFFF990FFFFFFFFF990FFFFFFFFFFFFFFFFF990FFFFFFFFF990FFFFFFFFFFFFFFFFF990FFFFFFFFF990FFFFFFFFFFFFFFFFFF90FFFFF
  0
BLOCK_RECORD
  5
2DF
100
AcDbSymbolTableRecord
100
AcDbBlockTableRecord
  2
955020-20-10
1001
CONTENTBLOCKICON
1071
        0
1004
2800000020000000200000000100040000000000000200000000000000000000000000000000000000000000000080000080000000808000800000008000800080800000C0C0C000808080000000FF0000FF000000FFFF00FF000000FF00FF00FFFF0000FFFFFF00FFFFFFFFFFFFFFFFFFFFFFFFFFFFFFFFFFFFFFFFFFFFFF
1004
FFFFFFFFFFFFFFFFFFFFFFFFFFFFFFFFFFFFFFFFFFFFFFFFFFFFFFFFFFFFFFFFFFFFFFFFFFFFFFFFFFFFFFFFFFFFFFFFFFFFFFFFFFFFFFFFFFFFFFFFFFFFFFFFFFFFFFFFFFFFFFFFFFFFFFFFFFFFFFFFFFFFFFFFFFFFFFFFFFFFFFFFFFFFFFFFFFFFFFFFFFFFFFFFFFFFFFFFFFFFFFFFFFFFFFFFFFFFFFFFFFFFFFFFFFFFFF
1004
FFFFFFFFFFFFFFFFFFFFFF0000000000BBBBBBBBF0000000000F0999999999990FBFBBFB99999999990F9FFFFFFFFFF90FBBFBF9FFFFFFFFFF909FFFFFFFFFF90BBFBBF9FFFFFFFFFF909FFFFFFFFFF90FBFBBF9FFFFFFFFFF909FFFFFFFFFF90FBBFBF9FFFFFFFFFF909FFFFFFFFFF90BBFBBF9FFFFFFFFFF909FFFFFFFFF
1004
F90FBFBBF9FFFFFFFFFF909FFFFFFFFFF90FBBFBF9FFFFFFFFFF909FFFFFFFFFF90BBFBBF9FFFFFFFFFF909FFFFFFFFFF90FBFBBF9FFFFFFFFFF909FFFFFFFFFF90FBBFBFBFFFFFFFFFF90F99999999999BBBBBBBB99999999990FFFFFFFFFFFFFFFFFFFFFFFFFFFFFFFFFFFFFFFFFFFFFFFFFFFFFFFFFFFFFFFFFFFFFFFFF
1004
FFFFFFFFFFFFFFFFFFFFFFFFFFFFFFFFFFFFFFFFFFFFFFFFFFFFFFFFFFFFFFFFFFFFFFFFFFFFFFFFFFFFFFFFFFFFFFFFFFFFFFFFFFFFFFFFFFFFFFFFFFFFFFFFFFFFFFFFFFFFFFFFFFFFFFFFFFFFFFFFFFFFFFFFFFFFFFFFFFFFFFFFFFFFFFFFFFFFFFFFFFFFFFFFFFFFFFFF
  0
BLOCK_RECORD
  5
2E9
100
AcDbSymbolTableRecord
100
AcDbBlockTableRecord
  2
955013-550-10
1001
CONTENTBLOCKICON
1071
        0
1004
2800000020000000200000000100040000000000000200000000000000000000000000000000000000000000000080000080000000808000800000008000800080800000C0C0C000808080000000FF0000FF000000FFFF00FF000000FF00FF00FFFF0000FFFFFF00FFFFFFFFFFFFFFFFFFFFFFF00FFFFFFFFFFFFFFFFFFFFF
1004
FFFFFFFFF0FFFFFFFFFFFFFFFFFFFFFFFFFFFFFFF00FFFFFFFFFFFFFFFFFFFFFFFFFFFFFF00FFFFFFFFFFFFFFFFFFFFFFFFFFFFFF00FFFFFFFFFFFFFFFFFFFFFFFFFFFFFF00FFFFFFFFFFFFFFFFFFFFFFFFFFFFFF00FFFFFFFFFFFFFF0F00000BBBB0000000FFFFFFFFFFFFFF9999999FBBB99999F0FFFFFFFFFFFFFF9FFFF
1004
F90BB0FFFFFF0FFFFFFFFFFFFFF9FFFFF90BB0FFFFFF0FFFFFFFFFFFFFF9FFFFF90BB0FFFFFF0FFFFFFFFFFFFFF9FFFFF90BB0FFFFFF0FFFFFFFFFFFFFF9FFFFF90BB0FFFFFF0FFFFFFFFFFFFFF9FFFFF90BB0FFFFFF0FFFFFFFFFFFFFF9FFFFF90BB0FFFFFF0FFFFFFFFFFFFFF9FFFFF90BB0FFFFFF0FFFFFFFFFFFFFF9FF
1004
FFF90BB0FFFFFF0FFFFFFFFFFFFFF9FFFFF90BB0FFFFFF0FFFFFFFFFFFFFF9FFFFF90BB0FFFFF90FFFFFFFFFFFFFF9FFFFF90BB0FFFF00FFFFFFFFFFFFFFF9FFFFF90BB0F0B0BBFFFFFFFFFFFFFFF9FFFFF90BB0F0BBBBFFFFFFFFFFFFFFF9FFFFF90BBBF0BBBBFFFFFFFFFFFFFFF9999999BBBB00000FFFFFFFFFFFFFFFF9
1004
0FFFFFFFFFFFFFFFFFFFFFFFFFFFFFF90FFFFFFFFFFFFFFFFFFFFFFFFFFFFFF90FFFFFFFFFFFFFFFFFFFFFFFFFFFFFF90FFFFFFFFFFFFFFFFFFFFFFFFFFFFFF90FFFFFFFFFFFFFFFFFFFFFFFFFFFFFF90FFFFFFFFFFFFFFFFFFFFFFFFFFFFFF90FFFFFFFFFFFFFFFFFFFFFFF
  0
BLOCK_RECORD
  5
2F4
100
AcDbSymbolTableRecord
100
AcDbBlockTableRecord
  2
955021-550-10
1001
CONTENTBLOCKICON
1071
        0
1004
2800000020000000200000000100040000000000000200000000000000000000000000000000000000000000000080000080000000808000800000008000800080800000C0C0C000808080000000FF0000FF000000FFFF00FF000000FF00FF00FFFF0000FFFFFF00FFFF0F0000000BBBBB000000000FFFFFFFFF099999999F
1004
BBBB99999999FFFFFFFFFF0FFFFFFF90BBB0FFFFFFF90FFFFFFFFF0FFFFFFF90BBB0FFFFFFF90FFFFFFFFF0FFFFFFF90BBB0FFFFFFF90FFFFFFFFF0FFFFFFF90BBB0FFFFFFF90FFFFFFFFF0FFFFFFF90BBB0FFFFFFF90FFFFFFFFF0FFFFFFF90BBB0FFFFFFF90FFFFFFFFF0FFFFFFF90BBB0FFFFFFF90FFFFFFFFF0FFFFFFF
1004
90BBB0FFFFFFF90FFFFFFFFF0FFFFFFF90BBB0FFFFFFF90FFFFFFFFF0FFFFFFF90BBB0FFFFFFF90FFFFFFFFF0FFFFFFF90BBB0FFFFFFF90FFFFFFFFF0FFFFFFF90BBB0FFFFFFF90FFFFFFFFF0FFFFFFF90BBB0FFFFFFF90FFFFFFFFF0FFFFFFF90BBB0FFFFFFF90FFFFFFFFF0FFFFFFF90BBB0FFFFFFF90FFFFFFFFF0FFFFF
1004
FF90BBB0FFFFFFF90FFFFFFFFF0FFFFFFF90BBB0FFFFFFF90FFFFFFFFF0FFFFFFF90BBB0FFFFFFF90FFFFFFFFF0FFFFFFF90BBB0FFFFFFF90FFFFFFFFF0FFFFFFF90BBBBFFFFFFF90FFFFFFFFF090000009BBBBB000000090FFFFFFFFF090FFFFFFFFFFFFFFFFFFFFFFFFFFFFF090FFFFFFFFFFFFFFFFFFFFFFFFFFFFF090F
1004
FFFFFFFFFFFFFFFFFFFFFFFFFFFF090FFFFFFFFFFFFFFFFFFFFFFFFFFFFF090FFFFFFFFFFFFFFFFFFFFFFFFFFFFF090FFFFFFFFFFFFFFFFFFFFFFFFFFFFF090FFFFFFFFFFFFFFFFFFFFFFFFFFFFF990FFFFFFFFFFFFFFFFFFFFFFFFFFFFF000FFFFFFFFFFFFFFFFFFFFFFFFF
  0
BLOCK_RECORD
  5
2FE
100
AcDbSymbolTableRecord
100
AcDbBlockTableRecord
  2
955025-550-10
1001
CONTENTBLOCKICON
1071
        0
1004
2800000020000000200000000100040000000000000200000000000000000000000000000000000000000000000080000080000000808000800000008000800080800000C0C0C000808080000000FF0000FF000000FFFF00FF000000FF00FF00FFFF0000FFFFFF00FFFFFFF00FFFFFFFFFFFFFFFFFFFFFFFFFFFFFF00FFFFF
1004
FFFFFFFFFFFFFFFFFFFFFFFFF00FFFFFFFFFFFFFFFFFFFFFFFFFFFFFF00FFFFFFFFFFFFFFFFFFFFFFFFFFFFFF00FFFFFFFFFFFFFFFFFFFFFFFFFFFFFF00FFFFFFFFFFFFFFFFFFFFFFFFFFFFFF00FFFFFFFFFFFFFFFFFFFFFFFFFFFFFF0000000BBBB0000000FFFFFFFFFFFFFF09999990BBB9999990FFFFFFFFFFFFFF0FFFF
1004
F90BB0FFFFFF0FFFFFFFFFFFFFF0FFFFF90BB0FFFFFF0FFFFFFFFFFFFFF0FFFFF90BB0FFFFFF0FFFFFFFFFFFFFF0FFFFF90BB0FFFFFF0FFFFFFFFFFFFFF0FFFFF90BB0FFFFFF0FFFFFFFFFFFFFF0FFFFF90BB0FFFFFF0FFFFFFFFFFFFFF0FFFFF90BB0FFFFFF0FFFFFFFFFFFFFF0FFFFF90BB0FFFFFF0FFFFFFFFFFFFFF0FF
1004
FFF90BB0FFFFFF0FFFFFFFFFFFFFF0FFFFF90BB0FFFFFF0FFFFFFFFFFFFFF0FFFFF90BB0FFFFFF0FFFFFFFFFFFFFF0FFFFF90BB0FFFFFF0FFFFFFFFFFFFFF0FFFFF90BB0FFFFFF0FFFFFFFFFFFFFF0FFFFF90BB0FFFFFF0FFFFFFFFFFFFFF0FFFFF90BBBFFFFFF0FFFFFFFFFFFFFF0000000BBBB0000000FFFFFFFFFFFFFF0
1004
0FFFFFFFFFFFFFF00FFFFFFFFFFFFFF00FFFFFFFFFFFFFF00FFFFFFFFFFFFFF00FFFFFFFFFFFFFF00FFFFFFFFFFFFFF00FFFFFFFFFFFFFF00FFFFFFFFFFFFFF00FFFFFFFFFFFFFF00FFFFFFFFFFFFFF00FFFFFFFFFFFFFF00FFFFFFFFFFFFFF00FFFFFFFFFFFFFF00FFFFFFF
  0
BLOCK_RECORD
  5
308
100
AcDbSymbolTableRecord
100
AcDbBlockTableRecord
  2
A$C37AC519F
  0
ENDTAB
  0
ENDSEC
  0
SECTION
  2
BLOCKS
  0
BLOCK
  5
3
100
AcDbEntity
  8
0
100
AcDbBlockBegin
  2
*MODEL_SPACE
 70
     0
 10
0.0
 20
0.0
 30
0.0
  3
*MODEL_SPACE
  1

  0
ENDBLK
  5
6
100
AcDbEntity
  8
0
100
AcDbBlockEnd
  0
BLOCK
  5
8
100
AcDbEntity
 67
     1
  8
0
100
AcDbBlockBegin
  2
*PAPER_SPACE
 70
     0
 10
0.0
 20
0.0
 30
0.0
  3
*PAPER_SPACE
  1

  0
ENDBLK
  5
9
100
AcDbEntity
 67
     1
  8
0
100
AcDbBlockEnd
  0
BLOCK
  5
2F
100
AcDbEntity
  8
0
100
AcDbBlockBegin
  2
SIDA
 70
     0
 10
0.0
 20
0.0
 30
0.0
  3
SIDA
  1

  0
LWPOLYLINE
  5
20
100
AcDbEntity
  8
RAM
 62
     5
100
AcDbPolyline
 90
        4
 70
     1
 43
0.0
 10
-20.0
 20
35.0
 10
-20.0
 20
560.0
 10
-380.0
 20
560.0
 10
-380.0
 20
35.0
  0
LINE
  5
22
100
AcDbEntity
  8
RAM
  6
DASHDOT
 62
     6
100
AcDbLine
 10
-260.0
 20
307.5
 30
0.0
 11
-260.0
 21
287.5
 31
0.0
  0
LINE
  5
24
100
AcDbEntity
  8
RAM
  6
DASHDOT
 62
     6
100
AcDbLine
 10
-270.0
 20
167.5
 30
0.0
 11
-250.0
 21
167.5
 31
0.0
  0
LINE
  5
25
100
AcDbEntity
  8
RAM
  6
DASHDOT
 62
     6
100
AcDbLine
 10
-260.0
 20
177.5
 30
0.0
 11
-260.0
 21
157.5
 31
0.0
  0
LINE
  5
26
100
AcDbEntity
  8
RAM
  6
DASHDOT
 62
     6
100
AcDbLine
 10
-270.0
 20
297.5
 30
0.0
 11
-250.0
 21
297.5
 31
0.0
  0
LINE
  5
27
100
AcDbEntity
  8
RAM
  6
DASHDOT
 62
     6
100
AcDbLine
 10
-270.0
 20
427.5
 30
0.0
 11
-250.0
 21
427.5
 31
0.0
  0
LINE
  5
28
100
AcDbEntity
  8
RAM
  6
DASHDOT
 62
     6
100
AcDbLine
 10
-260.0
 20
437.5
 30
0.0
 11
-260.0
 21
417.5
 31
0.0
  0
LINE
  5
29
100
AcDbEntity
  8
RAM
  6
DASHDOT
 62
     6
100
AcDbLine
 10
-140.0
 20
307.5
 30
0.0
 11
-140.0
 21
287.5
 31
0.0
  0
LINE
  5
2A
100
AcDbEntity
  8
RAM
  6
DASHDOT
 62
     6
100
AcDbLine
 10
-140.0
 20
177.5
 30
0.0
 11
-140.0
 21
157.5
 31
0.0
  0
LINE
  5
2B
100
AcDbEntity
  8
RAM
  6
DASHDOT
 62
     6
100
AcDbLine
 10
-150.0
 20
167.5
 30
0.0
 11
-130.0
 21
167.5
 31
0.0
  0
LINE
  5
2C
100
AcDbEntity
  8
RAM
  6
DASHDOT
 62
     6
100
AcDbLine
 10
-150.0
 20
297.5
 30
0.0
 11
-130.0
 21
297.5
 31
0.0
  0
LINE
  5
2D
100
AcDbEntity
  8
RAM
  6
DASHDOT
 62
     6
100
AcDbLine
 10
-150.0
 20
427.5
 30
0.0
 11
-130.0
 21
427.5
 31
0.0
  0
LINE
  5
2E
100
AcDbEntity
  8
RAM
  6
DASHDOT
 62
     6
100
AcDbLine
 10
-140.0
 20
437.5
 30
0.0
 11
-140.0
 21
417.5
 31
0.0
  0
ENDBLK
  5
30
100
AcDbEntity
  8
0
100
AcDbBlockEnd
  0
BLOCK
  5
137
100
AcDbEntity
  8
0
100
AcDbBlockBegin
  2
*X1
 70
     1
 10
0.0
 20
0.0
 30
0.0
  3
*X1
  1

  0
LINE
  5
12D
100
AcDbEntity
  8
0
 62
     0
100
AcDbLine
 10
418.490967
 20
310.1066
 30
0.0
 11
421.167604
 21
313.296491
 31
0.0
  0
LINE
  5
12E
100
AcDbEntity
  8
0
 62
     0
100
AcDbLine
 10
423.349042
 20
315.896228
 30
0.0
 11
424.080112
 21
316.767482
 31
0.0
  0
LINE
  5
12F
100
AcDbEntity
  8
0
 62
     0
100
AcDbLine
 10
422.064957
 20
314.365914
 30
0.0
 11
422.918328
 21
315.382923
 31
0.0
  0
LINE
  5
130
100
AcDbEntity
  8
0
 62
     0
100
AcDbLine
 10
418.226804
 20
311.736438
 30
0.0
 11
420.663771
 21
314.640701
 31
0.0
  0
LINE
  5
131
100
AcDbEntity
  8
0
 62
     0
100
AcDbLine
 10
421.575811
 20
315.727628
 30
0.0
 11
422.569739
 21
316.912145
 31
0.0
  0
LINE
  5
132
100
AcDbEntity
  8
0
 62
     0
100
AcDbLine
 10
417.857133
 20
313.240535
 30
0.0
 11
420.696467
 21
316.624321
 31
0.0
  0
LINE
  5
133
100
AcDbEntity
  8
0
 62
     0
100
AcDbLine
 10
416.898348
 20
314.042554
 30
0.0
 11
418.169933
 21
315.55797
 31
0.0
  0
LINE
  5
134
100
AcDbEntity
  8
0
 62
     0
100
AcDbLine
 10
418.751032
 20
308.471878
 30
0.0
 11
420.838188
 21
310.959254
 31
0.0
  0
LINE
  5
135
100
AcDbEntity
  8
0
 62
     0
100
AcDbLine
 10
419.246616
 20
307.117837
 30
0.0
 11
421.130916
 21
309.363458
 31
0.0
  0
LINE
  5
136
100
AcDbEntity
  8
0
 62
     0
100
AcDbLine
 10
421.204244
 20
307.506193
 30
0.0
 11
422.301392
 21
308.813723
 31
0.0
  0
ENDBLK
  5
138
100
AcDbEntity
  8
0
100
AcDbBlockEnd
  0
BLOCK
  5
139
100
AcDbEntity
  8
0
100
AcDbBlockBegin
  2
SP40010
 70
     0
 10
0.0
 20
0.0
 30
0.0
  3
SP40010
  1

  0
LWPOLYLINE
  5
12A
100
AcDbEntity
  8
GLAS_MED_FOGNING
100
AcDbPolyline
 90
       27
 70
     0
 43
0.0
 10
-8.905528
 20
18.626989
 10
-11.04147
 20
18.263989
 42
0.47758
 10
-11.422076
 20
17.585713
 10
-11.282581
 20
17.236207
 42
-1.066974
 10
-12.209806
 20
16.934105
 10
-12.855648
 20
19.46147
 10
-12.95764
 20
20.795213
 42
-0.851446
 10
-12.019738
 20
21.021209
 42
0.34625
 10
-11.479327
 20
20.720659
 10
-7.420891
 20
21.324081
 42
0.253088
 10
-6.015863
 20
22.369183
 10
-5.627377
 20
23.238611
 42
-0.653084
 10
-5.261375
 20
23.225047
 10
-4.446993
 20
21.166246
 42
0.887127
 10
-4.490032
 20
20.572081
 42
-0.212108
 10
-4.15725
 20
20.339586
 42
-0.212173
 10
-3.459619
 20
14.779472
 42
-0.418069
 10
-3.711416
 20
14.646619
 10
-4.293984
 20
14.830968
 42
-0.397156
 10
-4.360758
 20
14.950843
 42
0.194939
 10
-4.977068
 20
19.415768
 42
1.053912
 10
-5.578133
 20
19.061579
 10
-4.456808
 20
16.774085
 42
-0.459605
 10
-4.576654
 20
16.495183
 10
-5.081649
 20
16.337131
 42
-0.312484
 10
-5.190355
 20
16.371046
 42
0.373013
 10
-9.071884
 20
18.598717
  0
INSERT
  5
12B
100
AcDbEntity
  8
GLAS_MED_FOGNING
100
AcDbBlockReference
  2
*X1
 10
-314.5231
 20
443.46412
 30
0.0
 50
269.250599
1001
ACAD
1000
HATCH
1002
{
1070
    16
1000
ANSI31
1040
10.0
1040
0.087266
1002
}
  0
ENDBLK
  5
13A
100
AcDbEntity
  8
0
100
AcDbBlockEnd
  0
BLOCK
  5
11F
100
AcDbEntity
  8
0
100
AcDbBlockBegin
  2
SP30001
 70
     0
 10
0.0
 20
0.0
 30
0.0
  3
SP30001
  1

  0
LWPOLYLINE
  5
11D
100
AcDbEntity
  8
STALPROFIL
100
AcDbPolyline
 90
        6
 70
     0
 43
1.25
 10
-0.625
 20
16.0
 10
-0.625
 20
43.75
 42
-1.0
 10
0.625
 20
43.75
 10
0.625
 20
27.0
 42
0.414214
 10
2.0
 20
25.625
 10
13.75
 20
25.625
  0
LWPOLYLINE
  5
11E
100
AcDbEntity
  8
SPKONTUR
100
AcDbPolyline
 90
        6
 70
     0
 43
0.0
 10
-1.25
 20
16.0
 10
-1.25
 20
43.75
 42
-1.0
 10
1.25
 20
43.75
 10
1.25
 20
27.0
 42
0.414214
 10
2.0
 20
26.25
 10
13.75
 20
26.25
  0
ENDBLK
  5
120
100
AcDbEntity
  8
0
100
AcDbBlockEnd
  0
BLOCK
  5
109
100
AcDbEntity
  8
0
100
AcDbBlockBegin
  2
HATSH
 70
     0
 10
0.0
 20
0.0
 30
0.0
  3
HATSH
  1

  0
INSERT
  5
36
100
AcDbEntity
  8
GLAS_MED_FOGNING
100
AcDbBlockReference
  2
*X5
 10
295.0
 20
-510.0
 30
0.0
1001
ACAD
1000
HATCH
1002
{
1070
    16
1000
FLEX
1040
10.0
1040
1.570796
1002
}
  0
ENDBLK
  5
10A
100
AcDbEntity
  8
0
100
AcDbBlockEnd
  0
BLOCK
  5
107
100
AcDbEntity
  8
0
100
AcDbBlockBegin
  2
*X5
 70
     1
 10
0.0
 20
0.0
 30
0.0
  3
*X5
  1

  0
LINE
  5
38
100
AcDbEntity
  8
0
 62
     0
100
AcDbLine
 10
-320.0
 20
450.0
 30
0.0
 11
-320.0
 21
452.5
 31
0.0
  0
LINE
  5
39
100
AcDbEntity
  8
0
 62
     0
100
AcDbLine
 10
-320.0
 20
455.0
 30
0.0
 11
-320.0
 21
457.5
 31
0.0
  0
LINE
  5
3A
100
AcDbEntity
  8
0
 62
     0
100
AcDbLine
 10
-320.0
 20
460.0
 30
0.0
 11
-320.0
 21
462.5
 31
0.0
  0
LINE
  5
3B
100
AcDbEntity
  8
0
 62
     0
100
AcDbLine
 10
-320.0
 20
465.0
 30
0.0
 11
-320.0
 21
467.5
 31
0.0
  0
LINE
  5
3C
100
AcDbEntity
  8
0
 62
     0
100
AcDbLine
 10
-320.0
 20
470.0
 30
0.0
 11
-320.0
 21
472.5
 31
0.0
  0
LINE
  5
3D
100
AcDbEntity
  8
0
 62
     0
100
AcDbLine
 10
-320.0
 20
475.0
 30
0.0
 11
-320.0
 21
477.5
 31
0.0
  0
LINE
  5
3E
100
AcDbEntity
  8
0
 62
     0
100
AcDbLine
 10
-320.0
 20
480.0
 30
0.0
 11
-320.0
 21
482.5
 31
0.0
  0
LINE
  5
3F
100
AcDbEntity
  8
0
 62
     0
100
AcDbLine
 10
-320.0
 20
485.0
 30
0.0
 11
-320.0
 21
487.5
 31
0.0
  0
LINE
  5
40
100
AcDbEntity
  8
0
 62
     0
100
AcDbLine
 10
-320.0
 20
490.0
 30
0.0
 11
-320.0
 21
492.5
 31
0.0
  0
LINE
  5
41
100
AcDbEntity
  8
0
 62
     0
100
AcDbLine
 10
-320.0
 20
495.0
 30
0.0
 11
-320.0
 21
497.5
 31
0.0
  0
LINE
  5
42
100
AcDbEntity
  8
0
 62
     0
100
AcDbLine
 10
-320.0
 20
500.0
 30
0.0
 11
-320.0
 21
502.5
 31
0.0
  0
LINE
  5
43
100
AcDbEntity
  8
0
 62
     0
100
AcDbLine
 10
-320.0
 20
505.0
 30
0.0
 11
-320.0
 21
507.5
 31
0.0
  0
LINE
  5
44
100
AcDbEntity
  8
0
 62
     0
100
AcDbLine
 10
-320.0
 20
510.0
 30
0.0
 11
-320.0
 21
512.5
 31
0.0
  0
LINE
  5
45
100
AcDbEntity
  8
0
 62
     0
100
AcDbLine
 10
-320.0
 20
515.0
 30
0.0
 11
-320.0
 21
517.5
 31
0.0
  0
LINE
  5
46
100
AcDbEntity
  8
0
 62
     0
100
AcDbLine
 10
-320.0
 20
520.0
 30
0.0
 11
-320.0
 21
522.5
 31
0.0
  0
LINE
  5
47
100
AcDbEntity
  8
0
 62
     0
100
AcDbLine
 10
-320.0
 20
525.0
 30
0.0
 11
-320.0
 21
527.5
 31
0.0
  0
LINE
  5
48
100
AcDbEntity
  8
0
 62
     0
100
AcDbLine
 10
-320.0
 20
530.0
 30
0.0
 11
-320.0
 21
532.5
 31
0.0
  0
LINE
  5
49
100
AcDbEntity
  8
0
 62
     0
100
AcDbLine
 10
-322.5
 20
450.0
 30
0.0
 11
-322.5
 21
452.5
 31
0.0
  0
LINE
  5
4A
100
AcDbEntity
  8
0
 62
     0
100
AcDbLine
 10
-322.5
 20
455.0
 30
0.0
 11
-322.5
 21
457.5
 31
0.0
  0
LINE
  5
4B
100
AcDbEntity
  8
0
 62
     0
100
AcDbLine
 10
-322.5
 20
460.0
 30
0.0
 11
-322.5
 21
462.5
 31
0.0
  0
LINE
  5
4C
100
AcDbEntity
  8
0
 62
     0
100
AcDbLine
 10
-322.5
 20
465.0
 30
0.0
 11
-322.5
 21
467.5
 31
0.0
  0
LINE
  5
4D
100
AcDbEntity
  8
0
 62
     0
100
AcDbLine
 10
-322.5
 20
470.0
 30
0.0
 11
-322.5
 21
472.5
 31
0.0
  0
LINE
  5
4E
100
AcDbEntity
  8
0
 62
     0
100
AcDbLine
 10
-322.5
 20
475.0
 30
0.0
 11
-322.5
 21
477.5
 31
0.0
  0
LINE
  5
4F
100
AcDbEntity
  8
0
 62
     0
100
AcDbLine
 10
-322.5
 20
480.0
 30
0.0
 11
-322.5
 21
482.5
 31
0.0
  0
LINE
  5
50
100
AcDbEntity
  8
0
 62
     0
100
AcDbLine
 10
-322.5
 20
485.0
 30
0.0
 11
-322.5
 21
487.5
 31
0.0
  0
LINE
  5
51
100
AcDbEntity
  8
0
 62
     0
100
AcDbLine
 10
-322.5
 20
490.0
 30
0.0
 11
-322.5
 21
492.5
 31
0.0
  0
LINE
  5
52
100
AcDbEntity
  8
0
 62
     0
100
AcDbLine
 10
-322.5
 20
495.0
 30
0.0
 11
-322.5
 21
497.5
 31
0.0
  0
LINE
  5
53
100
AcDbEntity
  8
0
 62
     0
100
AcDbLine
 10
-322.5
 20
500.0
 30
0.0
 11
-322.5
 21
502.5
 31
0.0
  0
LINE
  5
54
100
AcDbEntity
  8
0
 62
     0
100
AcDbLine
 10
-322.5
 20
505.0
 30
0.0
 11
-322.5
 21
507.5
 31
0.0
  0
LINE
  5
55
100
AcDbEntity
  8
0
 62
     0
100
AcDbLine
 10
-322.5
 20
510.0
 30
0.0
 11
-322.5
 21
512.5
 31
0.0
  0
LINE
  5
56
100
AcDbEntity
  8
0
 62
     0
100
AcDbLine
 10
-322.5
 20
515.0
 30
0.0
 11
-322.5
 21
517.5
 31
0.0
  0
LINE
  5
57
100
AcDbEntity
  8
0
 62
     0
100
AcDbLine
 10
-322.5
 20
520.0
 30
0.0
 11
-322.5
 21
522.5
 31
0.0
  0
LINE
  5
58
100
AcDbEntity
  8
0
 62
     0
100
AcDbLine
 10
-322.5
 20
525.0
 30
0.0
 11
-322.5
 21
527.5
 31
0.0
  0
LINE
  5
59
100
AcDbEntity
  8
0
 62
     0
100
AcDbLine
 10
-322.5
 20
530.0
 30
0.0
 11
-322.5
 21
532.5
 31
0.0
  0
LINE
  5
5A
100
AcDbEntity
  8
0
 62
     0
100
AcDbLine
 10
-317.5
 20
450.0
 30
0.0
 11
-317.5
 21
452.5
 31
0.0
  0
LINE
  5
5B
100
AcDbEntity
  8
0
 62
     0
100
AcDbLine
 10
-317.5
 20
455.0
 30
0.0
 11
-317.5
 21
457.5
 31
0.0
  0
LINE
  5
5C
100
AcDbEntity
  8
0
 62
     0
100
AcDbLine
 10
-317.5
 20
460.0
 30
0.0
 11
-317.5
 21
462.5
 31
0.0
  0
LINE
  5
5D
100
AcDbEntity
  8
0
 62
     0
100
AcDbLine
 10
-317.5
 20
465.0
 30
0.0
 11
-317.5
 21
467.5
 31
0.0
  0
LINE
  5
5E
100
AcDbEntity
  8
0
 62
     0
100
AcDbLine
 10
-317.5
 20
470.0
 30
0.0
 11
-317.5
 21
472.5
 31
0.0
  0
LINE
  5
5F
100
AcDbEntity
  8
0
 62
     0
100
AcDbLine
 10
-317.5
 20
475.0
 30
0.0
 11
-317.5
 21
477.5
 31
0.0
  0
LINE
  5
60
100
AcDbEntity
  8
0
 62
     0
100
AcDbLine
 10
-317.5
 20
480.0
 30
0.0
 11
-317.5
 21
482.5
 31
0.0
  0
LINE
  5
61
100
AcDbEntity
  8
0
 62
     0
100
AcDbLine
 10
-317.5
 20
485.0
 30
0.0
 11
-317.5
 21
487.5
 31
0.0
  0
LINE
  5
62
100
AcDbEntity
  8
0
 62
     0
100
AcDbLine
 10
-317.5
 20
490.0
 30
0.0
 11
-317.5
 21
492.5
 31
0.0
  0
LINE
  5
63
100
AcDbEntity
  8
0
 62
     0
100
AcDbLine
 10
-317.5
 20
495.0
 30
0.0
 11
-317.5
 21
497.5
 31
0.0
  0
LINE
  5
64
100
AcDbEntity
  8
0
 62
     0
100
AcDbLine
 10
-317.5
 20
500.0
 30
0.0
 11
-317.5
 21
502.5
 31
0.0
  0
LINE
  5
65
100
AcDbEntity
  8
0
 62
     0
100
AcDbLine
 10
-317.5
 20
505.0
 30
0.0
 11
-317.5
 21
507.5
 31
0.0
  0
LINE
  5
66
100
AcDbEntity
  8
0
 62
     0
100
AcDbLine
 10
-317.5
 20
510.0
 30
0.0
 11
-317.5
 21
512.5
 31
0.0
  0
LINE
  5
67
100
AcDbEntity
  8
0
 62
     0
100
AcDbLine
 10
-317.5
 20
515.0
 30
0.0
 11
-317.5
 21
517.5
 31
0.0
  0
LINE
  5
68
100
AcDbEntity
  8
0
 62
     0
100
AcDbLine
 10
-317.5
 20
520.0
 30
0.0
 11
-317.5
 21
522.5
 31
0.0
  0
LINE
  5
69
100
AcDbEntity
  8
0
 62
     0
100
AcDbLine
 10
-317.5
 20
525.0
 30
0.0
 11
-317.5
 21
527.5
 31
0.0
  0
LINE
  5
6A
100
AcDbEntity
  8
0
 62
     0
100
AcDbLine
 10
-317.5
 20
530.0
 30
0.0
 11
-317.5
 21
532.5
 31
0.0
  0
LINE
  5
6B
100
AcDbEntity
  8
0
 62
     0
100
AcDbLine
 10
-315.000001
 20
487.500001
 30
0.0
 11
-315.441943
 21
487.941942
 31
0.0
  0
LINE
  5
6C
100
AcDbEntity
  8
0
 62
     0
100
AcDbLine
 10
-317.058059
 20
489.558059
 30
0.0
 11
-317.500001
 21
490.000001
 31
0.0
  0
LINE
  5
6D
100
AcDbEntity
  8
0
 62
     0
100
AcDbLine
 10
-320.000001
 20
492.500001
 30
0.0
 11
-320.441943
 21
492.941942
 31
0.0
  0
LINE
  5
6E
100
AcDbEntity
  8
0
 62
     0
100
AcDbLine
 10
-322.058059
 20
494.558059
 30
0.0
 11
-322.500001
 21
495.000001
 31
0.0
  0
LINE
  5
6F
100
AcDbEntity
  8
0
 62
     0
100
AcDbLine
 10
-315.0
 20
485.0
 30
0.0
 11
-315.000001
 21
485.000001
 31
0.0
  0
LINE
  5
70
100
AcDbEntity
  8
0
 62
     0
100
AcDbLine
 10
-317.500001
 20
487.500001
 30
0.0
 11
-317.941943
 21
487.941942
 31
0.0
  0
LINE
  5
71
100
AcDbEntity
  8
0
 62
     0
100
AcDbLine
 10
-319.558059
 20
489.558059
 30
0.0
 11
-320.000001
 21
490.000001
 31
0.0
  0
LINE
  5
72
100
AcDbEntity
  8
0
 62
     0
100
AcDbLine
 10
-322.500001
 20
492.500001
 30
0.0
 11
-322.941943
 21
492.941942
 31
0.0
  0
LINE
  5
73
100
AcDbEntity
  8
0
 62
     0
100
AcDbLine
 10
-324.558059
 20
494.558059
 30
0.0
 11
-325.0
 21
495.0
 31
0.0
  0
LINE
  5
74
100
AcDbEntity
  8
0
 62
     0
100
AcDbLine
 10
-315.000001
 20
482.500001
 30
0.0
 11
-315.441943
 21
482.941942
 31
0.0
  0
LINE
  5
75
100
AcDbEntity
  8
0
 62
     0
100
AcDbLine
 10
-317.058059
 20
484.558059
 30
0.0
 11
-317.500001
 21
485.000001
 31
0.0
  0
LINE
  5
76
100
AcDbEntity
  8
0
 62
     0
100
AcDbLine
 10
-320.000001
 20
487.500001
 30
0.0
 11
-320.441943
 21
487.941942
 31
0.0
  0
LINE
  5
77
100
AcDbEntity
  8
0
 62
     0
100
AcDbLine
 10
-322.058059
 20
489.558059
 30
0.0
 11
-322.500001
 21
490.000001
 31
0.0
  0
LINE
  5
78
100
AcDbEntity
  8
0
 62
     0
100
AcDbLine
 10
-315.0
 20
480.0
 30
0.0
 11
-315.000001
 21
480.000001
 31
0.0
  0
LINE
  5
79
100
AcDbEntity
  8
0
 62
     0
100
AcDbLine
 10
-317.500001
 20
482.500001
 30
0.0
 11
-317.941943
 21
482.941942
 31
0.0
  0
LINE
  5
7A
100
AcDbEntity
  8
0
 62
     0
100
AcDbLine
 10
-319.558059
 20
484.558059
 30
0.0
 11
-320.000001
 21
485.000001
 31
0.0
  0
LINE
  5
7B
100
AcDbEntity
  8
0
 62
     0
100
AcDbLine
 10
-322.500001
 20
487.500001
 30
0.0
 11
-322.941943
 21
487.941942
 31
0.0
  0
LINE
  5
7C
100
AcDbEntity
  8
0
 62
     0
100
AcDbLine
 10
-324.558059
 20
489.558059
 30
0.0
 11
-325.0
 21
490.0
 31
0.0
  0
LINE
  5
7D
100
AcDbEntity
  8
0
 62
     0
100
AcDbLine
 10
-315.000001
 20
477.500001
 30
0.0
 11
-315.441943
 21
477.941942
 31
0.0
  0
LINE
  5
7E
100
AcDbEntity
  8
0
 62
     0
100
AcDbLine
 10
-317.058059
 20
479.558059
 30
0.0
 11
-317.500001
 21
480.000001
 31
0.0
  0
LINE
  5
7F
100
AcDbEntity
  8
0
 62
     0
100
AcDbLine
 10
-320.000001
 20
482.500001
 30
0.0
 11
-320.441943
 21
482.941942
 31
0.0
  0
LINE
  5
80
100
AcDbEntity
  8
0
 62
     0
100
AcDbLine
 10
-322.058059
 20
484.558059
 30
0.0
 11
-322.500001
 21
485.000001
 31
0.0
  0
LINE
  5
81
100
AcDbEntity
  8
0
 62
     0
100
AcDbLine
 10
-315.0
 20
475.0
 30
0.0
 11
-315.000001
 21
475.000001
 31
0.0
  0
LINE
  5
82
100
AcDbEntity
  8
0
 62
     0
100
AcDbLine
 10
-317.500001
 20
477.500001
 30
0.0
 11
-317.941943
 21
477.941942
 31
0.0
  0
LINE
  5
83
100
AcDbEntity
  8
0
 62
     0
100
AcDbLine
 10
-319.558059
 20
479.558059
 30
0.0
 11
-320.000001
 21
480.000001
 31
0.0
  0
LINE
  5
84
100
AcDbEntity
  8
0
 62
     0
100
AcDbLine
 10
-322.500001
 20
482.500001
 30
0.0
 11
-322.941943
 21
482.941942
 31
0.0
  0
LINE
  5
85
100
AcDbEntity
  8
0
 62
     0
100
AcDbLine
 10
-324.558059
 20
484.558059
 30
0.0
 11
-325.0
 21
485.0
 31
0.0
  0
LINE
  5
86
100
AcDbEntity
  8
0
 62
     0
100
AcDbLine
 10
-315.000001
 20
472.500001
 30
0.0
 11
-315.441943
 21
472.941942
 31
0.0
  0
LINE
  5
87
100
AcDbEntity
  8
0
 62
     0
100
AcDbLine
 10
-317.058059
 20
474.558059
 30
0.0
 11
-317.500001
 21
475.000001
 31
0.0
  0
LINE
  5
88
100
AcDbEntity
  8
0
 62
     0
100
AcDbLine
 10
-320.000001
 20
477.500001
 30
0.0
 11
-320.441943
 21
477.941942
 31
0.0
  0
LINE
  5
89
100
AcDbEntity
  8
0
 62
     0
100
AcDbLine
 10
-322.058059
 20
479.558059
 30
0.0
 11
-322.500001
 21
480.000001
 31
0.0
  0
LINE
  5
8A
100
AcDbEntity
  8
0
 62
     0
100
AcDbLine
 10
-315.0
 20
470.0
 30
0.0
 11
-315.000001
 21
470.000001
 31
0.0
  0
LINE
  5
8B
100
AcDbEntity
  8
0
 62
     0
100
AcDbLine
 10
-317.500001
 20
472.500001
 30
0.0
 11
-317.941943
 21
472.941942
 31
0.0
  0
LINE
  5
8C
100
AcDbEntity
  8
0
 62
     0
100
AcDbLine
 10
-319.558059
 20
474.558059
 30
0.0
 11
-320.000001
 21
475.000001
 31
0.0
  0
LINE
  5
8D
100
AcDbEntity
  8
0
 62
     0
100
AcDbLine
 10
-322.500001
 20
477.500001
 30
0.0
 11
-322.941943
 21
477.941942
 31
0.0
  0
LINE
  5
8E
100
AcDbEntity
  8
0
 62
     0
100
AcDbLine
 10
-324.558059
 20
479.558059
 30
0.0
 11
-325.0
 21
480.0
 31
0.0
  0
LINE
  5
8F
100
AcDbEntity
  8
0
 62
     0
100
AcDbLine
 10
-315.000001
 20
467.500001
 30
0.0
 11
-315.441943
 21
467.941942
 31
0.0
  0
LINE
  5
90
100
AcDbEntity
  8
0
 62
     0
100
AcDbLine
 10
-317.058059
 20
469.558059
 30
0.0
 11
-317.500001
 21
470.000001
 31
0.0
  0
LINE
  5
91
100
AcDbEntity
  8
0
 62
     0
100
AcDbLine
 10
-320.000001
 20
472.500001
 30
0.0
 11
-320.441943
 21
472.941942
 31
0.0
  0
LINE
  5
92
100
AcDbEntity
  8
0
 62
     0
100
AcDbLine
 10
-322.058059
 20
474.558059
 30
0.0
 11
-322.500001
 21
475.000001
 31
0.0
  0
LINE
  5
93
100
AcDbEntity
  8
0
 62
     0
100
AcDbLine
 10
-315.0
 20
465.0
 30
0.0
 11
-315.000001
 21
465.000001
 31
0.0
  0
LINE
  5
94
100
AcDbEntity
  8
0
 62
     0
100
AcDbLine
 10
-317.500001
 20
467.500001
 30
0.0
 11
-317.941943
 21
467.941942
 31
0.0
  0
LINE
  5
95
100
AcDbEntity
  8
0
 62
     0
100
AcDbLine
 10
-319.558059
 20
469.558059
 30
0.0
 11
-320.000001
 21
470.000001
 31
0.0
  0
LINE
  5
96
100
AcDbEntity
  8
0
 62
     0
100
AcDbLine
 10
-322.500001
 20
472.500001
 30
0.0
 11
-322.941943
 21
472.941942
 31
0.0
  0
LINE
  5
97
100
AcDbEntity
  8
0
 62
     0
100
AcDbLine
 10
-324.558059
 20
474.558059
 30
0.0
 11
-325.0
 21
475.0
 31
0.0
  0
LINE
  5
98
100
AcDbEntity
  8
0
 62
     0
100
AcDbLine
 10
-315.000001
 20
462.500001
 30
0.0
 11
-315.441943
 21
462.941942
 31
0.0
  0
LINE
  5
99
100
AcDbEntity
  8
0
 62
     0
100
AcDbLine
 10
-317.058059
 20
464.558059
 30
0.0
 11
-317.500001
 21
465.000001
 31
0.0
  0
LINE
  5
9A
100
AcDbEntity
  8
0
 62
     0
100
AcDbLine
 10
-320.000001
 20
467.500001
 30
0.0
 11
-320.441943
 21
467.941942
 31
0.0
  0
LINE
  5
9B
100
AcDbEntity
  8
0
 62
     0
100
AcDbLine
 10
-322.058059
 20
469.558059
 30
0.0
 11
-322.500001
 21
470.000001
 31
0.0
  0
LINE
  5
9C
100
AcDbEntity
  8
0
 62
     0
100
AcDbLine
 10
-315.0
 20
460.0
 30
0.0
 11
-315.000001
 21
460.000001
 31
0.0
  0
LINE
  5
9D
100
AcDbEntity
  8
0
 62
     0
100
AcDbLine
 10
-317.500001
 20
462.500001
 30
0.0
 11
-317.941943
 21
462.941942
 31
0.0
  0
LINE
  5
9E
100
AcDbEntity
  8
0
 62
     0
100
AcDbLine
 10
-319.558059
 20
464.558059
 30
0.0
 11
-320.000001
 21
465.000001
 31
0.0
  0
LINE
  5
9F
100
AcDbEntity
  8
0
 62
     0
100
AcDbLine
 10
-322.500001
 20
467.500001
 30
0.0
 11
-322.941943
 21
467.941942
 31
0.0
  0
LINE
  5
A0
100
AcDbEntity
  8
0
 62
     0
100
AcDbLine
 10
-324.558059
 20
469.558059
 30
0.0
 11
-325.0
 21
470.0
 31
0.0
  0
LINE
  5
A1
100
AcDbEntity
  8
0
 62
     0
100
AcDbLine
 10
-315.000001
 20
457.500001
 30
0.0
 11
-315.441942
 21
457.941942
 31
0.0
  0
LINE
  5
A2
100
AcDbEntity
  8
0
 62
     0
100
AcDbLine
 10
-317.058059
 20
459.558059
 30
0.0
 11
-317.500001
 21
460.000001
 31
0.0
  0
LINE
  5
A3
100
AcDbEntity
  8
0
 62
     0
100
AcDbLine
 10
-320.000001
 20
462.500001
 30
0.0
 11
-320.441943
 21
462.941942
 31
0.0
  0
LINE
  5
A4
100
AcDbEntity
  8
0
 62
     0
100
AcDbLine
 10
-322.058059
 20
464.558059
 30
0.0
 11
-322.500001
 21
465.000001
 31
0.0
  0
LINE
  5
A5
100
AcDbEntity
  8
0
 62
     0
100
AcDbLine
 10
-315.0
 20
455.0
 30
0.0
 11
-315.000001
 21
455.000001
 31
0.0
  0
LINE
  5
A6
100
AcDbEntity
  8
0
 62
     0
100
AcDbLine
 10
-317.500001
 20
457.500001
 30
0.0
 11
-317.941942
 21
457.941942
 31
0.0
  0
LINE
  5
A7
100
AcDbEntity
  8
0
 62
     0
100
AcDbLine
 10
-319.558059
 20
459.558059
 30
0.0
 11
-320.000001
 21
460.000001
 31
0.0
  0
LINE
  5
A8
100
AcDbEntity
  8
0
 62
     0
100
AcDbLine
 10
-322.500001
 20
462.500001
 30
0.0
 11
-322.941942
 21
462.941942
 31
0.0
  0
LINE
  5
A9
100
AcDbEntity
  8
0
 62
     0
100
AcDbLine
 10
-324.558059
 20
464.558059
 30
0.0
 11
-325.0
 21
465.0
 31
0.0
  0
LINE
  5
AA
100
AcDbEntity
  8
0
 62
     0
100
AcDbLine
 10
-315.000001
 20
452.500001
 30
0.0
 11
-315.441942
 21
452.941942
 31
0.0
  0
LINE
  5
AB
100
AcDbEntity
  8
0
 62
     0
100
AcDbLine
 10
-317.058059
 20
454.558059
 30
0.0
 11
-317.500001
 21
455.000001
 31
0.0
  0
LINE
  5
AC
100
AcDbEntity
  8
0
 62
     0
100
AcDbLine
 10
-320.000001
 20
457.500001
 30
0.0
 11
-320.441942
 21
457.941942
 31
0.0
  0
LINE
  5
AD
100
AcDbEntity
  8
0
 62
     0
100
AcDbLine
 10
-322.058059
 20
459.558059
 30
0.0
 11
-322.500001
 21
460.000001
 31
0.0
  0
LINE
  5
AE
100
AcDbEntity
  8
0
 62
     0
100
AcDbLine
 10
-315.0
 20
450.0
 30
0.0
 11
-315.000001
 21
450.000001
 31
0.0
  0
LINE
  5
AF
100
AcDbEntity
  8
0
 62
     0
100
AcDbLine
 10
-317.500001
 20
452.500001
 30
0.0
 11
-317.941942
 21
452.941942
 31
0.0
  0
LINE
  5
B0
100
AcDbEntity
  8
0
 62
     0
100
AcDbLine
 10
-319.558059
 20
454.558059
 30
0.0
 11
-320.000001
 21
455.000001
 31
0.0
  0
LINE
  5
B1
100
AcDbEntity
  8
0
 62
     0
100
AcDbLine
 10
-322.500001
 20
457.500001
 30
0.0
 11
-322.941942
 21
457.941942
 31
0.0
  0
LINE
  5
B2
100
AcDbEntity
  8
0
 62
     0
100
AcDbLine
 10
-324.558059
 20
459.558059
 30
0.0
 11
-325.0
 21
460.0
 31
0.0
  0
LINE
  5
B3
100
AcDbEntity
  8
0
 62
     0
100
AcDbLine
 10
-317.5
 20
450.0
 30
0.0
 11
-317.500001
 21
450.000001
 31
0.0
  0
LINE
  5
B4
100
AcDbEntity
  8
0
 62
     0
100
AcDbLine
 10
-320.000001
 20
452.500001
 30
0.0
 11
-320.441942
 21
452.941942
 31
0.0
  0
LINE
  5
B5
100
AcDbEntity
  8
0
 62
     0
100
AcDbLine
 10
-322.058059
 20
454.558059
 30
0.0
 11
-322.500001
 21
455.000001
 31
0.0
  0
LINE
  5
B6
100
AcDbEntity
  8
0
 62
     0
100
AcDbLine
 10
-320.0
 20
450.0
 30
0.0
 11
-320.000001
 21
450.000001
 31
0.0
  0
LINE
  5
B7
100
AcDbEntity
  8
0
 62
     0
100
AcDbLine
 10
-322.500001
 20
452.500001
 30
0.0
 11
-322.941942
 21
452.941942
 31
0.0
  0
LINE
  5
B8
100
AcDbEntity
  8
0
 62
     0
100
AcDbLine
 10
-324.558059
 20
454.558059
 30
0.0
 11
-325.0
 21
455.0
 31
0.0
  0
LINE
  5
B9
100
AcDbEntity
  8
0
 62
     0
100
AcDbLine
 10
-322.5
 20
450.0
 30
0.0
 11
-322.500001
 21
450.000001
 31
0.0
  0
LINE
  5
BA
100
AcDbEntity
  8
0
 62
     0
100
AcDbLine
 10
-315.0
 20
490.0
 30
0.0
 11
-315.000001
 21
490.000001
 31
0.0
  0
LINE
  5
BB
100
AcDbEntity
  8
0
 62
     0
100
AcDbLine
 10
-317.500001
 20
492.500001
 30
0.0
 11
-317.941943
 21
492.941942
 31
0.0
  0
LINE
  5
BC
100
AcDbEntity
  8
0
 62
     0
100
AcDbLine
 10
-319.558059
 20
494.558059
 30
0.0
 11
-320.000001
 21
495.000001
 31
0.0
  0
LINE
  5
BD
100
AcDbEntity
  8
0
 62
     0
100
AcDbLine
 10
-322.500001
 20
497.500001
 30
0.0
 11
-322.941943
 21
497.941942
 31
0.0
  0
LINE
  5
BE
100
AcDbEntity
  8
0
 62
     0
100
AcDbLine
 10
-324.558059
 20
499.558059
 30
0.0
 11
-325.0
 21
500.0
 31
0.0
  0
LINE
  5
BF
100
AcDbEntity
  8
0
 62
     0
100
AcDbLine
 10
-315.000001
 20
492.500001
 30
0.0
 11
-315.441943
 21
492.941942
 31
0.0
  0
LINE
  5
C0
100
AcDbEntity
  8
0
 62
     0
100
AcDbLine
 10
-317.058059
 20
494.558059
 30
0.0
 11
-317.500001
 21
495.000001
 31
0.0
  0
LINE
  5
C1
100
AcDbEntity
  8
0
 62
     0
100
AcDbLine
 10
-320.000001
 20
497.500001
 30
0.0
 11
-320.441943
 21
497.941942
 31
0.0
  0
LINE
  5
C2
100
AcDbEntity
  8
0
 62
     0
100
AcDbLine
 10
-322.058059
 20
499.558059
 30
0.0
 11
-322.500001
 21
500.000001
 31
0.0
  0
LINE
  5
C3
100
AcDbEntity
  8
0
 62
     0
100
AcDbLine
 10
-315.0
 20
495.0
 30
0.0
 11
-315.000001
 21
495.000001
 31
0.0
  0
LINE
  5
C4
100
AcDbEntity
  8
0
 62
     0
100
AcDbLine
 10
-317.500001
 20
497.500001
 30
0.0
 11
-317.941943
 21
497.941942
 31
0.0
  0
LINE
  5
C5
100
AcDbEntity
  8
0
 62
     0
100
AcDbLine
 10
-319.558059
 20
499.558059
 30
0.0
 11
-320.000001
 21
500.000001
 31
0.0
  0
LINE
  5
C6
100
AcDbEntity
  8
0
 62
     0
100
AcDbLine
 10
-322.500001
 20
502.500001
 30
0.0
 11
-322.941943
 21
502.941942
 31
0.0
  0
LINE
  5
C7
100
AcDbEntity
  8
0
 62
     0
100
AcDbLine
 10
-324.558059
 20
504.558059
 30
0.0
 11
-325.0
 21
505.0
 31
0.0
  0
LINE
  5
C8
100
AcDbEntity
  8
0
 62
     0
100
AcDbLine
 10
-315.000001
 20
497.500001
 30
0.0
 11
-315.441943
 21
497.941942
 31
0.0
  0
LINE
  5
C9
100
AcDbEntity
  8
0
 62
     0
100
AcDbLine
 10
-317.058059
 20
499.558059
 30
0.0
 11
-317.500001
 21
500.000001
 31
0.0
  0
LINE
  5
CA
100
AcDbEntity
  8
0
 62
     0
100
AcDbLine
 10
-320.000001
 20
502.500001
 30
0.0
 11
-320.441943
 21
502.941942
 31
0.0
  0
LINE
  5
CB
100
AcDbEntity
  8
0
 62
     0
100
AcDbLine
 10
-322.058059
 20
504.558059
 30
0.0
 11
-322.500001
 21
505.000001
 31
0.0
  0
LINE
  5
CC
100
AcDbEntity
  8
0
 62
     0
100
AcDbLine
 10
-315.0
 20
500.0
 30
0.0
 11
-315.000001
 21
500.000001
 31
0.0
  0
LINE
  5
CD
100
AcDbEntity
  8
0
 62
     0
100
AcDbLine
 10
-317.500001
 20
502.500001
 30
0.0
 11
-317.941943
 21
502.941942
 31
0.0
  0
LINE
  5
CE
100
AcDbEntity
  8
0
 62
     0
100
AcDbLine
 10
-319.558059
 20
504.558059
 30
0.0
 11
-320.000001
 21
505.000001
 31
0.0
  0
LINE
  5
CF
100
AcDbEntity
  8
0
 62
     0
100
AcDbLine
 10
-322.500001
 20
507.500001
 30
0.0
 11
-322.941943
 21
507.941942
 31
0.0
  0
LINE
  5
D0
100
AcDbEntity
  8
0
 62
     0
100
AcDbLine
 10
-324.558059
 20
509.558059
 30
0.0
 11
-325.0
 21
510.0
 31
0.0
  0
LINE
  5
D1
100
AcDbEntity
  8
0
 62
     0
100
AcDbLine
 10
-315.000001
 20
502.500001
 30
0.0
 11
-315.441943
 21
502.941942
 31
0.0
  0
LINE
  5
D2
100
AcDbEntity
  8
0
 62
     0
100
AcDbLine
 10
-317.058059
 20
504.558059
 30
0.0
 11
-317.500001
 21
505.000001
 31
0.0
  0
LINE
  5
D3
100
AcDbEntity
  8
0
 62
     0
100
AcDbLine
 10
-320.000001
 20
507.500001
 30
0.0
 11
-320.441943
 21
507.941942
 31
0.0
  0
LINE
  5
D4
100
AcDbEntity
  8
0
 62
     0
100
AcDbLine
 10
-322.058059
 20
509.558059
 30
0.0
 11
-322.500001
 21
510.000001
 31
0.0
  0
LINE
  5
D5
100
AcDbEntity
  8
0
 62
     0
100
AcDbLine
 10
-315.0
 20
505.0
 30
0.0
 11
-315.000001
 21
505.000001
 31
0.0
  0
LINE
  5
D6
100
AcDbEntity
  8
0
 62
     0
100
AcDbLine
 10
-317.500001
 20
507.500001
 30
0.0
 11
-317.941943
 21
507.941942
 31
0.0
  0
LINE
  5
D7
100
AcDbEntity
  8
0
 62
     0
100
AcDbLine
 10
-319.558059
 20
509.558059
 30
0.0
 11
-320.000001
 21
510.000001
 31
0.0
  0
LINE
  5
D8
100
AcDbEntity
  8
0
 62
     0
100
AcDbLine
 10
-322.500001
 20
512.500001
 30
0.0
 11
-322.941943
 21
512.941942
 31
0.0
  0
LINE
  5
D9
100
AcDbEntity
  8
0
 62
     0
100
AcDbLine
 10
-324.558059
 20
514.558059
 30
0.0
 11
-325.0
 21
515.0
 31
0.0
  0
LINE
  5
DA
100
AcDbEntity
  8
0
 62
     0
100
AcDbLine
 10
-315.000001
 20
507.500001
 30
0.0
 11
-315.441943
 21
507.941942
 31
0.0
  0
LINE
  5
DB
100
AcDbEntity
  8
0
 62
     0
100
AcDbLine
 10
-317.058059
 20
509.558059
 30
0.0
 11
-317.500001
 21
510.000001
 31
0.0
  0
LINE
  5
DC
100
AcDbEntity
  8
0
 62
     0
100
AcDbLine
 10
-320.000001
 20
512.500001
 30
0.0
 11
-320.441943
 21
512.941942
 31
0.0
  0
LINE
  5
DD
100
AcDbEntity
  8
0
 62
     0
100
AcDbLine
 10
-322.058059
 20
514.558059
 30
0.0
 11
-322.500001
 21
515.000001
 31
0.0
  0
LINE
  5
DE
100
AcDbEntity
  8
0
 62
     0
100
AcDbLine
 10
-315.0
 20
510.0
 30
0.0
 11
-315.000001
 21
510.000001
 31
0.0
  0
LINE
  5
DF
100
AcDbEntity
  8
0
 62
     0
100
AcDbLine
 10
-317.500001
 20
512.500001
 30
0.0
 11
-317.941943
 21
512.941942
 31
0.0
  0
LINE
  5
E0
100
AcDbEntity
  8
0
 62
     0
100
AcDbLine
 10
-319.558059
 20
514.558059
 30
0.0
 11
-320.000001
 21
515.000001
 31
0.0
  0
LINE
  5
E1
100
AcDbEntity
  8
0
 62
     0
100
AcDbLine
 10
-322.500001
 20
517.500001
 30
0.0
 11
-322.941943
 21
517.941942
 31
0.0
  0
LINE
  5
E2
100
AcDbEntity
  8
0
 62
     0
100
AcDbLine
 10
-324.558059
 20
519.558059
 30
0.0
 11
-325.0
 21
520.0
 31
0.0
  0
LINE
  5
E3
100
AcDbEntity
  8
0
 62
     0
100
AcDbLine
 10
-315.000001
 20
512.500001
 30
0.0
 11
-315.441943
 21
512.941942
 31
0.0
  0
LINE
  5
E4
100
AcDbEntity
  8
0
 62
     0
100
AcDbLine
 10
-317.058059
 20
514.558059
 30
0.0
 11
-317.500001
 21
515.000001
 31
0.0
  0
LINE
  5
E5
100
AcDbEntity
  8
0
 62
     0
100
AcDbLine
 10
-320.000001
 20
517.500001
 30
0.0
 11
-320.441943
 21
517.941942
 31
0.0
  0
LINE
  5
E6
100
AcDbEntity
  8
0
 62
     0
100
AcDbLine
 10
-322.058059
 20
519.558059
 30
0.0
 11
-322.500001
 21
520.000001
 31
0.0
  0
LINE
  5
E7
100
AcDbEntity
  8
0
 62
     0
100
AcDbLine
 10
-315.0
 20
515.0
 30
0.0
 11
-315.000001
 21
515.000001
 31
0.0
  0
LINE
  5
E8
100
AcDbEntity
  8
0
 62
     0
100
AcDbLine
 10
-317.500001
 20
517.500001
 30
0.0
 11
-317.941943
 21
517.941942
 31
0.0
  0
LINE
  5
E9
100
AcDbEntity
  8
0
 62
     0
100
AcDbLine
 10
-319.558059
 20
519.558059
 30
0.0
 11
-320.000001
 21
520.000001
 31
0.0
  0
LINE
  5
EA
100
AcDbEntity
  8
0
 62
     0
100
AcDbLine
 10
-322.500001
 20
522.500001
 30
0.0
 11
-322.941943
 21
522.941942
 31
0.0
  0
LINE
  5
EB
100
AcDbEntity
  8
0
 62
     0
100
AcDbLine
 10
-324.558059
 20
524.558059
 30
0.0
 11
-325.0
 21
525.0
 31
0.0
  0
LINE
  5
EC
100
AcDbEntity
  8
0
 62
     0
100
AcDbLine
 10
-315.000001
 20
517.500001
 30
0.0
 11
-315.441943
 21
517.941942
 31
0.0
  0
LINE
  5
ED
100
AcDbEntity
  8
0
 62
     0
100
AcDbLine
 10
-317.058059
 20
519.558059
 30
0.0
 11
-317.500001
 21
520.000001
 31
0.0
  0
LINE
  5
EE
100
AcDbEntity
  8
0
 62
     0
100
AcDbLine
 10
-320.000001
 20
522.500001
 30
0.0
 11
-320.441943
 21
522.941942
 31
0.0
  0
LINE
  5
EF
100
AcDbEntity
  8
0
 62
     0
100
AcDbLine
 10
-322.058059
 20
524.558059
 30
0.0
 11
-322.500001
 21
525.000001
 31
0.0
  0
LINE
  5
F0
100
AcDbEntity
  8
0
 62
     0
100
AcDbLine
 10
-315.0
 20
520.0
 30
0.0
 11
-315.000001
 21
520.000001
 31
0.0
  0
LINE
  5
F1
100
AcDbEntity
  8
0
 62
     0
100
AcDbLine
 10
-317.500001
 20
522.500001
 30
0.0
 11
-317.941943
 21
522.941942
 31
0.0
  0
LINE
  5
F2
100
AcDbEntity
  8
0
 62
     0
100
AcDbLine
 10
-319.558059
 20
524.558059
 30
0.0
 11
-320.000001
 21
525.000001
 31
0.0
  0
LINE
  5
F3
100
AcDbEntity
  8
0
 62
     0
100
AcDbLine
 10
-322.500001
 20
527.500001
 30
0.0
 11
-322.941943
 21
527.941942
 31
0.0
  0
LINE
  5
F4
100
AcDbEntity
  8
0
 62
     0
100
AcDbLine
 10
-324.558059
 20
529.558059
 30
0.0
 11
-325.0
 21
530.0
 31
0.0
  0
LINE
  5
F5
100
AcDbEntity
  8
0
 62
     0
100
AcDbLine
 10
-315.000001
 20
522.500001
 30
0.0
 11
-315.441943
 21
522.941942
 31
0.0
  0
LINE
  5
F6
100
AcDbEntity
  8
0
 62
     0
100
AcDbLine
 10
-317.058059
 20
524.558059
 30
0.0
 11
-317.500001
 21
525.000001
 31
0.0
  0
LINE
  5
F7
100
AcDbEntity
  8
0
 62
     0
100
AcDbLine
 10
-320.000001
 20
527.500001
 30
0.0
 11
-320.441943
 21
527.941942
 31
0.0
  0
LINE
  5
F8
100
AcDbEntity
  8
0
 62
     0
100
AcDbLine
 10
-322.058059
 20
529.558059
 30
0.0
 11
-322.500001
 21
530.000001
 31
0.0
  0
LINE
  5
F9
100
AcDbEntity
  8
0
 62
     0
100
AcDbLine
 10
-315.0
 20
525.0
 30
0.0
 11
-315.000001
 21
525.000001
 31
0.0
  0
LINE
  5
FA
100
AcDbEntity
  8
0
 62
     0
100
AcDbLine
 10
-317.500001
 20
527.500001
 30
0.0
 11
-317.941943
 21
527.941942
 31
0.0
  0
LINE
  5
FB
100
AcDbEntity
  8
0
 62
     0
100
AcDbLine
 10
-319.558059
 20
529.558059
 30
0.0
 11
-320.000001
 21
530.000001
 31
0.0
  0
LINE
  5
FC
100
AcDbEntity
  8
0
 62
     0
100
AcDbLine
 10
-322.500001
 20
532.500001
 30
0.0
 11
-322.941943
 21
532.941942
 31
0.0
  0
LINE
  5
FD
100
AcDbEntity
  8
0
 62
     0
100
AcDbLine
 10
-324.558059
 20
534.558059
 30
0.0
 11
-325.0
 21
535.0
 31
0.0
  0
LINE
  5
FE
100
AcDbEntity
  8
0
 62
     0
100
AcDbLine
 10
-315.000001
 20
527.500001
 30
0.0
 11
-315.441943
 21
527.941942
 31
0.0
  0
LINE
  5
FF
100
AcDbEntity
  8
0
 62
     0
100
AcDbLine
 10
-317.058059
 20
529.558059
 30
0.0
 11
-317.500001
 21
530.000001
 31
0.0
  0
LINE
  5
100
100
AcDbEntity
  8
0
 62
     0
100
AcDbLine
 10
-320.000001
 20
532.500001
 30
0.0
 11
-320.441943
 21
532.941942
 31
0.0
  0
LINE
  5
101
100
AcDbEntity
  8
0
 62
     0
100
AcDbLine
 10
-322.058059
 20
534.558059
 30
0.0
 11
-322.5
 21
535.0
 31
0.0
  0
LINE
  5
102
100
AcDbEntity
  8
0
 62
     0
100
AcDbLine
 10
-315.0
 20
530.0
 30
0.0
 11
-315.000001
 21
530.000001
 31
0.0
  0
LINE
  5
103
100
AcDbEntity
  8
0
 62
     0
100
AcDbLine
 10
-317.500001
 20
532.500001
 30
0.0
 11
-317.941943
 21
532.941942
 31
0.0
  0
LINE
  5
104
100
AcDbEntity
  8
0
 62
     0
100
AcDbLine
 10
-319.558059
 20
534.558059
 30
0.0
 11
-320.0
 21
535.0
 31
0.0
  0
LINE
  5
105
100
AcDbEntity
  8
0
 62
     0
100
AcDbLine
 10
-315.000001
 20
532.500001
 30
0.0
 11
-315.441943
 21
532.941942
 31
0.0
  0
LINE
  5
106
100
AcDbEntity
  8
0
 62
     0
100
AcDbLine
 10
-317.058059
 20
534.558059
 30
0.0
 11
-317.5
 21
535.0
 31
0.0
  0
ENDBLK
  5
108
100
AcDbEntity
  8
0
100
AcDbBlockEnd
  0
BLOCK
  5
186
100
AcDbEntity
  8
0
100
AcDbBlockBegin
  2
SP955010-585-10
 70
     0
 10
0.0
 20
0.0
 30
0.0
  3
SP955010-585-10
  1

  0
INSERT
  5
17E
100
AcDbEntity
  8
GLAS_MED_FOGNING
100
AcDbBlockReference
  2
HATSH
 10
0.0
 20
0.0
 30
0.0
  0
LWPOLYLINE
  5
17F
100
AcDbEntity
  8
SPKONTUR
100
AcDbPolyline
 90
        8
 70
     1
 43
0.0
 10
-50.0
 20
23.2
 42
-0.414214
 10
-48.2
 20
25.0
 10
-31.8
 20
25.0
 42
-0.414214
 10
-30.0
 20
23.2
 10
-30.0
 20
-58.2
 42
-0.414214
 10
-31.8
 20
-60.0
 10
-48.2
 20
-60.0
 42
-0.414214
 10
-50.0
 20
-58.2
  0
LWPOLYLINE
  5
180
100
AcDbEntity
  8
STALPROFIL
100
AcDbPolyline
 90
        8
 70
     1
 43
1.8
 10
-49.1
 20
23.2
 42
-0.414214
 10
-48.2
 20
24.1
 10
-31.8
 20
24.1
 42
-0.414214
 10
-30.9
 20
23.2
 10
-30.9
 20
-58.2
 42
-0.414214
 10
-31.8
 20
-59.1
 10
-48.2
 20
-59.1
 42
-0.414214
 10
-49.1
 20
-58.2
  0
LWPOLYLINE
  5
181
100
AcDbEntity
  8
STALPROFIL
100
AcDbPolyline
 90
       22
 70
     1
 43
1.8
 10
-8.114719
 20
17.5
 10
-8.1
 20
17.5
 42
-0.414214
 10
-6.5
 20
15.9
 10
-6.5
 20
13.8
 42
0.414214
 10
-3.8
 20
11.1
 10
-3.6
 20
11.1
 42
-0.414214
 10
-0.9
 20
8.4
 10
-0.9
 20
-58.2
 42
-0.414214
 10
-1.8
 20
-59.1
 10
-18.2
 20
-59.1
 42
-0.414214
 10
-19.1
 20
-58.2
 10
-19.1
 20
23.2
 42
-0.414214
 10
-18.2
 20
24.1
 10
-7.9
 20
24.1
 42
-0.414214
 10
-7.0
 20
23.199
 42
-0.414214
 10
-7.899
 20
22.3
 10
-12.6
 20
22.3
 42
0.414214
 10
-15.3
 20
19.6
 10
-15.3
 20
18.2
 42
0.414214
 10
-12.6
 20
15.5
 42
0.198912
 10
-9.842284
 20
16.642284
 10
-9.599643
 20
16.884924
 42
-0.198912
  0
LWPOLYLINE
  5
182
100
AcDbEntity
  8
SPKONTUR
100
AcDbPolyline
 90
       25
 70
     0
 43
0.0
 10
-8.1
 20
18.4
 10
-8.114719
 20
18.4
 10
-8.1
 20
18.4
 42
-0.414214
 10
-5.6
 20
15.9
 10
-5.6
 20
13.8
 42
0.414214
 10
-3.8
 20
12.0
 10
-3.6
 20
12.0
 42
-0.414214
 10
0.0
 20
8.4
 10
0.0
 20
-58.2
 42
-0.414214
 10
-1.8
 20
-60.0
 10
-18.2
 20
-60.0
 42
-0.414214
 10
-20.0
 20
-58.2
 10
-20.0
 20
23.2
 42
-0.414214
 10
-18.2
 20
25.0
 10
-7.9
 20
25.0
 42
-0.414214
 10
-6.1
 20
23.2
 10
-6.1
 20
23.199
 42
-0.414214
 10
-7.899
 20
21.4
 10
-12.6
 20
21.4
 42
0.414214
 10
-14.4
 20
19.6
 10
-14.4
 20
18.2
 42
0.414214
 10
-12.6
 20
16.4
 42
0.198912
 10
-10.47868
 20
17.27868
 10
-10.236039
 20
17.52132
 42
-0.198912
 10
-8.114719
 20
18.4
  0
LWPOLYLINE
  5
183
100
AcDbEntity
  8
GLAS_MED_FOGNING
100
AcDbPolyline
 90
        4
 70
     0
 43
0.0
 10
-20.0
 20
-58.2
 10
-20.0
 20
-60.0
 10
-30.0
 20
-60.0
 10
-30.0
 20
-58.2
  0
INSERT
  5
184
100
AcDbEntity
  8
GLAS_MED_FOGNING
100
AcDbBlockReference
  2
SP40010
 10
0.0
 20
0.0
 30
0.0
  0
LWPOLYLINE
  5
185
100
AcDbEntity
  8
GLAS_MED_FOGNING
100
AcDbPolyline
 90
        4
 70
     0
 43
0.0
 10
-20.0
 20
23.2
 10
-20.0
 20
25.0
 10
-30.0
 20
25.0
 10
-30.0
 20
23.2
  0
ENDBLK
  5
187
100
AcDbEntity
  8
0
100
AcDbBlockEnd
  0
BLOCK
  5
192
100
AcDbEntity
  8
0
100
AcDbBlockBegin
  2
SP955014-585-10
 70
     0
 10
0.0
 20
0.0
 30
0.0
  3
SP955014-585-10
  1

  0
INSERT
  5
18A
100
AcDbEntity
  8
GLAS_MED_FOGNING
100
AcDbBlockReference
  2
HATSH
 10
0.0
 20
0.0
 30
0.0
  0
LWPOLYLINE
  5
18B
100
AcDbEntity
  8
STALPROFIL
100
AcDbPolyline
 90
       22
 70
     1
 43
1.8
 10
-8.114719
 20
17.5
 10
-8.1
 20
17.5
 42
-0.414214
 10
-6.5
 20
15.9
 10
-6.5
 20
13.8
 42
0.414214
 10
-3.8
 20
11.1
 10
-3.6
 20
11.1
 42
-0.414214
 10
-0.9
 20
8.4
 10
-0.9
 20
-58.2
 42
-0.414214
 10
-1.8
 20
-59.1
 10
-18.2
 20
-59.1
 42
-0.414214
 10
-19.1
 20
-58.2
 10
-19.1
 20
23.2
 42
-0.414214
 10
-18.2
 20
24.1
 10
-7.9
 20
24.1
 42
-0.414214
 10
-7.0
 20
23.199
 42
-0.414214
 10
-7.899
 20
22.3
 10
-12.6
 20
22.3
 42
0.414214
 10
-15.3
 20
19.6
 10
-15.3
 20
18.2
 42
0.414214
 10
-12.6
 20
15.5
 42
0.198912
 10
-9.842284
 20
16.642284
 10
-9.599643
 20
16.884924
 42
-0.198912
  0
LWPOLYLINE
  5
18C
100
AcDbEntity
  8
SPKONTUR
100
AcDbPolyline
 90
       25
 70
     0
 43
0.0
 10
-8.1
 20
18.4
 10
-8.114719
 20
18.4
 10
-8.1
 20
18.4
 42
-0.414214
 10
-5.6
 20
15.9
 10
-5.6
 20
13.8
 42
0.414214
 10
-3.8
 20
12.0
 10
-3.6
 20
12.0
 42
-0.414214
 10
0.0
 20
8.4
 10
0.0
 20
-58.2
 42
-0.414214
 10
-1.8
 20
-60.0
 10
-18.2
 20
-60.0
 42
-0.414214
 10
-20.0
 20
-58.2
 10
-20.0
 20
23.2
 42
-0.414214
 10
-18.2
 20
25.0
 10
-7.9
 20
25.0
 42
-0.414214
 10
-6.1
 20
23.2
 10
-6.1
 20
23.199
 42
-0.414214
 10
-7.899
 20
21.4
 10
-12.6
 20
21.4
 42
0.414214
 10
-14.4
 20
19.6
 10
-14.4
 20
18.2
 42
0.414214
 10
-12.6
 20
16.4
 42
0.198912
 10
-10.47868
 20
17.27868
 10
-10.236039
 20
17.52132
 42
-0.198912
 10
-8.114719
 20
18.4
  0
LWPOLYLINE
  5
18D
100
AcDbEntity
  8
SPKONTUR
100
AcDbPolyline
 90
       11
 70
     1
 43
0.0
 10
-46.4
 20
-60.0
 10
-31.8
 20
-60.0
 42
0.414214
 10
-30.0
 20
-58.2
 10
-30.0
 20
23.2
 42
0.414214
 10
-31.8
 20
25.0
 10
-48.2
 20
25.0
 42
0.414214
 10
-50.0
 20
23.2
 10
-50.0
 20
-78.2
 42
0.414214
 10
-48.2
 20
-80.0
 10
-48.199
 20
-80.0
 42
0.414214
 10
-46.4
 20
-78.201
  0
LWPOLYLINE
  5
18E
100
AcDbEntity
  8
STALPROFIL
100
AcDbPolyline
 90
       11
 70
     1
 43
1.8
 10
-46.4
 20
-59.1
 10
-31.8
 20
-59.1
 42
0.414214
 10
-30.9
 20
-58.2
 10
-30.9
 20
23.2
 42
0.414214
 10
-31.8
 20
24.1
 10
-48.2
 20
24.1
 42
0.414214
 10
-49.1
 20
23.2
 10
-49.1
 20
-78.2
 42
0.414214
 10
-48.199
 20
-79.1
 42
0.414214
 10
-47.3
 20
-78.201
 10
-47.3
 20
-60.0
 42
-0.414214
  0
LWPOLYLINE
  5
18F
100
AcDbEntity
  8
GLAS_MED_FOGNING
100
AcDbPolyline
 90
        4
 70
     0
 43
0.0
 10
-20.0
 20
-58.2
 10
-20.0
 20
-60.0
 10
-30.0
 20
-60.0
 10
-30.0
 20
-58.2
  0
INSERT
  5
190
100
AcDbEntity
  8
GLAS_MED_FOGNING
100
AcDbBlockReference
  2
SP40010
 10
0.0
 20
0.0
 30
0.0
  0
LWPOLYLINE
  5
191
100
AcDbEntity
  8
GLAS_MED_FOGNING
100
AcDbPolyline
 90
        4
 70
     0
 43
0.0
 10
-20.0
 20
23.2
 10
-20.0
 20
25.0
 10
-30.0
 20
25.0
 10
-30.0
 20
23.2
  0
ENDBLK
  5
193
100
AcDbEntity
  8
0
100
AcDbBlockEnd
  0
BLOCK
  5
178
100
AcDbEntity
  8
0
100
AcDbBlockBegin
  2
SP955023-585-10
 70
     0
 10
0.0
 20
0.0
 30
0.0
  3
SP955023-585-10
  1

  0
INSERT
  5
171
100
AcDbEntity
  8
GLAS_MED_FOGNING
100
AcDbBlockReference
  2
HATSH
 10
0.0
 20
0.0
 30
0.0
  0
LWPOLYLINE
  5
172
100
AcDbEntity
  8
STALPROFIL
100
AcDbPolyline
 90
       11
 70
     1
 43
1.8
 10
-46.4
 20
24.1
 10
-31.8
 20
24.1
 42
-0.414214
 10
-30.9
 20
23.2
 10
-30.9
 20
-58.2
 42
-0.414214
 10
-31.8
 20
-59.1
 10
-48.2
 20
-59.1
 42
-0.414214
 10
-49.1
 20
-58.2
 10
-49.1
 20
43.2
 42
-0.414214
 10
-48.199
 20
44.1
 42
-0.414214
 10
-47.3
 20
43.201
 10
-47.3
 20
25.0
 42
0.414214
  0
LWPOLYLINE
  5
173
100
AcDbEntity
  8
SPKONTUR
100
AcDbPolyline
 90
       11
 70
     1
 43
0.0
 10
-46.4
 20
25.0
 10
-31.8
 20
25.0
 42
-0.414214
 10
-30.0
 20
23.2
 10
-30.0
 20
-58.2
 42
-0.414214
 10
-31.8
 20
-60.0
 10
-48.2
 20
-60.0
 42
-0.414214
 10
-50.0
 20
-58.2
 10
-50.0
 20
43.2
 42
-0.414214
 10
-48.2
 20
45.0
 10
-48.199
 20
45.0
 42
-0.414214
 10
-46.4
 20
43.201
  0
LWPOLYLINE
  5
174
100
AcDbEntity
  8
STALPROFIL
100
AcDbPolyline
 90
       11
 70
     1
 43
1.8
 10
-3.6
 20
-59.1
 10
-18.2
 20
-59.1
 42
-0.414214
 10
-19.1
 20
-58.2
 10
-19.1
 20
23.2
 42
-0.414214
 10
-18.2
 20
24.1
 10
-1.8
 20
24.1
 42
-0.414214
 10
-0.9
 20
23.2
 10
-0.9
 20
-78.2
 42
-0.414214
 10
-1.801
 20
-79.1
 42
-0.414214
 10
-2.7
 20
-78.201
 10
-2.7
 20
-60.0
 42
0.414214
  0
LWPOLYLINE
  5
175
100
AcDbEntity
  8
SPKONTUR
100
AcDbPolyline
 90
       11
 70
     1
 43
0.0
 10
-3.6
 20
-60.0
 10
-18.2
 20
-60.0
 42
-0.414214
 10
-20.0
 20
-58.2
 10
-20.0
 20
23.2
 42
-0.414214
 10
-18.2
 20
25.0
 10
-1.8
 20
25.0
 42
-0.414214
 10
0.0
 20
23.2
 10
0.0
 20
-78.2
 42
-0.414214
 10
-1.8
 20
-80.0
 10
-1.801
 20
-80.0
 42
-0.414214
 10
-3.6
 20
-78.201
  0
LWPOLYLINE
  5
176
100
AcDbEntity
  8
GLAS_MED_FOGNING
100
AcDbPolyline
 90
        4
 70
     0
 43
0.0
 10
-20.0
 20
-58.2
 10
-20.0
 20
-60.0
 10
-30.0
 20
-60.0
 10
-30.0
 20
-58.2
  0
LWPOLYLINE
  5
177
100
AcDbEntity
  8
GLAS_MED_FOGNING
100
AcDbPolyline
 90
        4
 70
     0
 43
0.0
 10
-20.0
 20
23.2
 10
-20.0
 20
25.0
 10
-30.0
 20
25.0
 10
-30.0
 20
23.2
  0
ENDBLK
  5
179
100
AcDbEntity
  8
0
100
AcDbBlockEnd
  0
BLOCK
  5
19E
100
AcDbEntity
  8
0
100
AcDbBlockBegin
  2
SP955011-585-10
 70
     0
 10
0.0
 20
0.0
 30
0.0
  3
SP955011-585-10
  1

  0
LWPOLYLINE
  5
196
100
AcDbEntity
  8
STALPROFIL
100
AcDbPolyline
 90
       11
 70
     1
 43
1.8
 10
-46.4
 20
24.1
 10
-31.8
 20
24.1
 42
-0.414214
 10
-30.9
 20
23.2
 10
-30.9
 20
-58.2
 42
-0.414214
 10
-31.8
 20
-59.1
 10
-48.2
 20
-59.1
 42
-0.414214
 10
-49.1
 20
-58.2
 10
-49.1
 20
43.2
 42
-0.414214
 10
-48.199
 20
44.1
 42
-0.414214
 10
-47.3
 20
43.201
 10
-47.3
 20
25.0
 42
0.414214
  0
LWPOLYLINE
  5
197
100
AcDbEntity
  8
SPKONTUR
100
AcDbPolyline
 90
       11
 70
     1
 43
0.0
 10
-46.4
 20
25.0
 10
-31.8
 20
25.0
 42
-0.414214
 10
-30.0
 20
23.2
 10
-30.0
 20
-58.2
 42
-0.414214
 10
-31.8
 20
-60.0
 10
-48.2
 20
-60.0
 42
-0.414214
 10
-50.0
 20
-58.2
 10
-50.0
 20
43.2
 42
-0.414214
 10
-48.2
 20
45.0
 10
-48.199
 20
45.0
 42
-0.414214
 10
-46.4
 20
43.201
  0
INSERT
  5
198
100
AcDbEntity
  8
GLAS_MED_FOGNING
100
AcDbBlockReference
  2
HATSH
 10
0.0
 20
0.0
 30
0.0
  0
LWPOLYLINE
  5
199
100
AcDbEntity
  8
SPKONTUR
100
AcDbPolyline
 90
       25
 70
     0
 43
0.0
 10
-8.1
 20
18.4
 10
-8.114719
 20
18.4
 10
-8.1
 20
18.4
 42
-0.414214
 10
-5.6
 20
15.9
 10
-5.6
 20
13.8
 42
0.414214
 10
-3.8
 20
12.0
 10
-3.6
 20
12.0
 42
-0.414214
 10
0.0
 20
8.4
 10
0.0
 20
-58.2
 42
-0.414214
 10
-1.8
 20
-60.0
 10
-18.2
 20
-60.0
 42
-0.414214
 10
-20.0
 20
-58.2
 10
-20.0
 20
23.2
 42
-0.414214
 10
-18.2
 20
25.0
 10
-7.9
 20
25.0
 42
-0.414214
 10
-6.1
 20
23.2
 10
-6.1
 20
23.199
 42
-0.414214
 10
-7.899
 20
21.4
 10
-12.6
 20
21.4
 42
0.414214
 10
-14.4
 20
19.6
 10
-14.4
 20
18.2
 42
0.414214
 10
-12.6
 20
16.4
 42
0.198912
 10
-10.47868
 20
17.27868
 10
-10.236039
 20
17.52132
 42
-0.198912
 10
-8.114719
 20
18.4
  0
LWPOLYLINE
  5
19A
100
AcDbEntity
  8
STALPROFIL
100
AcDbPolyline
 90
       22
 70
     1
 43
1.8
 10
-8.114719
 20
17.5
 10
-8.1
 20
17.5
 42
-0.414214
 10
-6.5
 20
15.9
 10
-6.5
 20
13.8
 42
0.414214
 10
-3.8
 20
11.1
 10
-3.6
 20
11.1
 42
-0.414214
 10
-0.9
 20
8.4
 10
-0.9
 20
-58.2
 42
-0.414214
 10
-1.8
 20
-59.1
 10
-18.2
 20
-59.1
 42
-0.414214
 10
-19.1
 20
-58.2
 10
-19.1
 20
23.2
 42
-0.414214
 10
-18.2
 20
24.1
 10
-7.9
 20
24.1
 42
-0.414214
 10
-7.0
 20
23.199
 42
-0.414214
 10
-7.899
 20
22.3
 10
-12.6
 20
22.3
 42
0.414214
 10
-15.3
 20
19.6
 10
-15.3
 20
18.2
 42
0.414214
 10
-12.6
 20
15.5
 42
0.198912
 10
-9.842284
 20
16.642284
 10
-9.599643
 20
16.884924
 42
-0.198912
  0
LWPOLYLINE
  5
19B
100
AcDbEntity
  8
GLAS_MED_FOGNING
100
AcDbPolyline
 90
        4
 70
     0
 43
0.0
 10
-20.0
 20
-58.2
 10
-20.0
 20
-60.0
 10
-30.0
 20
-60.0
 10
-30.0
 20
-58.2
  0
LWPOLYLINE
  5
19C
100
AcDbEntity
  8
GLAS_MED_FOGNING
100
AcDbPolyline
 90
        4
 70
     0
 43
0.0
 10
-20.0
 20
23.2
 10
-20.0
 20
25.0
 10
-30.0
 20
25.0
 10
-30.0
 20
23.2
  0
INSERT
  5
19D
100
AcDbEntity
  8
GLAS_MED_FOGNING
100
AcDbBlockReference
  2
SP40010
 10
0.0
 20
0.0
 30
0.0
  0
ENDBLK
  5
19F
100
AcDbEntity
  8
0
100
AcDbBlockEnd
  0
BLOCK
  5
1AB
100
AcDbEntity
  8
0
100
AcDbBlockBegin
  2
SP955020-585-10
 70
     0
 10
0.0
 20
0.0
 30
0.0
  3
SP955020-585-10
  1

  0
INSERT
  5
1A4
100
AcDbEntity
  8
GLAS_MED_FOGNING
100
AcDbBlockReference
  2
HATSH
 10
0.0
 20
0.0
 30
0.0
  0
LWPOLYLINE
  5
1A5
100
AcDbEntity
  8
SPKONTUR
100
AcDbPolyline
 90
        8
 70
     1
 43
0.0
 10
-20.0
 20
23.2
 42
-0.414214
 10
-18.2
 20
25.0
 10
-1.8
 20
25.0
 42
-0.414214
 10
0.0
 20
23.2
 10
0.0
 20
-58.2
 42
-0.414214
 10
-1.8
 20
-60.0
 10
-18.2
 20
-60.0
 42
-0.414214
 10
-20.0
 20
-58.2
  0
LWPOLYLINE
  5
1A6
100
AcDbEntity
  8
STALPROFIL
100
AcDbPolyline
 90
        8
 70
     1
 43
1.8
 10
-19.1
 20
23.2
 42
-0.414214
 10
-18.2
 20
24.1
 10
-1.8
 20
24.1
 42
-0.414214
 10
-0.9
 20
23.2
 10
-0.9
 20
-58.2
 42
-0.414214
 10
-1.8
 20
-59.1
 10
-18.2
 20
-59.1
 42
-0.414214
 10
-19.1
 20
-58.2
  0
LWPOLYLINE
  5
1A7
100
AcDbEntity
  8
STALPROFIL
100
AcDbPolyline
 90
        8
 70
     1
 43
1.8
 10
-49.1
 20
23.2
 42
-0.414214
 10
-48.2
 20
24.1
 10
-31.8
 20
24.1
 42
-0.414214
 10
-30.9
 20
23.2
 10
-30.9
 20
-58.2
 42
-0.414214
 10
-31.8
 20
-59.1
 10
-48.2
 20
-59.1
 42
-0.414214
 10
-49.1
 20
-58.2
  0
LWPOLYLINE
  5
1A8
100
AcDbEntity
  8
SPKONTUR
100
AcDbPolyline
 90
        8
 70
     1
 43
0.0
 10
-50.0
 20
23.2
 42
-0.414214
 10
-48.2
 20
25.0
 10
-31.8
 20
25.0
 42
-0.414214
 10
-30.0
 20
23.2
 10
-30.0
 20
-58.2
 42
-0.414214
 10
-31.8
 20
-60.0
 10
-48.2
 20
-60.0
 42
-0.414214
 10
-50.0
 20
-58.2
  0
LWPOLYLINE
  5
1A9
100
AcDbEntity
  8
GLAS_MED_FOGNING
100
AcDbPolyline
 90
        4
 70
     0
 43
0.0
 10
-20.0
 20
-58.2
 10
-20.0
 20
-60.0
 10
-30.0
 20
-60.0
 10
-30.0
 20
-58.2
  0
LWPOLYLINE
  5
1AA
100
AcDbEntity
  8
GLAS_MED_FOGNING
100
AcDbPolyline
 90
        4
 70
     0
 43
0.0
 10
-20.0
 20
23.2
 10
-20.0
 20
25.0
 10
-30.0
 20
25.0
 10
-30.0
 20
23.2
  0
ENDBLK
  5
1AC
100
AcDbEntity
  8
0
100
AcDbBlockEnd
  0
BLOCK
  5
16D
100
AcDbEntity
  8
0
100
AcDbBlockBegin
  2
SP955024-585-10
 70
     0
 10
0.0
 20
0.0
 30
0.0
  3
SP955024-585-10
  1

  0
INSERT
  5
166
100
AcDbEntity
  8
GLAS_MED_FOGNING
100
AcDbBlockReference
  2
HATSH
 10
0.0
 20
0.0
 30
0.0
  0
LWPOLYLINE
  5
167
100
AcDbEntity
  8
SPKONTUR
100
AcDbPolyline
 90
       11
 70
     1
 43
0.0
 10
-46.4
 20
25.0
 10
-31.8
 20
25.0
 42
-0.414214
 10
-30.0
 20
23.2
 10
-30.0
 20
-58.2
 42
-0.414214
 10
-31.8
 20
-60.0
 10
-48.2
 20
-60.0
 42
-0.414214
 10
-50.0
 20
-58.2
 10
-50.0
 20
43.2
 42
-0.414214
 10
-48.2
 20
45.0
 10
-48.199
 20
45.0
 42
-0.414214
 10
-46.4
 20
43.201
  0
LWPOLYLINE
  5
168
100
AcDbEntity
  8
STALPROFIL
100
AcDbPolyline
 90
       11
 70
     1
 43
1.8
 10
-46.4
 20
24.1
 10
-31.8
 20
24.1
 42
-0.414214
 10
-30.9
 20
23.2
 10
-30.9
 20
-58.2
 42
-0.414214
 10
-31.8
 20
-59.1
 10
-48.2
 20
-59.1
 42
-0.414214
 10
-49.1
 20
-58.2
 10
-49.1
 20
43.2
 42
-0.414214
 10
-48.199
 20
44.1
 42
-0.414214
 10
-47.3
 20
43.201
 10
-47.3
 20
25.0
 42
0.414214
  0
LWPOLYLINE
  5
169
100
AcDbEntity
  8
SPKONTUR
100
AcDbPolyline
 90
       11
 70
     1
 43
0.0
 10
-3.6
 20
25.0
 10
-18.2
 20
25.0
 42
0.414214
 10
-20.0
 20
23.2
 10
-20.0
 20
-58.2
 42
0.414214
 10
-18.2
 20
-60.0
 10
-1.8
 20
-60.0
 42
0.414214
 10
0.0
 20
-58.2
 10
0.0
 20
43.2
 42
0.414214
 10
-1.8
 20
45.0
 10
-1.801
 20
45.0
 42
0.414214
 10
-3.6
 20
43.201
  0
LWPOLYLINE
  5
16A
100
AcDbEntity
  8
STALPROFIL
100
AcDbPolyline
 90
       11
 70
     1
 43
1.8
 10
-3.6
 20
24.1
 10
-18.2
 20
24.1
 42
0.414214
 10
-19.1
 20
23.2
 10
-19.1
 20
-58.2
 42
0.414214
 10
-18.2
 20
-59.1
 10
-1.8
 20
-59.1
 42
0.414214
 10
-0.9
 20
-58.2
 10
-0.9
 20
43.2
 42
0.414214
 10
-1.801
 20
44.1
 42
0.414214
 10
-2.7
 20
43.201
 10
-2.7
 20
25.0
 42
-0.414214
  0
LWPOLYLINE
  5
16B
100
AcDbEntity
  8
GLAS_MED_FOGNING
100
AcDbPolyline
 90
        4
 70
     0
 43
0.0
 10
-20.0
 20
-58.2
 10
-20.0
 20
-60.0
 10
-30.0
 20
-60.0
 10
-30.0
 20
-58.2
  0
LWPOLYLINE
  5
16C
100
AcDbEntity
  8
GLAS_MED_FOGNING
100
AcDbPolyline
 90
        4
 70
     0
 43
0.0
 10
-20.0
 20
23.2
 10
-20.0
 20
25.0
 10
-30.0
 20
25.0
 10
-30.0
 20
23.2
  0
ENDBLK
  5
16E
100
AcDbEntity
  8
0
100
AcDbBlockEnd
  0
BLOCK
  5
152
100
AcDbEntity
  8
0
100
AcDbBlockBegin
  2
SP955012-585-10
 70
     0
 10
0.0
 20
0.0
 30
0.0
  3
SP955012-585-10
  1

  0
INSERT
  5
14A
100
AcDbEntity
  8
GLAS_MED_FOGNING
100
AcDbBlockReference
  2
HATSH
 10
0.0
 20
0.0
 30
0.0
  0
LWPOLYLINE
  5
14B
100
AcDbEntity
  8
STALPROFIL
100
AcDbPolyline
 90
       16
 70
     1
 43
1.8
 10
-49.1
 20
0.0
 10
-49.1
 20
-78.2
 42
0.414214
 10
-48.199
 20
-79.1
 42
0.414214
 10
-47.3
 20
-78.201
 10
-47.3
 20
-60.0
 42
-0.414214
 10
-46.4
 20
-59.1
 10
-31.8
 20
-59.1
 42
0.414214
 10
-30.9
 20
-58.2
 10
-30.9
 20
0.0
 10
-30.9
 20
23.2
 42
0.414214
 10
-31.8
 20
24.1
 10
-46.4
 20
24.1
 42
-0.414214
 10
-47.3
 20
25.0
 10
-47.3
 20
43.201
 42
0.414214
 10
-48.2
 20
44.1
 42
0.414214
 10
-49.1
 20
43.2
  0
LWPOLYLINE
  5
14C
100
AcDbEntity
  8
SPKONTUR
100
AcDbPolyline
 90
       16
 70
     1
 43
0.0
 10
-50.0
 20
0.0
 10
-50.0
 20
-78.2
 42
0.414214
 10
-48.2
 20
-80.0
 10
-48.199
 20
-80.0
 42
0.414214
 10
-46.4
 20
-78.201
 10
-46.4
 20
-60.0
 10
-31.8
 20
-60.0
 42
0.414214
 10
-30.0
 20
-58.2
 10
-30.0
 20
0.0
 10
-30.0
 20
23.2
 42
0.414214
 10
-31.8
 20
25.0
 10
-46.4
 20
25.0
 10
-46.4
 20
43.201
 42
0.414214
 10
-48.199
 20
45.0
 10
-48.2
 20
45.0
 42
0.414214
 10
-50.0
 20
43.2
  0
LWPOLYLINE
  5
14D
100
AcDbEntity
  8
SPKONTUR
100
AcDbPolyline
 90
       25
 70
     0
 43
0.0
 10
-8.1
 20
18.4
 10
-8.114719
 20
18.4
 10
-8.1
 20
18.4
 42
-0.414214
 10
-5.6
 20
15.9
 10
-5.6
 20
13.8
 42
0.414214
 10
-3.8
 20
12.0
 10
-3.6
 20
12.0
 42
-0.414214
 10
0.0
 20
8.4
 10
0.0
 20
-58.2
 42
-0.414214
 10
-1.8
 20
-60.0
 10
-18.2
 20
-60.0
 42
-0.414214
 10
-20.0
 20
-58.2
 10
-20.0
 20
23.2
 42
-0.414214
 10
-18.2
 20
25.0
 10
-7.9
 20
25.0
 42
-0.414214
 10
-6.1
 20
23.2
 10
-6.1
 20
23.199
 42
-0.414214
 10
-7.899
 20
21.4
 10
-12.6
 20
21.4
 42
0.414214
 10
-14.4
 20
19.6
 10
-14.4
 20
18.2
 42
0.414214
 10
-12.6
 20
16.4
 42
0.198912
 10
-10.47868
 20
17.27868
 10
-10.236039
 20
17.52132
 42
-0.198912
 10
-8.114719
 20
18.4
  0
LWPOLYLINE
  5
14E
100
AcDbEntity
  8
STALPROFIL
100
AcDbPolyline
 90
       22
 70
     1
 43
1.8
 10
-8.114719
 20
17.5
 10
-8.1
 20
17.5
 42
-0.414214
 10
-6.5
 20
15.9
 10
-6.5
 20
13.8
 42
0.414214
 10
-3.8
 20
11.1
 10
-3.6
 20
11.1
 42
-0.414214
 10
-0.9
 20
8.4
 10
-0.9
 20
-58.2
 42
-0.414214
 10
-1.8
 20
-59.1
 10
-18.2
 20
-59.1
 42
-0.414214
 10
-19.1
 20
-58.2
 10
-19.1
 20
23.2
 42
-0.414214
 10
-18.2
 20
24.1
 10
-7.9
 20
24.1
 42
-0.414214
 10
-7.0
 20
23.199
 42
-0.414214
 10
-7.899
 20
22.3
 10
-12.6
 20
22.3
 42
0.414214
 10
-15.3
 20
19.6
 10
-15.3
 20
18.2
 42
0.414214
 10
-12.6
 20
15.5
 42
0.198912
 10
-9.842284
 20
16.642284
 10
-9.599643
 20
16.884924
 42
-0.198912
  0
LWPOLYLINE
  5
14F
100
AcDbEntity
  8
GLAS_MED_FOGNING
100
AcDbPolyline
 90
        4
 70
     0
 43
0.0
 10
-20.0
 20
-58.2
 10
-20.0
 20
-60.0
 10
-30.0
 20
-60.0
 10
-30.0
 20
-58.2
  0
LWPOLYLINE
  5
150
100
AcDbEntity
  8
GLAS_MED_FOGNING
100
AcDbPolyline
 90
        4
 70
     0
 43
0.0
 10
-20.0
 20
23.2
 10
-20.0
 20
25.0
 10
-30.0
 20
25.0
 10
-30.0
 20
23.2
  0
INSERT
  5
151
100
AcDbEntity
  8
GLAS_MED_FOGNING
100
AcDbBlockReference
  2
SP40010
 10
0.0
 20
0.0
 30
0.0
  0
ENDBLK
  5
153
100
AcDbEntity
  8
0
100
AcDbBlockEnd
  0
BLOCK
  5
15F
100
AcDbEntity
  8
0
100
AcDbBlockBegin
  2
SP955021-585-10
 70
     0
 10
0.0
 20
0.0
 30
0.0
  3
SP955021-585-10
  1

  0
INSERT
  5
158
100
AcDbEntity
  8
GLAS_MED_FOGNING
100
AcDbBlockReference
  2
HATSH
 10
0.0
 20
0.0
 30
0.0
  0
LWPOLYLINE
  5
159
100
AcDbEntity
  8
SPKONTUR
100
AcDbPolyline
 90
       11
 70
     1
 43
0.0
 10
-46.4
 20
25.0
 10
-31.8
 20
25.0
 42
-0.414214
 10
-30.0
 20
23.2
 10
-30.0
 20
-58.2
 42
-0.414214
 10
-31.8
 20
-60.0
 10
-48.2
 20
-60.0
 42
-0.414214
 10
-50.0
 20
-58.2
 10
-50.0
 20
43.2
 42
-0.414214
 10
-48.2
 20
45.0
 10
-48.199
 20
45.0
 42
-0.414214
 10
-46.4
 20
43.201
  0
LWPOLYLINE
  5
15A
100
AcDbEntity
  8
STALPROFIL
100
AcDbPolyline
 90
       11
 70
     1
 43
1.8
 10
-46.4
 20
24.1
 10
-31.8
 20
24.1
 42
-0.414214
 10
-30.9
 20
23.2
 10
-30.9
 20
-58.2
 42
-0.414214
 10
-31.8
 20
-59.1
 10
-48.2
 20
-59.1
 42
-0.414214
 10
-49.1
 20
-58.2
 10
-49.1
 20
43.2
 42
-0.414214
 10
-48.199
 20
44.1
 42
-0.414214
 10
-47.3
 20
43.201
 10
-47.3
 20
25.0
 42
0.414214
  0
LWPOLYLINE
  5
15B
100
AcDbEntity
  8
SPKONTUR
100
AcDbPolyline
 90
        8
 70
     1
 43
0.0
 10
-20.0
 20
23.2
 42
-0.414214
 10
-18.2
 20
25.0
 10
-1.8
 20
25.0
 42
-0.414214
 10
0.0
 20
23.2
 10
0.0
 20
-58.2
 42
-0.414214
 10
-1.8
 20
-60.0
 10
-18.2
 20
-60.0
 42
-0.414214
 10
-20.0
 20
-58.2
  0
LWPOLYLINE
  5
15C
100
AcDbEntity
  8
STALPROFIL
100
AcDbPolyline
 90
        8
 70
     1
 43
1.8
 10
-19.1
 20
23.2
 42
-0.414214
 10
-18.2
 20
24.1
 10
-1.8
 20
24.1
 42
-0.414214
 10
-0.9
 20
23.2
 10
-0.9
 20
-58.2
 42
-0.414214
 10
-1.8
 20
-59.1
 10
-18.2
 20
-59.1
 42
-0.414214
 10
-19.1
 20
-58.2
  0
LWPOLYLINE
  5
15D
100
AcDbEntity
  8
GLAS_MED_FOGNING
100
AcDbPolyline
 90
        4
 70
     0
 43
0.0
 10
-20.0
 20
-58.2
 10
-20.0
 20
-60.0
 10
-30.0
 20
-60.0
 10
-30.0
 20
-58.2
  0
LWPOLYLINE
  5
15E
100
AcDbEntity
  8
GLAS_MED_FOGNING
100
AcDbPolyline
 90
        4
 70
     0
 43
0.0
 10
-20.0
 20
23.2
 10
-20.0
 20
25.0
 10
-30.0
 20
25.0
 10
-30.0
 20
23.2
  0
ENDBLK
  5
160
100
AcDbEntity
  8
0
100
AcDbBlockEnd
  0
BLOCK
  5
113
100
AcDbEntity
  8
0
100
AcDbBlockBegin
  2
SP955025-585-10
 70
     0
 10
0.0
 20
0.0
 30
0.0
  3
SP955025-585-10
  1

  0
INSERT
  5
34
100
AcDbEntity
  8
GLAS_MED_FOGNING
100
AcDbBlockReference
  2
HATSH
 10
0.0
 20
0.0
 30
0.0
  0
LWPOLYLINE
  5
10B
100
AcDbEntity
  8
STALPROFIL
100
AcDbPolyline
 90
       16
 70
     1
 43
1.8
 10
-49.1
 20
0.0
 10
-49.1
 20
-78.2
 42
0.414214
 10
-48.199
 20
-79.1
 42
0.414214
 10
-47.3
 20
-78.201
 10
-47.3
 20
-60.0
 42
-0.414214
 10
-46.4
 20
-59.1
 10
-31.8
 20
-59.1
 42
0.414214
 10
-30.9
 20
-58.2
 10
-30.9
 20
0.0
 10
-30.9
 20
23.2
 42
0.414214
 10
-31.8
 20
24.1
 10
-46.4
 20
24.1
 42
-0.414214
 10
-47.3
 20
25.0
 10
-47.3
 20
43.201
 42
0.414214
 10
-48.2
 20
44.1
 42
0.414214
 10
-49.1
 20
43.2
  0
LWPOLYLINE
  5
10D
100
AcDbEntity
  8
SPKONTUR
100
AcDbPolyline
 90
       16
 70
     1
 43
0.0
 10
-50.0
 20
0.0
 10
-50.0
 20
-78.2
 42
0.414214
 10
-48.2
 20
-80.0
 10
-48.199
 20
-80.0
 42
0.414214
 10
-46.4
 20
-78.201
 10
-46.4
 20
-60.0
 10
-31.8
 20
-60.0
 42
0.414214
 10
-30.0
 20
-58.2
 10
-30.0
 20
0.0
 10
-30.0
 20
23.2
 42
0.414214
 10
-31.8
 20
25.0
 10
-46.4
 20
25.0
 10
-46.4
 20
43.201
 42
0.414214
 10
-48.199
 20
45.0
 10
-48.2
 20
45.0
 42
0.414214
 10
-50.0
 20
43.2
  0
LWPOLYLINE
  5
10F
100
AcDbEntity
  8
STALPROFIL
100
AcDbPolyline
 90
       11
 70
     1
 43
1.8
 10
-3.6
 20
24.1
 10
-18.2
 20
24.1
 42
0.414214
 10
-19.1
 20
23.2
 10
-19.1
 20
-58.2
 42
0.414214
 10
-18.2
 20
-59.1
 10
-1.8
 20
-59.1
 42
0.414214
 10
-0.9
 20
-58.2
 10
-0.9
 20
43.2
 42
0.414214
 10
-1.801
 20
44.1
 42
0.414214
 10
-2.7
 20
43.201
 10
-2.7
 20
25.0
 42
-0.414214
  0
LWPOLYLINE
  5
110
100
AcDbEntity
  8
SPKONTUR
100
AcDbPolyline
 90
       11
 70
     1
 43
0.0
 10
-3.6
 20
25.0
 10
-18.2
 20
25.0
 42
0.414214
 10
-20.0
 20
23.2
 10
-20.0
 20
-58.2
 42
0.414214
 10
-18.2
 20
-60.0
 10
-1.8
 20
-60.0
 42
0.414214
 10
0.0
 20
-58.2
 10
0.0
 20
43.2
 42
0.414214
 10
-1.8
 20
45.0
 10
-1.801
 20
45.0
 42
0.414214
 10
-3.6
 20
43.201
  0
LWPOLYLINE
  5
111
100
AcDbEntity
  8
GLAS_MED_FOGNING
100
AcDbPolyline
 90
        4
 70
     0
 43
0.0
 10
-20.0
 20
-58.2
 10
-20.0
 20
-60.0
 10
-30.0
 20
-60.0
 10
-30.0
 20
-58.2
  0
LWPOLYLINE
  5
112
100
AcDbEntity
  8
GLAS_MED_FOGNING
100
AcDbPolyline
 90
        4
 70
     0
 43
0.0
 10
-20.0
 20
23.2
 10
-20.0
 20
25.0
 10
-30.0
 20
25.0
 10
-30.0
 20
23.2
  0
ENDBLK
  5
114
100
AcDbEntity
  8
0
100
AcDbBlockEnd
  0
BLOCK
  5
13B
100
AcDbEntity
  8
0
100
AcDbBlockBegin
  2
SP955013-585-10
 70
     0
 10
0.0
 20
0.0
 30
0.0
  3
SP955013-585-10
  1

  0
INSERT
  5
11B
100
AcDbEntity
  8
0
100
AcDbBlockReference
  2
SP30001
 10
0.0
 20
-35.0
 30
0.0
 50
180.0
  0
LWPOLYLINE
  5
121
100
AcDbEntity
  8
STALPROFIL
100
AcDbPolyline
 90
       11
 70
     1
 43
1.8
 10
-46.4
 20
24.1
 10
-31.8
 20
24.1
 42
-0.414214
 10
-30.9
 20
23.2
 10
-30.9
 20
-58.2
 42
-0.414214
 10
-31.8
 20
-59.1
 10
-48.2
 20
-59.1
 42
-0.414214
 10
-49.1
 20
-58.2
 10
-49.1
 20
43.2
 42
-0.414214
 10
-48.199
 20
44.1
 42
-0.414214
 10
-47.3
 20
43.201
 10
-47.3
 20
25.0
 42
0.414214
  0
LWPOLYLINE
  5
122
100
AcDbEntity
  8
SPKONTUR
100
AcDbPolyline
 90
       11
 70
     1
 43
0.0
 10
-46.4
 20
25.0
 10
-31.8
 20
25.0
 42
-0.414214
 10
-30.0
 20
23.2
 10
-30.0
 20
-58.2
 42
-0.414214
 10
-31.8
 20
-60.0
 10
-48.2
 20
-60.0
 42
-0.414214
 10
-50.0
 20
-58.2
 10
-50.0
 20
43.2
 42
-0.414214
 10
-48.2
 20
45.0
 10
-48.199
 20
45.0
 42
-0.414214
 10
-46.4
 20
43.201
  0
INSERT
  5
123
100
AcDbEntity
  8
GLAS_MED_FOGNING
100
AcDbBlockReference
  2
HATSH
 10
0.0
 20
0.0
 30
0.0
  0
LWPOLYLINE
  5
124
100
AcDbEntity
  8
SPKONTUR
100
AcDbPolyline
 90
       25
 70
     0
 43
0.0
 10
-8.1
 20
18.4
 10
-8.114719
 20
18.4
 10
-8.1
 20
18.4
 42
-0.414214
 10
-5.6
 20
15.9
 10
-5.6
 20
13.8
 42
0.414214
 10
-3.8
 20
12.0
 10
-3.6
 20
12.0
 42
-0.414214
 10
0.0
 20
8.4
 10
0.0
 20
-58.2
 42
-0.414214
 10
-1.8
 20
-60.0
 10
-18.2
 20
-60.0
 42
-0.414214
 10
-20.0
 20
-58.2
 10
-20.0
 20
23.2
 42
-0.414214
 10
-18.2
 20
25.0
 10
-7.9
 20
25.0
 42
-0.414214
 10
-6.1
 20
23.2
 10
-6.1
 20
23.199
 42
-0.414214
 10
-7.899
 20
21.4
 10
-12.6
 20
21.4
 42
0.414214
 10
-14.4
 20
19.6
 10
-14.4
 20
18.2
 42
0.414214
 10
-12.6
 20
16.4
 42
0.198912
 10
-10.47868
 20
17.27868
 10
-10.236039
 20
17.52132
 42
-0.198912
 10
-8.114719
 20
18.4
  0
LWPOLYLINE
  5
125
100
AcDbEntity
  8
STALPROFIL
100
AcDbPolyline
 90
       22
 70
     1
 43
1.8
 10
-8.114719
 20
17.5
 10
-8.1
 20
17.5
 42
-0.414214
 10
-6.5
 20
15.9
 10
-6.5
 20
13.8
 42
0.414214
 10
-3.8
 20
11.1
 10
-3.6
 20
11.1
 42
-0.414214
 10
-0.9
 20
8.4
 10
-0.9
 20
-58.2
 42
-0.414214
 10
-1.8
 20
-59.1
 10
-18.2
 20
-59.1
 42
-0.414214
 10
-19.1
 20
-58.2
 10
-19.1
 20
23.2
 42
-0.414214
 10
-18.2
 20
24.1
 10
-7.9
 20
24.1
 42
-0.414214
 10
-7.0
 20
23.199
 42
-0.414214
 10
-7.899
 20
22.3
 10
-12.6
 20
22.3
 42
0.414214
 10
-15.3
 20
19.6
 10
-15.3
 20
18.2
 42
0.414214
 10
-12.6
 20
15.5
 42
0.198912
 10
-9.842284
 20
16.642284
 10
-9.599643
 20
16.884924
 42
-0.198912
  0
LWPOLYLINE
  5
126
100
AcDbEntity
  8
GLAS_MED_FOGNING
100
AcDbPolyline
 90
        4
 70
     0
 43
0.0
 10
-20.0
 20
-58.2
 10
-20.0
 20
-60.0
 10
-30.0
 20
-60.0
 10
-30.0
 20
-58.2
  0
LWPOLYLINE
  5
127
100
AcDbEntity
  8
GLAS_MED_FOGNING
100
AcDbPolyline
 90
        4
 70
     0
 43
0.0
 10
-20.0
 20
23.2
 10
-20.0
 20
25.0
 10
-30.0
 20
25.0
 10
-30.0
 20
23.2
  0
INSERT
  5
128
100
AcDbEntity
  8
GLAS_MED_FOGNING
100
AcDbBlockReference
  2
SP40010
 10
0.0
 20
0.0
 30
0.0
  0
ENDBLK
  5
13C
100
AcDbEntity
  8
0
100
AcDbBlockEnd
  0
BLOCK
  5
146
100
AcDbEntity
  8
0
100
AcDbBlockBegin
  2
SP955022-585-10
 70
     0
 10
0.0
 20
0.0
 30
0.0
  3
SP955022-585-10
  1

  0
LWPOLYLINE
  5
13F
100
AcDbEntity
  8
SPKONTUR
100
AcDbPolyline
 90
       16
 70
     1
 43
0.0
 10
-50.0
 20
0.0
 10
-50.0
 20
-78.2
 42
0.414214
 10
-48.2
 20
-80.0
 10
-48.199
 20
-80.0
 42
0.414214
 10
-46.4
 20
-78.201
 10
-46.4
 20
-60.0
 10
-31.8
 20
-60.0
 42
0.414214
 10
-30.0
 20
-58.2
 10
-30.0
 20
0.0
 10
-30.0
 20
23.2
 42
0.414214
 10
-31.8
 20
25.0
 10
-46.4
 20
25.0
 10
-46.4
 20
43.201
 42
0.414214
 10
-48.199
 20
45.0
 10
-48.2
 20
45.0
 42
0.414214
 10
-50.0
 20
43.2
  0
LWPOLYLINE
  5
140
100
AcDbEntity
  8
STALPROFIL
100
AcDbPolyline
 90
       16
 70
     1
 43
1.8
 10
-49.1
 20
0.0
 10
-49.1
 20
-78.2
 42
0.414214
 10
-48.199
 20
-79.1
 42
0.414214
 10
-47.3
 20
-78.201
 10
-47.3
 20
-60.0
 42
-0.414214
 10
-46.4
 20
-59.1
 10
-31.8
 20
-59.1
 42
0.414214
 10
-30.9
 20
-58.2
 10
-30.9
 20
0.0
 10
-30.9
 20
23.2
 42
0.414214
 10
-31.8
 20
24.1
 10
-46.4
 20
24.1
 42
-0.414214
 10
-47.3
 20
25.0
 10
-47.3
 20
43.201
 42
0.414214
 10
-48.2
 20
44.1
 42
0.414214
 10
-49.1
 20
43.2
  0
INSERT
  5
141
100
AcDbEntity
  8
GLAS_MED_FOGNING
100
AcDbBlockReference
  2
HATSH
 10
0.0
 20
0.0
 30
0.0
  0
LWPOLYLINE
  5
142
100
AcDbEntity
  8
STALPROFIL
100
AcDbPolyline
 90
        8
 70
     1
 43
1.8
 10
-19.1
 20
23.2
 42
-0.414214
 10
-18.2
 20
24.1
 10
-1.8
 20
24.1
 42
-0.414214
 10
-0.9
 20
23.2
 10
-0.9
 20
-58.2
 42
-0.414214
 10
-1.8
 20
-59.1
 10
-18.2
 20
-59.1
 42
-0.414214
 10
-19.1
 20
-58.2
  0
LWPOLYLINE
  5
143
100
AcDbEntity
  8
SPKONTUR
100
AcDbPolyline
 90
        8
 70
     1
 43
0.0
 10
-20.0
 20
23.2
 42
-0.414214
 10
-18.2
 20
25.0
 10
-1.8
 20
25.0
 42
-0.414214
 10
0.0
 20
23.2
 10
0.0
 20
-58.2
 42
-0.414214
 10
-1.8
 20
-60.0
 10
-18.2
 20
-60.0
 42
-0.414214
 10
-20.0
 20
-58.2
  0
LWPOLYLINE
  5
144
100
AcDbEntity
  8
GLAS_MED_FOGNING
100
AcDbPolyline
 90
        4
 70
     0
 43
0.0
 10
-20.0
 20
-58.2
 10
-20.0
 20
-60.0
 10
-30.0
 20
-60.0
 10
-30.0
 20
-58.2
  0
LWPOLYLINE
  5
145
100
AcDbEntity
  8
GLAS_MED_FOGNING
100
AcDbPolyline
 90
        4
 70
     0
 43
0.0
 10
-20.0
 20
23.2
 10
-20.0
 20
25.0
 10
-30.0
 20
25.0
 10
-30.0
 20
23.2
  0
ENDBLK
  5
147
100
AcDbEntity
  8
0
100
AcDbBlockEnd
  0
BLOCK
  5
1D1
100
AcDbEntity
  8
0
100
AcDbBlockBegin
  2
955010-550-10
 70
     0
 10
0.0
 20
0.0
 30
0.0
  3
955010-550-10
  1

  0
INSERT
  5
1C9
100
AcDbEntity
  8
GLAS_MED_FOGNING
100
AcDbBlockReference
  2
HATCH
 10
0.0
 20
0.0
 30
0.0
  0
LWPOLYLINE
  5
1CA
100
AcDbEntity
  8
SPKONTUR
100
AcDbPolyline
 90
        8
 70
     1
 43
0.0
 10
-50.0
 20
23.2
 42
-0.414214
 10
-48.2
 20
25.0
 10
-31.8
 20
25.0
 42
-0.414214
 10
-30.0
 20
23.2
 10
-30.0
 20
-23.2
 42
-0.414214
 10
-31.8
 20
-25.0
 10
-48.2
 20
-25.0
 42
-0.414214
 10
-50.0
 20
-23.2
  0
LWPOLYLINE
  5
1CB
100
AcDbEntity
  8
SPKONTUR
100
AcDbPolyline
 90
       25
 70
     0
 43
0.0
 10
-8.1
 20
18.4
 10
-8.114719
 20
18.4
 10
-8.1
 20
18.4
 42
-0.414214
 10
-5.6
 20
15.9
 10
-5.6
 20
13.8
 42
0.414214
 10
-3.8
 20
12.0
 10
-3.6
 20
12.0
 42
-0.414214
 10
0.0
 20
8.4
 10
0.0
 20
-23.2
 42
-0.414214
 10
-1.8
 20
-25.0
 10
-18.2
 20
-25.0
 42
-0.414214
 10
-20.0
 20
-23.2
 10
-20.0
 20
23.2
 42
-0.414214
 10
-18.2
 20
25.0
 10
-7.9
 20
25.0
 42
-0.414214
 10
-6.1
 20
23.2
 10
-6.1
 20
23.199
 42
-0.414214
 10
-7.899
 20
21.4
 10
-12.6
 20
21.4
 42
0.414214
 10
-14.4
 20
19.6
 10
-14.4
 20
18.2
 42
0.414214
 10
-12.6
 20
16.4
 42
0.198912
 10
-10.47868
 20
17.27868
 10
-10.236039
 20
17.52132
 42
-0.198912
 10
-8.114719
 20
18.4
  0
LWPOLYLINE
  5
1CC
100
AcDbEntity
  8
STALPROFIL
100
AcDbPolyline
 90
        8
 70
     1
 43
1.8
 10
-49.1
 20
23.2
 42
-0.414214
 10
-48.2
 20
24.1
 10
-31.8
 20
24.1
 42
-0.414214
 10
-30.9
 20
23.2
 10
-30.9
 20
-23.2
 42
-0.414214
 10
-31.8
 20
-24.1
 10
-48.2
 20
-24.1
 42
-0.414214
 10
-49.1
 20
-23.2
  0
LWPOLYLINE
  5
1CD
100
AcDbEntity
  8
STALPROFIL
100
AcDbPolyline
 90
       22
 70
     1
 43
1.8
 10
-8.114719
 20
17.5
 10
-8.1
 20
17.5
 42
-0.414214
 10
-6.5
 20
15.9
 10
-6.5
 20
13.8
 42
0.414214
 10
-3.8
 20
11.1
 10
-3.6
 20
11.1
 42
-0.414214
 10
-0.9
 20
8.4
 10
-0.9
 20
-23.2
 42
-0.414214
 10
-1.8
 20
-24.1
 10
-18.2
 20
-24.1
 42
-0.414214
 10
-19.1
 20
-23.2
 10
-19.1
 20
23.2
 42
-0.414214
 10
-18.2
 20
24.1
 10
-7.9
 20
24.1
 42
-0.414214
 10
-7.0
 20
23.199
 42
-0.414214
 10
-7.899
 20
22.3
 10
-12.6
 20
22.3
 42
0.414214
 10
-15.3
 20
19.6
 10
-15.3
 20
18.2
 42
0.414214
 10
-12.6
 20
15.5
 42
0.198912
 10
-9.842284
 20
16.642284
 10
-9.599643
 20
16.884924
 42
-0.198912
  0
LWPOLYLINE
  5
1CE
100
AcDbEntity
  8
GLAS_MED_FOGNING
100
AcDbPolyline
 90
        4
 70
     0
 43
0.0
 10
-20.0
 20
-23.2
 10
-20.0
 20
-25.0
 10
-30.0
 20
-25.0
 10
-30.0
 20
-23.2
  0
INSERT
  5
1CF
100
AcDbEntity
  8
GLAS_MED_FOGNING
100
AcDbBlockReference
  2
SP40010
 10
0.0
 20
0.0
 30
0.0
  0
LWPOLYLINE
  5
1D0
100
AcDbEntity
  8
GLAS_MED_FOGNING
100
AcDbPolyline
 90
        4
 70
     0
 43
0.0
 10
-20.0
 20
23.2
 10
-20.0
 20
25.0
 10
-30.0
 20
25.0
 10
-30.0
 20
23.2
  0
ENDBLK
  5
1D2
100
AcDbEntity
  8
0
100
AcDbBlockEnd
  0
BLOCK
  5
24F
100
AcDbEntity
  8
0
100
AcDbBlockBegin
  2
*X18
 70
     1
 10
0.0
 20
0.0
 30
0.0
  3
*X18
  1

  0
LINE
  5
1D4
100
AcDbEntity
  8
0
 62
     0
100
AcDbLine
 10
-320.0
 20
470.0
 30
0.0
 11
-320.0
 21
472.5
 31
0.0
  0
LINE
  5
1D5
100
AcDbEntity
  8
0
 62
     0
100
AcDbLine
 10
-320.0
 20
475.0
 30
0.0
 11
-320.0
 21
477.5
 31
0.0
  0
LINE
  5
1D6
100
AcDbEntity
  8
0
 62
     0
100
AcDbLine
 10
-320.0
 20
480.0
 30
0.0
 11
-320.0
 21
482.5
 31
0.0
  0
LINE
  5
1D7
100
AcDbEntity
  8
0
 62
     0
100
AcDbLine
 10
-320.0
 20
485.0
 30
0.0
 11
-320.0
 21
487.5
 31
0.0
  0
LINE
  5
1D8
100
AcDbEntity
  8
0
 62
     0
100
AcDbLine
 10
-320.0
 20
490.0
 30
0.0
 11
-320.0
 21
492.5
 31
0.0
  0
LINE
  5
1D9
100
AcDbEntity
  8
0
 62
     0
100
AcDbLine
 10
-320.0
 20
495.0
 30
0.0
 11
-320.0
 21
497.5
 31
0.0
  0
LINE
  5
1DA
100
AcDbEntity
  8
0
 62
     0
100
AcDbLine
 10
-320.0
 20
500.0
 30
0.0
 11
-320.0
 21
502.5
 31
0.0
  0
LINE
  5
1DB
100
AcDbEntity
  8
0
 62
     0
100
AcDbLine
 10
-320.0
 20
505.0
 30
0.0
 11
-320.0
 21
507.5
 31
0.0
  0
LINE
  5
1DC
100
AcDbEntity
  8
0
 62
     0
100
AcDbLine
 10
-320.0
 20
510.0
 30
0.0
 11
-320.0
 21
512.5
 31
0.0
  0
LINE
  5
1DD
100
AcDbEntity
  8
0
 62
     0
100
AcDbLine
 10
-320.0
 20
515.0
 30
0.0
 11
-320.0
 21
517.5
 31
0.0
  0
LINE
  5
1DE
100
AcDbEntity
  8
0
 62
     0
100
AcDbLine
 10
-322.5
 20
470.0
 30
0.0
 11
-322.5
 21
472.5
 31
0.0
  0
LINE
  5
1DF
100
AcDbEntity
  8
0
 62
     0
100
AcDbLine
 10
-322.5
 20
475.0
 30
0.0
 11
-322.5
 21
477.5
 31
0.0
  0
LINE
  5
1E0
100
AcDbEntity
  8
0
 62
     0
100
AcDbLine
 10
-322.5
 20
480.0
 30
0.0
 11
-322.5
 21
482.5
 31
0.0
  0
LINE
  5
1E1
100
AcDbEntity
  8
0
 62
     0
100
AcDbLine
 10
-322.5
 20
485.0
 30
0.0
 11
-322.5
 21
487.5
 31
0.0
  0
LINE
  5
1E2
100
AcDbEntity
  8
0
 62
     0
100
AcDbLine
 10
-322.5
 20
490.0
 30
0.0
 11
-322.5
 21
492.5
 31
0.0
  0
LINE
  5
1E3
100
AcDbEntity
  8
0
 62
     0
100
AcDbLine
 10
-322.5
 20
495.0
 30
0.0
 11
-322.5
 21
497.5
 31
0.0
  0
LINE
  5
1E4
100
AcDbEntity
  8
0
 62
     0
100
AcDbLine
 10
-322.5
 20
500.0
 30
0.0
 11
-322.5
 21
502.5
 31
0.0
  0
LINE
  5
1E5
100
AcDbEntity
  8
0
 62
     0
100
AcDbLine
 10
-322.5
 20
505.0
 30
0.0
 11
-322.5
 21
507.5
 31
0.0
  0
LINE
  5
1E6
100
AcDbEntity
  8
0
 62
     0
100
AcDbLine
 10
-322.5
 20
510.0
 30
0.0
 11
-322.5
 21
512.5
 31
0.0
  0
LINE
  5
1E7
100
AcDbEntity
  8
0
 62
     0
100
AcDbLine
 10
-322.5
 20
515.0
 30
0.0
 11
-322.5
 21
517.5
 31
0.0
  0
LINE
  5
1E8
100
AcDbEntity
  8
0
 62
     0
100
AcDbLine
 10
-317.5
 20
470.0
 30
0.0
 11
-317.5
 21
472.5
 31
0.0
  0
LINE
  5
1E9
100
AcDbEntity
  8
0
 62
     0
100
AcDbLine
 10
-317.5
 20
475.0
 30
0.0
 11
-317.5
 21
477.5
 31
0.0
  0
LINE
  5
1EA
100
AcDbEntity
  8
0
 62
     0
100
AcDbLine
 10
-317.5
 20
480.0
 30
0.0
 11
-317.5
 21
482.5
 31
0.0
  0
LINE
  5
1EB
100
AcDbEntity
  8
0
 62
     0
100
AcDbLine
 10
-317.5
 20
485.0
 30
0.0
 11
-317.5
 21
487.5
 31
0.0
  0
LINE
  5
1EC
100
AcDbEntity
  8
0
 62
     0
100
AcDbLine
 10
-317.5
 20
490.0
 30
0.0
 11
-317.5
 21
492.5
 31
0.0
  0
LINE
  5
1ED
100
AcDbEntity
  8
0
 62
     0
100
AcDbLine
 10
-317.5
 20
495.0
 30
0.0
 11
-317.5
 21
497.5
 31
0.0
  0
LINE
  5
1EE
100
AcDbEntity
  8
0
 62
     0
100
AcDbLine
 10
-317.5
 20
500.0
 30
0.0
 11
-317.5
 21
502.5
 31
0.0
  0
LINE
  5
1EF
100
AcDbEntity
  8
0
 62
     0
100
AcDbLine
 10
-317.5
 20
505.0
 30
0.0
 11
-317.5
 21
507.5
 31
0.0
  0
LINE
  5
1F0
100
AcDbEntity
  8
0
 62
     0
100
AcDbLine
 10
-317.5
 20
510.0
 30
0.0
 11
-317.5
 21
512.5
 31
0.0
  0
LINE
  5
1F1
100
AcDbEntity
  8
0
 62
     0
100
AcDbLine
 10
-317.5
 20
515.0
 30
0.0
 11
-317.5
 21
517.5
 31
0.0
  0
LINE
  5
1F2
100
AcDbEntity
  8
0
 62
     0
100
AcDbLine
 10
-315.0
 20
490.0
 30
0.0
 11
-315.000001
 21
490.000001
 31
0.0
  0
LINE
  5
1F3
100
AcDbEntity
  8
0
 62
     0
100
AcDbLine
 10
-317.500001
 20
492.500001
 30
0.0
 11
-317.941943
 21
492.941942
 31
0.0
  0
LINE
  5
1F4
100
AcDbEntity
  8
0
 62
     0
100
AcDbLine
 10
-319.558059
 20
494.558059
 30
0.0
 11
-320.000001
 21
495.000001
 31
0.0
  0
LINE
  5
1F5
100
AcDbEntity
  8
0
 62
     0
100
AcDbLine
 10
-322.500001
 20
497.500001
 30
0.0
 11
-322.941943
 21
497.941942
 31
0.0
  0
LINE
  5
1F6
100
AcDbEntity
  8
0
 62
     0
100
AcDbLine
 10
-324.558059
 20
499.558059
 30
0.0
 11
-325.0
 21
500.0
 31
0.0
  0
LINE
  5
1F7
100
AcDbEntity
  8
0
 62
     0
100
AcDbLine
 10
-315.000001
 20
487.500001
 30
0.0
 11
-315.441943
 21
487.941942
 31
0.0
  0
LINE
  5
1F8
100
AcDbEntity
  8
0
 62
     0
100
AcDbLine
 10
-317.058059
 20
489.558059
 30
0.0
 11
-317.500001
 21
490.000001
 31
0.0
  0
LINE
  5
1F9
100
AcDbEntity
  8
0
 62
     0
100
AcDbLine
 10
-320.000001
 20
492.500001
 30
0.0
 11
-320.441943
 21
492.941942
 31
0.0
  0
LINE
  5
1FA
100
AcDbEntity
  8
0
 62
     0
100
AcDbLine
 10
-322.058059
 20
494.558059
 30
0.0
 11
-322.500001
 21
495.000001
 31
0.0
  0
LINE
  5
1FB
100
AcDbEntity
  8
0
 62
     0
100
AcDbLine
 10
-315.0
 20
485.0
 30
0.0
 11
-315.000001
 21
485.000001
 31
0.0
  0
LINE
  5
1FC
100
AcDbEntity
  8
0
 62
     0
100
AcDbLine
 10
-317.500001
 20
487.500001
 30
0.0
 11
-317.941943
 21
487.941942
 31
0.0
  0
LINE
  5
1FD
100
AcDbEntity
  8
0
 62
     0
100
AcDbLine
 10
-319.558059
 20
489.558059
 30
0.0
 11
-320.000001
 21
490.000001
 31
0.0
  0
LINE
  5
1FE
100
AcDbEntity
  8
0
 62
     0
100
AcDbLine
 10
-322.500001
 20
492.500001
 30
0.0
 11
-322.941943
 21
492.941942
 31
0.0
  0
LINE
  5
1FF
100
AcDbEntity
  8
0
 62
     0
100
AcDbLine
 10
-324.558059
 20
494.558059
 30
0.0
 11
-325.0
 21
495.0
 31
0.0
  0
LINE
  5
200
100
AcDbEntity
  8
0
 62
     0
100
AcDbLine
 10
-315.000001
 20
482.500001
 30
0.0
 11
-315.441943
 21
482.941942
 31
0.0
  0
LINE
  5
201
100
AcDbEntity
  8
0
 62
     0
100
AcDbLine
 10
-317.058059
 20
484.558059
 30
0.0
 11
-317.500001
 21
485.000001
 31
0.0
  0
LINE
  5
202
100
AcDbEntity
  8
0
 62
     0
100
AcDbLine
 10
-320.000001
 20
487.500001
 30
0.0
 11
-320.441943
 21
487.941942
 31
0.0
  0
LINE
  5
203
100
AcDbEntity
  8
0
 62
     0
100
AcDbLine
 10
-322.058059
 20
489.558059
 30
0.0
 11
-322.500001
 21
490.000001
 31
0.0
  0
LINE
  5
204
100
AcDbEntity
  8
0
 62
     0
100
AcDbLine
 10
-315.0
 20
480.0
 30
0.0
 11
-315.000001
 21
480.000001
 31
0.0
  0
LINE
  5
205
100
AcDbEntity
  8
0
 62
     0
100
AcDbLine
 10
-317.500001
 20
482.500001
 30
0.0
 11
-317.941943
 21
482.941942
 31
0.0
  0
LINE
  5
206
100
AcDbEntity
  8
0
 62
     0
100
AcDbLine
 10
-319.558059
 20
484.558059
 30
0.0
 11
-320.000001
 21
485.000001
 31
0.0
  0
LINE
  5
207
100
AcDbEntity
  8
0
 62
     0
100
AcDbLine
 10
-322.500001
 20
487.500001
 30
0.0
 11
-322.941943
 21
487.941942
 31
0.0
  0
LINE
  5
208
100
AcDbEntity
  8
0
 62
     0
100
AcDbLine
 10
-324.558059
 20
489.558059
 30
0.0
 11
-325.0
 21
490.0
 31
0.0
  0
LINE
  5
209
100
AcDbEntity
  8
0
 62
     0
100
AcDbLine
 10
-315.000001
 20
477.500001
 30
0.0
 11
-315.441943
 21
477.941942
 31
0.0
  0
LINE
  5
20A
100
AcDbEntity
  8
0
 62
     0
100
AcDbLine
 10
-317.058059
 20
479.558059
 30
0.0
 11
-317.500001
 21
480.000001
 31
0.0
  0
LINE
  5
20B
100
AcDbEntity
  8
0
 62
     0
100
AcDbLine
 10
-320.000001
 20
482.500001
 30
0.0
 11
-320.441943
 21
482.941942
 31
0.0
  0
LINE
  5
20C
100
AcDbEntity
  8
0
 62
     0
100
AcDbLine
 10
-322.058059
 20
484.558059
 30
0.0
 11
-322.500001
 21
485.000001
 31
0.0
  0
LINE
  5
20D
100
AcDbEntity
  8
0
 62
     0
100
AcDbLine
 10
-315.0
 20
475.0
 30
0.0
 11
-315.000001
 21
475.000001
 31
0.0
  0
LINE
  5
20E
100
AcDbEntity
  8
0
 62
     0
100
AcDbLine
 10
-317.500001
 20
477.500001
 30
0.0
 11
-317.941943
 21
477.941942
 31
0.0
  0
LINE
  5
20F
100
AcDbEntity
  8
0
 62
     0
100
AcDbLine
 10
-319.558059
 20
479.558059
 30
0.0
 11
-320.000001
 21
480.000001
 31
0.0
  0
LINE
  5
210
100
AcDbEntity
  8
0
 62
     0
100
AcDbLine
 10
-322.500001
 20
482.500001
 30
0.0
 11
-322.941943
 21
482.941942
 31
0.0
  0
LINE
  5
211
100
AcDbEntity
  8
0
 62
     0
100
AcDbLine
 10
-324.558059
 20
484.558059
 30
0.0
 11
-325.0
 21
485.0
 31
0.0
  0
LINE
  5
212
100
AcDbEntity
  8
0
 62
     0
100
AcDbLine
 10
-315.000001
 20
472.500001
 30
0.0
 11
-315.441943
 21
472.941942
 31
0.0
  0
LINE
  5
213
100
AcDbEntity
  8
0
 62
     0
100
AcDbLine
 10
-317.058059
 20
474.558059
 30
0.0
 11
-317.500001
 21
475.000001
 31
0.0
  0
LINE
  5
214
100
AcDbEntity
  8
0
 62
     0
100
AcDbLine
 10
-320.000001
 20
477.500001
 30
0.0
 11
-320.441943
 21
477.941942
 31
0.0
  0
LINE
  5
215
100
AcDbEntity
  8
0
 62
     0
100
AcDbLine
 10
-322.058059
 20
479.558059
 30
0.0
 11
-322.500001
 21
480.000001
 31
0.0
  0
LINE
  5
216
100
AcDbEntity
  8
0
 62
     0
100
AcDbLine
 10
-315.0
 20
470.0
 30
0.0
 11
-315.000001
 21
470.000001
 31
0.0
  0
LINE
  5
217
100
AcDbEntity
  8
0
 62
     0
100
AcDbLine
 10
-317.500001
 20
472.500001
 30
0.0
 11
-317.941943
 21
472.941942
 31
0.0
  0
LINE
  5
218
100
AcDbEntity
  8
0
 62
     0
100
AcDbLine
 10
-319.558059
 20
474.558059
 30
0.0
 11
-320.000001
 21
475.000001
 31
0.0
  0
LINE
  5
219
100
AcDbEntity
  8
0
 62
     0
100
AcDbLine
 10
-322.500001
 20
477.500001
 30
0.0
 11
-322.941943
 21
477.941942
 31
0.0
  0
LINE
  5
21A
100
AcDbEntity
  8
0
 62
     0
100
AcDbLine
 10
-324.558059
 20
479.558059
 30
0.0
 11
-325.0
 21
480.0
 31
0.0
  0
LINE
  5
21B
100
AcDbEntity
  8
0
 62
     0
100
AcDbLine
 10
-317.5
 20
470.0
 30
0.0
 11
-317.500001
 21
470.000001
 31
0.0
  0
LINE
  5
21C
100
AcDbEntity
  8
0
 62
     0
100
AcDbLine
 10
-320.000001
 20
472.500001
 30
0.0
 11
-320.441943
 21
472.941942
 31
0.0
  0
LINE
  5
21D
100
AcDbEntity
  8
0
 62
     0
100
AcDbLine
 10
-322.058059
 20
474.558059
 30
0.0
 11
-322.500001
 21
475.000001
 31
0.0
  0
LINE
  5
21E
100
AcDbEntity
  8
0
 62
     0
100
AcDbLine
 10
-320.0
 20
470.0
 30
0.0
 11
-320.000001
 21
470.000001
 31
0.0
  0
LINE
  5
21F
100
AcDbEntity
  8
0
 62
     0
100
AcDbLine
 10
-322.500001
 20
472.500001
 30
0.0
 11
-322.941943
 21
472.941942
 31
0.0
  0
LINE
  5
220
100
AcDbEntity
  8
0
 62
     0
100
AcDbLine
 10
-324.558059
 20
474.558059
 30
0.0
 11
-325.0
 21
475.0
 31
0.0
  0
LINE
  5
221
100
AcDbEntity
  8
0
 62
     0
100
AcDbLine
 10
-322.5
 20
470.0
 30
0.0
 11
-322.500001
 21
470.000001
 31
0.0
  0
LINE
  5
222
100
AcDbEntity
  8
0
 62
     0
100
AcDbLine
 10
-315.000001
 20
492.500001
 30
0.0
 11
-315.441943
 21
492.941942
 31
0.0
  0
LINE
  5
223
100
AcDbEntity
  8
0
 62
     0
100
AcDbLine
 10
-317.058059
 20
494.558059
 30
0.0
 11
-317.500001
 21
495.000001
 31
0.0
  0
LINE
  5
224
100
AcDbEntity
  8
0
 62
     0
100
AcDbLine
 10
-320.000001
 20
497.500001
 30
0.0
 11
-320.441943
 21
497.941942
 31
0.0
  0
LINE
  5
225
100
AcDbEntity
  8
0
 62
     0
100
AcDbLine
 10
-322.058059
 20
499.558059
 30
0.0
 11
-322.500001
 21
500.000001
 31
0.0
  0
LINE
  5
226
100
AcDbEntity
  8
0
 62
     0
100
AcDbLine
 10
-315.0
 20
495.0
 30
0.0
 11
-315.000001
 21
495.000001
 31
0.0
  0
LINE
  5
227
100
AcDbEntity
  8
0
 62
     0
100
AcDbLine
 10
-317.500001
 20
497.500001
 30
0.0
 11
-317.941943
 21
497.941942
 31
0.0
  0
LINE
  5
228
100
AcDbEntity
  8
0
 62
     0
100
AcDbLine
 10
-319.558059
 20
499.558059
 30
0.0
 11
-320.000001
 21
500.000001
 31
0.0
  0
LINE
  5
229
100
AcDbEntity
  8
0
 62
     0
100
AcDbLine
 10
-322.500001
 20
502.500001
 30
0.0
 11
-322.941943
 21
502.941942
 31
0.0
  0
LINE
  5
22A
100
AcDbEntity
  8
0
 62
     0
100
AcDbLine
 10
-324.558059
 20
504.558059
 30
0.0
 11
-325.0
 21
505.0
 31
0.0
  0
LINE
  5
22B
100
AcDbEntity
  8
0
 62
     0
100
AcDbLine
 10
-315.000001
 20
497.500001
 30
0.0
 11
-315.441943
 21
497.941942
 31
0.0
  0
LINE
  5
22C
100
AcDbEntity
  8
0
 62
     0
100
AcDbLine
 10
-317.058059
 20
499.558059
 30
0.0
 11
-317.500001
 21
500.000001
 31
0.0
  0
LINE
  5
22D
100
AcDbEntity
  8
0
 62
     0
100
AcDbLine
 10
-320.000001
 20
502.500001
 30
0.0
 11
-320.441943
 21
502.941942
 31
0.0
  0
LINE
  5
22E
100
AcDbEntity
  8
0
 62
     0
100
AcDbLine
 10
-322.058059
 20
504.558059
 30
0.0
 11
-322.500001
 21
505.000001
 31
0.0
  0
LINE
  5
22F
100
AcDbEntity
  8
0
 62
     0
100
AcDbLine
 10
-315.0
 20
500.0
 30
0.0
 11
-315.000001
 21
500.000001
 31
0.0
  0
LINE
  5
230
100
AcDbEntity
  8
0
 62
     0
100
AcDbLine
 10
-317.500001
 20
502.500001
 30
0.0
 11
-317.941943
 21
502.941942
 31
0.0
  0
LINE
  5
231
100
AcDbEntity
  8
0
 62
     0
100
AcDbLine
 10
-319.558059
 20
504.558059
 30
0.0
 11
-320.000001
 21
505.000001
 31
0.0
  0
LINE
  5
232
100
AcDbEntity
  8
0
 62
     0
100
AcDbLine
 10
-322.500001
 20
507.500001
 30
0.0
 11
-322.941943
 21
507.941942
 31
0.0
  0
LINE
  5
233
100
AcDbEntity
  8
0
 62
     0
100
AcDbLine
 10
-324.558059
 20
509.558059
 30
0.0
 11
-325.0
 21
510.0
 31
0.0
  0
LINE
  5
234
100
AcDbEntity
  8
0
 62
     0
100
AcDbLine
 10
-315.000001
 20
502.500001
 30
0.0
 11
-315.441943
 21
502.941942
 31
0.0
  0
LINE
  5
235
100
AcDbEntity
  8
0
 62
     0
100
AcDbLine
 10
-317.058059
 20
504.558059
 30
0.0
 11
-317.500001
 21
505.000001
 31
0.0
  0
LINE
  5
236
100
AcDbEntity
  8
0
 62
     0
100
AcDbLine
 10
-320.000001
 20
507.500001
 30
0.0
 11
-320.441943
 21
507.941942
 31
0.0
  0
LINE
  5
237
100
AcDbEntity
  8
0
 62
     0
100
AcDbLine
 10
-322.058059
 20
509.558059
 30
0.0
 11
-322.500001
 21
510.000001
 31
0.0
  0
LINE
  5
238
100
AcDbEntity
  8
0
 62
     0
100
AcDbLine
 10
-315.0
 20
505.0
 30
0.0
 11
-315.000001
 21
505.000001
 31
0.0
  0
LINE
  5
239
100
AcDbEntity
  8
0
 62
     0
100
AcDbLine
 10
-317.500001
 20
507.500001
 30
0.0
 11
-317.941943
 21
507.941942
 31
0.0
  0
LINE
  5
23A
100
AcDbEntity
  8
0
 62
     0
100
AcDbLine
 10
-319.558059
 20
509.558059
 30
0.0
 11
-320.000001
 21
510.000001
 31
0.0
  0
LINE
  5
23B
100
AcDbEntity
  8
0
 62
     0
100
AcDbLine
 10
-322.500001
 20
512.500001
 30
0.0
 11
-322.941943
 21
512.941942
 31
0.0
  0
LINE
  5
23C
100
AcDbEntity
  8
0
 62
     0
100
AcDbLine
 10
-324.558059
 20
514.558059
 30
0.0
 11
-325.0
 21
515.0
 31
0.0
  0
LINE
  5
23D
100
AcDbEntity
  8
0
 62
     0
100
AcDbLine
 10
-315.000001
 20
507.500001
 30
0.0
 11
-315.441943
 21
507.941942
 31
0.0
  0
LINE
  5
23E
100
AcDbEntity
  8
0
 62
     0
100
AcDbLine
 10
-317.058059
 20
509.558059
 30
0.0
 11
-317.500001
 21
510.000001
 31
0.0
  0
LINE
  5
23F
100
AcDbEntity
  8
0
 62
     0
100
AcDbLine
 10
-320.000001
 20
512.500001
 30
0.0
 11
-320.441943
 21
512.941942
 31
0.0
  0
LINE
  5
240
100
AcDbEntity
  8
0
 62
     0
100
AcDbLine
 10
-322.058059
 20
514.558059
 30
0.0
 11
-322.500001
 21
515.000001
 31
0.0
  0
LINE
  5
241
100
AcDbEntity
  8
0
 62
     0
100
AcDbLine
 10
-315.0
 20
510.0
 30
0.0
 11
-315.000001
 21
510.000001
 31
0.0
  0
LINE
  5
242
100
AcDbEntity
  8
0
 62
     0
100
AcDbLine
 10
-317.500001
 20
512.500001
 30
0.0
 11
-317.941943
 21
512.941942
 31
0.0
  0
LINE
  5
243
100
AcDbEntity
  8
0
 62
     0
100
AcDbLine
 10
-319.558059
 20
514.558059
 30
0.0
 11
-320.000001
 21
515.000001
 31
0.0
  0
LINE
  5
244
100
AcDbEntity
  8
0
 62
     0
100
AcDbLine
 10
-322.500001
 20
517.500001
 30
0.0
 11
-322.941943
 21
517.941942
 31
0.0
  0
LINE
  5
245
100
AcDbEntity
  8
0
 62
     0
100
AcDbLine
 10
-324.558059
 20
519.558059
 30
0.0
 11
-325.0
 21
520.0
 31
0.0
  0
LINE
  5
246
100
AcDbEntity
  8
0
 62
     0
100
AcDbLine
 10
-315.000001
 20
512.500001
 30
0.0
 11
-315.441943
 21
512.941942
 31
0.0
  0
LINE
  5
247
100
AcDbEntity
  8
0
 62
     0
100
AcDbLine
 10
-317.058059
 20
514.558059
 30
0.0
 11
-317.500001
 21
515.000001
 31
0.0
  0
LINE
  5
248
100
AcDbEntity
  8
0
 62
     0
100
AcDbLine
 10
-320.000001
 20
517.500001
 30
0.0
 11
-320.441943
 21
517.941942
 31
0.0
  0
LINE
  5
249
100
AcDbEntity
  8
0
 62
     0
100
AcDbLine
 10
-322.058059
 20
519.558059
 30
0.0
 11
-322.5
 21
520.0
 31
0.0
  0
LINE
  5
24A
100
AcDbEntity
  8
0
 62
     0
100
AcDbLine
 10
-315.0
 20
515.0
 30
0.0
 11
-315.000001
 21
515.000001
 31
0.0
  0
LINE
  5
24B
100
AcDbEntity
  8
0
 62
     0
100
AcDbLine
 10
-317.500001
 20
517.500001
 30
0.0
 11
-317.941943
 21
517.941942
 31
0.0
  0
LINE
  5
24C
100
AcDbEntity
  8
0
 62
     0
100
AcDbLine
 10
-319.558059
 20
519.558059
 30
0.0
 11
-320.0
 21
520.0
 31
0.0
  0
LINE
  5
24D
100
AcDbEntity
  8
0
 62
     0
100
AcDbLine
 10
-315.000001
 20
517.500001
 30
0.0
 11
-315.441943
 21
517.941942
 31
0.0
  0
LINE
  5
24E
100
AcDbEntity
  8
0
 62
     0
100
AcDbLine
 10
-317.058059
 20
519.558059
 30
0.0
 11
-317.5
 21
520.0
 31
0.0
  0
ENDBLK
  5
250
100
AcDbEntity
  8
0
100
AcDbBlockEnd
  0
BLOCK
  5
253
100
AcDbEntity
  8
0
100
AcDbBlockBegin
  2
HATCH
 70
     0
 10
0.0
 20
0.0
 30
0.0
  3
HATCH
  1

  0
INSERT
  5
252
100
AcDbEntity
  8
GLAS_MED_FOGNING
100
AcDbBlockReference
  2
*X18
 10
295.0
 20
-495.0
 30
0.0
1001
ACAD
1000
HATCH
1002
{
1070
    16
1000
FLEX
1040
10.0
1040
1.570796
1002
}
  0
ENDBLK
  5
254
100
AcDbEntity
  8
0
100
AcDbBlockEnd
  0
BLOCK
  5
289
100
AcDbEntity
  8
0
100
AcDbBlockBegin
  2
*X20
 70
     1
 10
0.0
 20
0.0
 30
0.0
  3
*X20
  1

  0
LINE
  5
256
100
AcDbEntity
  8
0
 62
     0
100
AcDbLine
 10
-200.0
 20
190.0
 30
0.0
 11
-200.0
 21
192.5
 31
0.0
  0
LINE
  5
257
100
AcDbEntity
  8
0
 62
     0
100
AcDbLine
 10
-200.0
 20
195.0
 30
0.0
 11
-200.0
 21
197.5
 31
0.0
  0
LINE
  5
258
100
AcDbEntity
  8
0
 62
     0
100
AcDbLine
 10
-200.0
 20
200.0
 30
0.0
 11
-200.0
 21
202.5
 31
0.0
  0
LINE
  5
259
100
AcDbEntity
  8
0
 62
     0
100
AcDbLine
 10
-200.0
 20
205.0
 30
0.0
 11
-200.0
 21
207.5
 31
0.0
  0
LINE
  5
25A
100
AcDbEntity
  8
0
 62
     0
100
AcDbLine
 10
-202.5
 20
190.0
 30
0.0
 11
-202.5
 21
192.5
 31
0.0
  0
LINE
  5
25B
100
AcDbEntity
  8
0
 62
     0
100
AcDbLine
 10
-202.5
 20
195.0
 30
0.0
 11
-202.5
 21
197.5
 31
0.0
  0
LINE
  5
25C
100
AcDbEntity
  8
0
 62
     0
100
AcDbLine
 10
-202.5
 20
200.0
 30
0.0
 11
-202.5
 21
202.5
 31
0.0
  0
LINE
  5
25D
100
AcDbEntity
  8
0
 62
     0
100
AcDbLine
 10
-202.5
 20
205.0
 30
0.0
 11
-202.5
 21
207.5
 31
0.0
  0
LINE
  5
25E
100
AcDbEntity
  8
0
 62
     0
100
AcDbLine
 10
-197.5
 20
190.0
 30
0.0
 11
-197.5
 21
192.5
 31
0.0
  0
LINE
  5
25F
100
AcDbEntity
  8
0
 62
     0
100
AcDbLine
 10
-197.5
 20
195.0
 30
0.0
 11
-197.5
 21
197.5
 31
0.0
  0
LINE
  5
260
100
AcDbEntity
  8
0
 62
     0
100
AcDbLine
 10
-197.5
 20
200.0
 30
0.0
 11
-197.5
 21
202.5
 31
0.0
  0
LINE
  5
261
100
AcDbEntity
  8
0
 62
     0
100
AcDbLine
 10
-197.5
 20
205.0
 30
0.0
 11
-197.5
 21
207.5
 31
0.0
  0
LINE
  5
262
100
AcDbEntity
  8
0
 62
     0
100
AcDbLine
 10
-195.0
 20
195.0
 30
0.0
 11
-195.0
 21
195.0
 31
0.0
  0
LINE
  5
263
100
AcDbEntity
  8
0
 62
     0
100
AcDbLine
 10
-197.5
 20
197.5
 30
0.0
 11
-197.941942
 21
197.941942
 31
0.0
  0
LINE
  5
264
100
AcDbEntity
  8
0
 62
     0
100
AcDbLine
 10
-199.558058
 20
199.558058
 30
0.0
 11
-200.0
 21
200.0
 31
0.0
  0
LINE
  5
265
100
AcDbEntity
  8
0
 62
     0
100
AcDbLine
 10
-202.5
 20
202.5
 30
0.0
 11
-202.941942
 21
202.941942
 31
0.0
  0
LINE
  5
266
100
AcDbEntity
  8
0
 62
     0
100
AcDbLine
 10
-204.558058
 20
204.558058
 30
0.0
 11
-205.0
 21
205.0
 31
0.0
  0
LINE
  5
267
100
AcDbEntity
  8
0
 62
     0
100
AcDbLine
 10
-195.0
 20
192.5
 30
0.0
 11
-195.441942
 21
192.941942
 31
0.0
  0
LINE
  5
268
100
AcDbEntity
  8
0
 62
     0
100
AcDbLine
 10
-197.058058
 20
194.558058
 30
0.0
 11
-197.5
 21
195.0
 31
0.0
  0
LINE
  5
269
100
AcDbEntity
  8
0
 62
     0
100
AcDbLine
 10
-200.0
 20
197.5
 30
0.0
 11
-200.441942
 21
197.941942
 31
0.0
  0
LINE
  5
26A
100
AcDbEntity
  8
0
 62
     0
100
AcDbLine
 10
-202.058058
 20
199.558058
 30
0.0
 11
-202.5
 21
200.0
 31
0.0
  0
LINE
  5
26B
100
AcDbEntity
  8
0
 62
     0
100
AcDbLine
 10
-195.0
 20
190.0
 30
0.0
 11
-195.0
 21
190.0
 31
0.0
  0
LINE
  5
26C
100
AcDbEntity
  8
0
 62
     0
100
AcDbLine
 10
-197.5
 20
192.5
 30
0.0
 11
-197.941942
 21
192.941942
 31
0.0
  0
LINE
  5
26D
100
AcDbEntity
  8
0
 62
     0
100
AcDbLine
 10
-199.558058
 20
194.558058
 30
0.0
 11
-200.0
 21
195.0
 31
0.0
  0
LINE
  5
26E
100
AcDbEntity
  8
0
 62
     0
100
AcDbLine
 10
-202.5
 20
197.5
 30
0.0
 11
-202.941942
 21
197.941942
 31
0.0
  0
LINE
  5
26F
100
AcDbEntity
  8
0
 62
     0
100
AcDbLine
 10
-204.558058
 20
199.558058
 30
0.0
 11
-205.0
 21
200.0
 31
0.0
  0
LINE
  5
270
100
AcDbEntity
  8
0
 62
     0
100
AcDbLine
 10
-197.5
 20
190.0
 30
0.0
 11
-197.5
 21
190.0
 31
0.0
  0
LINE
  5
271
100
AcDbEntity
  8
0
 62
     0
100
AcDbLine
 10
-200.0
 20
192.5
 30
0.0
 11
-200.441942
 21
192.941942
 31
0.0
  0
LINE
  5
272
100
AcDbEntity
  8
0
 62
     0
100
AcDbLine
 10
-202.058058
 20
194.558058
 30
0.0
 11
-202.5
 21
195.0
 31
0.0
  0
LINE
  5
273
100
AcDbEntity
  8
0
 62
     0
100
AcDbLine
 10
-200.0
 20
190.0
 30
0.0
 11
-200.0
 21
190.0
 31
0.0
  0
LINE
  5
274
100
AcDbEntity
  8
0
 62
     0
100
AcDbLine
 10
-202.5
 20
192.5
 30
0.0
 11
-202.941942
 21
192.941942
 31
0.0
  0
LINE
  5
275
100
AcDbEntity
  8
0
 62
     0
100
AcDbLine
 10
-204.558058
 20
194.558058
 30
0.0
 11
-205.0
 21
195.0
 31
0.0
  0
LINE
  5
276
100
AcDbEntity
  8
0
 62
     0
100
AcDbLine
 10
-202.5
 20
190.0
 30
0.0
 11
-202.5
 21
190.0
 31
0.0
  0
LINE
  5
277
100
AcDbEntity
  8
0
 62
     0
100
AcDbLine
 10
-195.0
 20
197.5
 30
0.0
 11
-195.441942
 21
197.941942
 31
0.0
  0
LINE
  5
278
100
AcDbEntity
  8
0
 62
     0
100
AcDbLine
 10
-197.058058
 20
199.558058
 30
0.0
 11
-197.5
 21
200.0
 31
0.0
  0
LINE
  5
279
100
AcDbEntity
  8
0
 62
     0
100
AcDbLine
 10
-200.0
 20
202.5
 30
0.0
 11
-200.441942
 21
202.941942
 31
0.0
  0
LINE
  5
27A
100
AcDbEntity
  8
0
 62
     0
100
AcDbLine
 10
-202.058058
 20
204.558058
 30
0.0
 11
-202.5
 21
205.0
 31
0.0
  0
LINE
  5
27B
100
AcDbEntity
  8
0
 62
     0
100
AcDbLine
 10
-195.0
 20
200.0
 30
0.0
 11
-195.0
 21
200.0
 31
0.0
  0
LINE
  5
27C
100
AcDbEntity
  8
0
 62
     0
100
AcDbLine
 10
-197.5
 20
202.5
 30
0.0
 11
-197.941942
 21
202.941942
 31
0.0
  0
LINE
  5
27D
100
AcDbEntity
  8
0
 62
     0
100
AcDbLine
 10
-199.558058
 20
204.558058
 30
0.0
 11
-200.0
 21
205.0
 31
0.0
  0
LINE
  5
27E
100
AcDbEntity
  8
0
 62
     0
100
AcDbLine
 10
-202.5
 20
207.5
 30
0.0
 11
-202.941942
 21
207.941942
 31
0.0
  0
LINE
  5
27F
100
AcDbEntity
  8
0
 62
     0
100
AcDbLine
 10
-204.558059
 20
209.558059
 30
0.0
 11
-205.0
 21
210.0
 31
0.0
  0
LINE
  5
280
100
AcDbEntity
  8
0
 62
     0
100
AcDbLine
 10
-195.0
 20
202.5
 30
0.0
 11
-195.441942
 21
202.941942
 31
0.0
  0
LINE
  5
281
100
AcDbEntity
  8
0
 62
     0
100
AcDbLine
 10
-197.058059
 20
204.558058
 30
0.0
 11
-197.5
 21
205.0
 31
0.0
  0
LINE
  5
282
100
AcDbEntity
  8
0
 62
     0
100
AcDbLine
 10
-200.0
 20
207.5
 30
0.0
 11
-200.441942
 21
207.941942
 31
0.0
  0
LINE
  5
283
100
AcDbEntity
  8
0
 62
     0
100
AcDbLine
 10
-202.058059
 20
209.558059
 30
0.0
 11
-202.5
 21
210.0
 31
0.0
  0
LINE
  5
284
100
AcDbEntity
  8
0
 62
     0
100
AcDbLine
 10
-195.0
 20
205.0
 30
0.0
 11
-195.0
 21
205.0
 31
0.0
  0
LINE
  5
285
100
AcDbEntity
  8
0
 62
     0
100
AcDbLine
 10
-197.5
 20
207.5
 30
0.0
 11
-197.941942
 21
207.941942
 31
0.0
  0
LINE
  5
286
100
AcDbEntity
  8
0
 62
     0
100
AcDbLine
 10
-199.558059
 20
209.558059
 30
0.0
 11
-200.0
 21
210.0
 31
0.0
  0
LINE
  5
287
100
AcDbEntity
  8
0
 62
     0
100
AcDbLine
 10
-195.0
 20
207.5
 30
0.0
 11
-195.441942
 21
207.941942
 31
0.0
  0
LINE
  5
288
100
AcDbEntity
  8
0
 62
     0
100
AcDbLine
 10
-197.058059
 20
209.558059
 30
0.0
 11
-197.5
 21
210.0
 31
0.0
  0
ENDBLK
  5
28A
100
AcDbEntity
  8
0
100
AcDbBlockEnd
  0
BLOCK
  5
294
100
AcDbEntity
  8
0
100
AcDbBlockBegin
  2
955014-550-10
 70
     0
 10
0.0
 20
0.0
 30
0.0
  3
955014-550-10
  1

  0
INSERT
  5
28C
100
AcDbEntity
  8
GLAS_MED_FOGNING
100
AcDbBlockReference
  2
HATCH
 10
0.0
 20
0.0
 30
0.0
  0
LWPOLYLINE
  5
28D
100
AcDbEntity
  8
SPKONTUR
100
AcDbPolyline
 90
       11
 70
     1
 43
0.0
 10
-46.4
 20
-25.0
 10
-31.8
 20
-25.0
 42
0.414214
 10
-30.0
 20
-23.2
 10
-30.0
 20
23.2
 42
0.414214
 10
-31.8
 20
25.0
 10
-48.2
 20
25.0
 42
0.414214
 10
-50.0
 20
23.2
 10
-50.0
 20
-43.2
 42
0.414214
 10
-48.2
 20
-45.0
 10
-48.199
 20
-45.0
 42
0.414214
 10
-46.4
 20
-43.201
  0
LWPOLYLINE
  5
28E
100
AcDbEntity
  8
SPKONTUR
100
AcDbPolyline
 90
       25
 70
     0
 43
0.0
 10
-8.1
 20
18.4
 10
-8.114719
 20
18.4
 10
-8.1
 20
18.4
 42
-0.414214
 10
-5.6
 20
15.9
 10
-5.6
 20
13.8
 42
0.414214
 10
-3.8
 20
12.0
 10
-3.6
 20
12.0
 42
-0.414214
 10
0.0
 20
8.4
 10
0.0
 20
-23.2
 42
-0.414214
 10
-1.8
 20
-25.0
 10
-18.2
 20
-25.0
 42
-0.414214
 10
-20.0
 20
-23.2
 10
-20.0
 20
23.2
 42
-0.414214
 10
-18.2
 20
25.0
 10
-7.9
 20
25.0
 42
-0.414214
 10
-6.1
 20
23.2
 10
-6.1
 20
23.199
 42
-0.414214
 10
-7.899
 20
21.4
 10
-12.6
 20
21.4
 42
0.414214
 10
-14.4
 20
19.6
 10
-14.4
 20
18.2
 42
0.414214
 10
-12.6
 20
16.4
 42
0.198912
 10
-10.47868
 20
17.27868
 10
-10.236039
 20
17.52132
 42
-0.198912
 10
-8.114719
 20
18.4
  0
LWPOLYLINE
  5
28F
100
AcDbEntity
  8
STALPROFIL
100
AcDbPolyline
 90
       11
 70
     1
 43
1.8
 10
-46.4
 20
-24.1
 10
-31.8
 20
-24.1
 42
0.414214
 10
-30.9
 20
-23.2
 10
-30.9
 20
23.2
 42
0.414214
 10
-31.8
 20
24.1
 10
-48.2
 20
24.1
 42
0.414214
 10
-49.1
 20
23.2
 10
-49.1
 20
-43.2
 42
0.414214
 10
-48.199
 20
-44.1
 42
0.414214
 10
-47.3
 20
-43.201
 10
-47.3
 20
-25.0
 42
-0.414214
  0
LWPOLYLINE
  5
290
100
AcDbEntity
  8
STALPROFIL
100
AcDbPolyline
 90
       22
 70
     1
 43
1.8
 10
-8.114719
 20
17.5
 10
-8.1
 20
17.5
 42
-0.414214
 10
-6.5
 20
15.9
 10
-6.5
 20
13.8
 42
0.414214
 10
-3.8
 20
11.1
 10
-3.6
 20
11.1
 42
-0.414214
 10
-0.9
 20
8.4
 10
-0.9
 20
-23.2
 42
-0.414214
 10
-1.8
 20
-24.1
 10
-18.2
 20
-24.1
 42
-0.414214
 10
-19.1
 20
-23.2
 10
-19.1
 20
23.2
 42
-0.414214
 10
-18.2
 20
24.1
 10
-7.9
 20
24.1
 42
-0.414214
 10
-7.0
 20
23.199
 42
-0.414214
 10
-7.899
 20
22.3
 10
-12.6
 20
22.3
 42
0.414214
 10
-15.3
 20
19.6
 10
-15.3
 20
18.2
 42
0.414214
 10
-12.6
 20
15.5
 42
0.198912
 10
-9.842284
 20
16.642284
 10
-9.599643
 20
16.884924
 42
-0.198912
  0
LWPOLYLINE
  5
291
100
AcDbEntity
  8
GLAS_MED_FOGNING
100
AcDbPolyline
 90
        4
 70
     0
 43
0.0
 10
-20.0
 20
-23.2
 10
-20.0
 20
-25.0
 10
-30.0
 20
-25.0
 10
-30.0
 20
-23.2
  0
LWPOLYLINE
  5
292
100
AcDbEntity
  8
GLAS_MED_FOGNING
100
AcDbPolyline
 90
        4
 70
     0
 43
0.0
 10
-20.0
 20
23.2
 10
-20.0
 20
25.0
 10
-30.0
 20
25.0
 10
-30.0
 20
23.2
  0
INSERT
  5
293
100
AcDbEntity
  8
GLAS_MED_FOGNING
100
AcDbBlockReference
  2
SP40010
 10
0.0
 20
0.0
 30
0.0
  0
ENDBLK
  5
295
100
AcDbEntity
  8
0
100
AcDbBlockEnd
  0
BLOCK
  5
29E
100
AcDbEntity
  8
0
100
AcDbBlockBegin
  2
955022-550-10
 70
     0
 10
0.0
 20
0.0
 30
0.0
  3
955022-550-10
  1

  0
INSERT
  5
297
100
AcDbEntity
  8
GLAS_MED_FOGNING
100
AcDbBlockReference
  2
HATCH
 10
0.0
 20
0.0
 30
0.0
  0
LWPOLYLINE
  5
298
100
AcDbEntity
  8
SPKONTUR
100
AcDbPolyline
 90
       16
 70
     1
 43
0.0
 10
-50.0
 20
0.0
 10
-50.0
 20
-43.2
 42
0.414214
 10
-48.2
 20
-45.0
 10
-48.199
 20
-45.0
 42
0.414214
 10
-46.4
 20
-43.201
 10
-46.4
 20
-25.0
 10
-31.8
 20
-25.0
 42
0.414214
 10
-30.0
 20
-23.2
 10
-30.0
 20
0.0
 10
-30.0
 20
23.2
 42
0.414214
 10
-31.8
 20
25.0
 10
-46.4
 20
25.0
 10
-46.4
 20
43.201
 42
0.414214
 10
-48.199
 20
45.0
 10
-48.2
 20
45.0
 42
0.414214
 10
-50.0
 20
43.2
  0
LWPOLYLINE
  5
299
100
AcDbEntity
  8
SPKONTUR
100
AcDbPolyline
 90
        8
 70
     1
 43
0.0
 10
-20.0
 20
23.2
 42
-0.414214
 10
-18.2
 20
25.0
 10
-1.8
 20
25.0
 42
-0.414214
 10
0.0
 20
23.2
 10
0.0
 20
-23.2
 42
-0.414214
 10
-1.8
 20
-25.0
 10
-18.2
 20
-25.0
 42
-0.414214
 10
-20.0
 20
-23.2
  0
LWPOLYLINE
  5
29A
100
AcDbEntity
  8
STALPROFIL
100
AcDbPolyline
 90
       16
 70
     1
 43
1.8
 10
-49.1
 20
0.0
 10
-49.1
 20
-43.2
 42
0.414214
 10
-48.199
 20
-44.1
 42
0.414214
 10
-47.3
 20
-43.201
 10
-47.3
 20
-25.0
 42
-0.414214
 10
-46.4
 20
-24.1
 10
-31.8
 20
-24.1
 42
0.414214
 10
-30.9
 20
-23.2
 10
-30.9
 20
0.0
 10
-30.9
 20
23.2
 42
0.414214
 10
-31.8
 20
24.1
 10
-46.4
 20
24.1
 42
-0.414214
 10
-47.3
 20
25.0
 10
-47.3
 20
43.201
 42
0.414214
 10
-48.2
 20
44.1
 42
0.414214
 10
-49.1
 20
43.2
  0
LWPOLYLINE
  5
29B
100
AcDbEntity
  8
STALPROFIL
100
AcDbPolyline
 90
        8
 70
     1
 43
1.8
 10
-19.1
 20
23.2
 42
-0.414214
 10
-18.2
 20
24.1
 10
-1.8
 20
24.1
 42
-0.414214
 10
-0.9
 20
23.2
 10
-0.9
 20
-23.2
 42
-0.414214
 10
-1.8
 20
-24.1
 10
-18.2
 20
-24.1
 42
-0.414214
 10
-19.1
 20
-23.2
  0
LWPOLYLINE
  5
29C
100
AcDbEntity
  8
GLAS_MED_FOGNING
100
AcDbPolyline
 90
        4
 70
     0
 43
0.0
 10
-20.0
 20
-23.2
 10
-20.0
 20
-25.0
 10
-30.0
 20
-25.0
 10
-30.0
 20
-23.2
  0
LWPOLYLINE
  5
29D
100
AcDbEntity
  8
GLAS_MED_FOGNING
100
AcDbPolyline
 90
        4
 70
     0
 43
0.0
 10
-20.0
 20
23.2
 10
-20.0
 20
25.0
 10
-30.0
 20
25.0
 10
-30.0
 20
23.2
  0
ENDBLK
  5
29F
100
AcDbEntity
  8
0
100
AcDbBlockEnd
  0
BLOCK
  5
2A9
100
AcDbEntity
  8
0
100
AcDbBlockBegin
  2
955011-550-10
 70
     0
 10
0.0
 20
0.0
 30
0.0
  3
955011-550-10
  1

  0
LWPOLYLINE
  5
2A1
100
AcDbEntity
  8
STALPROFIL
100
AcDbPolyline
 90
       11
 70
     1
 43
1.8
 10
-46.4
 20
24.1
 10
-31.8
 20
24.1
 42
-0.414214
 10
-30.9
 20
23.2
 10
-30.9
 20
-23.2
 42
-0.414214
 10
-31.8
 20
-24.1
 10
-48.2
 20
-24.1
 42
-0.414214
 10
-49.1
 20
-23.2
 10
-49.1
 20
43.2
 42
-0.414214
 10
-48.199
 20
44.1
 42
-0.414214
 10
-47.3
 20
43.201
 10
-47.3
 20
25.0
 42
0.414214
  0
LWPOLYLINE
  5
2A2
100
AcDbEntity
  8
SPKONTUR
100
AcDbPolyline
 90
       11
 70
     1
 43
0.0
 10
-46.4
 20
25.0
 10
-31.8
 20
25.0
 42
-0.414214
 10
-30.0
 20
23.2
 10
-30.0
 20
-23.2
 42
-0.414214
 10
-31.8
 20
-25.0
 10
-48.2
 20
-25.0
 42
-0.414214
 10
-50.0
 20
-23.2
 10
-50.0
 20
43.2
 42
-0.414214
 10
-48.2
 20
45.0
 10
-48.199
 20
45.0
 42
-0.414214
 10
-46.4
 20
43.201
  0
INSERT
  5
2A3
100
AcDbEntity
  8
GLAS_MED_FOGNING
100
AcDbBlockReference
  2
HATCH
 10
0.0
 20
0.0
 30
0.0
  0
LWPOLYLINE
  5
2A4
100
AcDbEntity
  8
SPKONTUR
100
AcDbPolyline
 90
       25
 70
     0
 43
0.0
 10
-8.1
 20
18.4
 10
-8.114719
 20
18.4
 10
-8.1
 20
18.4
 42
-0.414214
 10
-5.6
 20
15.9
 10
-5.6
 20
13.8
 42
0.414214
 10
-3.8
 20
12.0
 10
-3.6
 20
12.0
 42
-0.414214
 10
0.0
 20
8.4
 10
0.0
 20
-23.2
 42
-0.414214
 10
-1.8
 20
-25.0
 10
-18.2
 20
-25.0
 42
-0.414214
 10
-20.0
 20
-23.2
 10
-20.0
 20
23.2
 42
-0.414214
 10
-18.2
 20
25.0
 10
-7.9
 20
25.0
 42
-0.414214
 10
-6.1
 20
23.2
 10
-6.1
 20
23.199
 42
-0.414214
 10
-7.899
 20
21.4
 10
-12.6
 20
21.4
 42
0.414214
 10
-14.4
 20
19.6
 10
-14.4
 20
18.2
 42
0.414214
 10
-12.6
 20
16.4
 42
0.198912
 10
-10.47868
 20
17.27868
 10
-10.236039
 20
17.52132
 42
-0.198912
 10
-8.114719
 20
18.4
  0
LWPOLYLINE
  5
2A5
100
AcDbEntity
  8
STALPROFIL
100
AcDbPolyline
 90
       22
 70
     1
 43
1.8
 10
-8.114719
 20
17.5
 10
-8.1
 20
17.5
 42
-0.414214
 10
-6.5
 20
15.9
 10
-6.5
 20
13.8
 42
0.414214
 10
-3.8
 20
11.1
 10
-3.6
 20
11.1
 42
-0.414214
 10
-0.9
 20
8.4
 10
-0.9
 20
-23.2
 42
-0.414214
 10
-1.8
 20
-24.1
 10
-18.2
 20
-24.1
 42
-0.414214
 10
-19.1
 20
-23.2
 10
-19.1
 20
23.2
 42
-0.414214
 10
-18.2
 20
24.1
 10
-7.9
 20
24.1
 42
-0.414214
 10
-7.0
 20
23.199
 42
-0.414214
 10
-7.899
 20
22.3
 10
-12.6
 20
22.3
 42
0.414214
 10
-15.3
 20
19.6
 10
-15.3
 20
18.2
 42
0.414214
 10
-12.6
 20
15.5
 42
0.198912
 10
-9.842284
 20
16.642284
 10
-9.599643
 20
16.884924
 42
-0.198912
  0
LWPOLYLINE
  5
2A6
100
AcDbEntity
  8
GLAS_MED_FOGNING
100
AcDbPolyline
 90
        4
 70
     0
 43
0.0
 10
-20.0
 20
-23.2
 10
-20.0
 20
-25.0
 10
-30.0
 20
-25.0
 10
-30.0
 20
-23.2
  0
LWPOLYLINE
  5
2A7
100
AcDbEntity
  8
GLAS_MED_FOGNING
100
AcDbPolyline
 90
        4
 70
     0
 43
0.0
 10
-20.0
 20
23.2
 10
-20.0
 20
25.0
 10
-30.0
 20
25.0
 10
-30.0
 20
23.2
  0
INSERT
  5
2A8
100
AcDbEntity
  8
GLAS_MED_FOGNING
100
AcDbBlockReference
  2
SP40010
 10
0.0
 20
0.0
 30
0.0
  0
ENDBLK
  5
2AA
100
AcDbEntity
  8
0
100
AcDbBlockEnd
  0
BLOCK
  5
2B4
100
AcDbEntity
  8
0
100
AcDbBlockBegin
  2
955015-550-10
 70
     0
 10
0.0
 20
0.0
 30
0.0
  3
955015-550-10
  1

  0
INSERT
  5
2AC
100
AcDbEntity
  8
GLAS_MED_FOGNING
100
AcDbBlockReference
  2
HATCH
 10
0.0
 20
0.0
 30
0.0
  0
LWPOLYLINE
  5
2AD
100
AcDbEntity
  8
SPKONTUR
100
AcDbPolyline
 90
        8
 70
     1
 43
0.0
 10
-50.0
 20
23.2
 42
-0.414214
 10
-48.2
 20
25.0
 10
-31.8
 20
25.0
 42
-0.414214
 10
-30.0
 20
23.2
 10
-30.0
 20
-23.2
 42
-0.414214
 10
-31.8
 20
-25.0
 10
-48.2
 20
-25.0
 42
-0.414214
 10
-50.0
 20
-23.2
  0
LWPOLYLINE
  5
2AE
100
AcDbEntity
  8
STALPROFIL
100
AcDbPolyline
 90
        8
 70
     1
 43
1.8
 10
-49.1
 20
23.2
 42
-0.414214
 10
-48.2
 20
24.1
 10
-31.8
 20
24.1
 42
-0.414214
 10
-30.9
 20
23.2
 10
-30.9
 20
-23.2
 42
-0.414214
 10
-31.8
 20
-24.1
 10
-48.2
 20
-24.1
 42
-0.414214
 10
-49.1
 20
-23.2
  0
LWPOLYLINE
  5
2AF
100
AcDbEntity
  8
SPKONTUR
100
AcDbPolyline
 90
       28
 70
     0
 43
0.0
 10
-8.1
 20
18.4
 10
-8.114719
 20
18.4
 10
-8.1
 20
18.4
 42
-0.414214
 10
-5.6
 20
15.9
 10
-5.6
 20
13.8
 42
0.414214
 10
-3.8
 20
12.0
 10
-3.6
 20
12.0
 42
-0.414214
 10
0.0
 20
8.4
 10
0.0
 20
-43.2
 42
-0.414214
 10
-1.8
 20
-45.0
 10
-1.801
 20
-45.0
 42
-0.414214
 10
-3.6
 20
-43.201
 10
-3.6
 20
-25.0
 10
-18.2
 20
-25.0
 42
-0.414214
 10
-20.0
 20
-23.2
 10
-20.0
 20
23.2
 42
-0.414214
 10
-18.2
 20
25.0
 10
-7.9
 20
25.0
 42
-0.414214
 10
-6.1
 20
23.2
 10
-6.1
 20
23.199
 42
-0.414214
 10
-7.899
 20
21.4
 10
-12.6
 20
21.4
 42
0.414214
 10
-14.4
 20
19.6
 10
-14.4
 20
18.2
 42
0.414214
 10
-12.6
 20
16.4
 42
0.198912
 10
-10.47868
 20
17.27868
 10
-10.236039
 20
17.52132
 42
-0.198912
 10
-8.114719
 20
18.4
  0
LWPOLYLINE
  5
2B0
100
AcDbEntity
  8
STALPROFIL
100
AcDbPolyline
 90
       25
 70
     1
 43
1.8
 10
-8.114719
 20
17.5
 10
-8.1
 20
17.5
 42
-0.414214
 10
-6.5
 20
15.9
 10
-6.5
 20
13.8
 42
0.414214
 10
-3.8
 20
11.1
 10
-3.6
 20
11.1
 42
-0.414214
 10
-0.9
 20
8.4
 10
-0.9
 20
-43.2
 42
-0.414214
 10
-1.801
 20
-44.1
 42
-0.414214
 10
-2.7
 20
-43.201
 10
-2.7
 20
-25.0
 42
0.414214
 10
-3.6
 20
-24.1
 10
-18.2
 20
-24.1
 42
-0.414214
 10
-19.1
 20
-23.2
 10
-19.1
 20
23.2
 42
-0.414214
 10
-18.2
 20
24.1
 10
-7.9
 20
24.1
 42
-0.414214
 10
-7.0
 20
23.199
 42
-0.414214
 10
-7.899
 20
22.3
 10
-12.6
 20
22.3
 42
0.414214
 10
-15.3
 20
19.6
 10
-15.3
 20
18.2
 42
0.414214
 10
-12.6
 20
15.5
 42
0.198912
 10
-9.842284
 20
16.642284
 10
-9.599643
 20
16.884924
 42
-0.198912
  0
LWPOLYLINE
  5
2B1
100
AcDbEntity
  8
GLAS_MED_FOGNING
100
AcDbPolyline
 90
        4
 70
     0
 43
0.0
 10
-20.0
 20
-23.2
 10
-20.0
 20
-25.0
 10
-30.0
 20
-25.0
 10
-30.0
 20
-23.2
  0
LWPOLYLINE
  5
2B2
100
AcDbEntity
  8
GLAS_MED_FOGNING
100
AcDbPolyline
 90
        4
 70
     0
 43
0.0
 10
-20.0
 20
23.2
 10
-20.0
 20
25.0
 10
-30.0
 20
25.0
 10
-30.0
 20
23.2
  0
INSERT
  5
2B3
100
AcDbEntity
  8
GLAS_MED_FOGNING
100
AcDbBlockReference
  2
SP40010
 10
0.0
 20
0.0
 30
0.0
  0
ENDBLK
  5
2B5
100
AcDbEntity
  8
0
100
AcDbBlockEnd
  0
BLOCK
  5
2BE
100
AcDbEntity
  8
0
100
AcDbBlockBegin
  2
955023-550-10
 70
     0
 10
0.0
 20
0.0
 30
0.0
  3
955023-550-10
  1

  0
LWPOLYLINE
  5
2B7
100
AcDbEntity
  8
STALPROFIL
100
AcDbPolyline
 90
       11
 70
     1
 43
1.8
 10
-46.4
 20
24.1
 10
-31.8
 20
24.1
 42
-0.414214
 10
-30.9
 20
23.2
 10
-30.9
 20
-23.2
 42
-0.414214
 10
-31.8
 20
-24.1
 10
-48.2
 20
-24.1
 42
-0.414214
 10
-49.1
 20
-23.2
 10
-49.1
 20
43.2
 42
-0.414214
 10
-48.199
 20
44.1
 42
-0.414214
 10
-47.3
 20
43.201
 10
-47.3
 20
25.0
 42
0.414214
  0
LWPOLYLINE
  5
2B8
100
AcDbEntity
  8
SPKONTUR
100
AcDbPolyline
 90
       11
 70
     1
 43
0.0
 10
-46.4
 20
25.0
 10
-31.8
 20
25.0
 42
-0.414214
 10
-30.0
 20
23.2
 10
-30.0
 20
-23.2
 42
-0.414214
 10
-31.8
 20
-25.0
 10
-48.2
 20
-25.0
 42
-0.414214
 10
-50.0
 20
-23.2
 10
-50.0
 20
43.2
 42
-0.414214
 10
-48.2
 20
45.0
 10
-48.199
 20
45.0
 42
-0.414214
 10
-46.4
 20
43.201
  0
LWPOLYLINE
  5
2B9
100
AcDbEntity
  8
STALPROFIL
100
AcDbPolyline
 90
       11
 70
     1
 43
1.8
 10
-3.6
 20
-24.1
 10
-18.2
 20
-24.1
 42
-0.414214
 10
-19.1
 20
-23.2
 10
-19.1
 20
23.2
 42
-0.414214
 10
-18.2
 20
24.1
 10
-1.8
 20
24.1
 42
-0.414214
 10
-0.9
 20
23.2
 10
-0.9
 20
-43.2
 42
-0.414214
 10
-1.801
 20
-44.1
 42
-0.414214
 10
-2.7
 20
-43.201
 10
-2.7
 20
-25.0
 42
0.414214
  0
LWPOLYLINE
  5
2BA
100
AcDbEntity
  8
SPKONTUR
100
AcDbPolyline
 90
       11
 70
     1
 43
0.0
 10
-3.6
 20
-25.0
 10
-18.2
 20
-25.0
 42
-0.414214
 10
-20.0
 20
-23.2
 10
-20.0
 20
23.2
 42
-0.414214
 10
-18.2
 20
25.0
 10
-1.8
 20
25.0
 42
-0.414214
 10
0.0
 20
23.2
 10
0.0
 20
-43.2
 42
-0.414214
 10
-1.8
 20
-45.0
 10
-1.801
 20
-45.0
 42
-0.414214
 10
-3.6
 20
-43.201
  0
INSERT
  5
2BB
100
AcDbEntity
  8
GLAS_MED_FOGNING
100
AcDbBlockReference
  2
HATCH
 10
0.0
 20
0.0
 30
0.0
  0
LWPOLYLINE
  5
2BC
100
AcDbEntity
  8
GLAS_MED_FOGNING
100
AcDbPolyline
 90
        4
 70
     0
 43
0.0
 10
-20.0
 20
-23.2
 10
-20.0
 20
-25.0
 10
-30.0
 20
-25.0
 10
-30.0
 20
-23.2
  0
LWPOLYLINE
  5
2BD
100
AcDbEntity
  8
GLAS_MED_FOGNING
100
AcDbPolyline
 90
        4
 70
     0
 43
0.0
 10
-20.0
 20
23.2
 10
-20.0
 20
25.0
 10
-30.0
 20
25.0
 10
-30.0
 20
23.2
  0
ENDBLK
  5
2BF
100
AcDbEntity
  8
0
100
AcDbBlockEnd
  0
BLOCK
  5
2C9
100
AcDbEntity
  8
0
100
AcDbBlockBegin
  2
955012-550-10
 70
     0
 10
0.0
 20
0.0
 30
0.0
  3
955012-550-10
  1

  0
LWPOLYLINE
  5
2C1
100
AcDbEntity
  8
STALPROFIL
100
AcDbPolyline
 90
       16
 70
     1
 43
1.8
 10
-49.1
 20
0.0
 10
-49.1
 20
-43.2
 42
0.414214
 10
-48.199
 20
-44.1
 42
0.414214
 10
-47.3
 20
-43.201
 10
-47.3
 20
-25.0
 42
-0.414214
 10
-46.4
 20
-24.1
 10
-31.8
 20
-24.1
 42
0.414214
 10
-30.9
 20
-23.2
 10
-30.9
 20
0.0
 10
-30.9
 20
23.2
 42
0.414214
 10
-31.8
 20
24.1
 10
-46.4
 20
24.1
 42
-0.414214
 10
-47.3
 20
25.0
 10
-47.3
 20
43.201
 42
0.414214
 10
-48.2
 20
44.1
 42
0.414214
 10
-49.1
 20
43.2
  0
LWPOLYLINE
  5
2C2
100
AcDbEntity
  8
SPKONTUR
100
AcDbPolyline
 90
       16
 70
     1
 43
0.0
 10
-50.0
 20
0.0
 10
-50.0
 20
-43.2
 42
0.414214
 10
-48.2
 20
-45.0
 10
-48.199
 20
-45.0
 42
0.414214
 10
-46.4
 20
-43.201
 10
-46.4
 20
-25.0
 10
-31.8
 20
-25.0
 42
0.414214
 10
-30.0
 20
-23.2
 10
-30.0
 20
0.0
 10
-30.0
 20
23.2
 42
0.414214
 10
-31.8
 20
25.0
 10
-46.4
 20
25.0
 10
-46.4
 20
43.201
 42
0.414214
 10
-48.199
 20
45.0
 10
-48.2
 20
45.0
 42
0.414214
 10
-50.0
 20
43.2
  0
INSERT
  5
2C3
100
AcDbEntity
  8
GLAS_MED_FOGNING
100
AcDbBlockReference
  2
HATCH
 10
0.0
 20
0.0
 30
0.0
  0
INSERT
  5
2C4
100
AcDbEntity
  8
GLAS_MED_FOGNING
100
AcDbBlockReference
  2
SP40010
 10
0.0
 20
0.0
 30
0.0
  0
LWPOLYLINE
  5
2C5
100
AcDbEntity
  8
SPKONTUR
100
AcDbPolyline
 90
       25
 70
     0
 43
0.0
 10
-8.1
 20
18.4
 10
-8.114719
 20
18.4
 10
-8.1
 20
18.4
 42
-0.414214
 10
-5.6
 20
15.9
 10
-5.6
 20
13.8
 42
0.414214
 10
-3.8
 20
12.0
 10
-3.6
 20
12.0
 42
-0.414214
 10
0.0
 20
8.4
 10
0.0
 20
-23.2
 42
-0.414214
 10
-1.8
 20
-25.0
 10
-18.2
 20
-25.0
 42
-0.414214
 10
-20.0
 20
-23.2
 10
-20.0
 20
23.2
 42
-0.414214
 10
-18.2
 20
25.0
 10
-7.9
 20
25.0
 42
-0.414214
 10
-6.1
 20
23.2
 10
-6.1
 20
23.199
 42
-0.414214
 10
-7.899
 20
21.4
 10
-12.6
 20
21.4
 42
0.414214
 10
-14.4
 20
19.6
 10
-14.4
 20
18.2
 42
0.414214
 10
-12.6
 20
16.4
 42
0.198912
 10
-10.47868
 20
17.27868
 10
-10.236039
 20
17.52132
 42
-0.198912
 10
-8.114719
 20
18.4
  0
LWPOLYLINE
  5
2C6
100
AcDbEntity
  8
STALPROFIL
100
AcDbPolyline
 90
       22
 70
     1
 43
1.8
 10
-8.114719
 20
17.5
 10
-8.1
 20
17.5
 42
-0.414214
 10
-6.5
 20
15.9
 10
-6.5
 20
13.8
 42
0.414214
 10
-3.8
 20
11.1
 10
-3.6
 20
11.1
 42
-0.414214
 10
-0.9
 20
8.4
 10
-0.9
 20
-23.2
 42
-0.414214
 10
-1.8
 20
-24.1
 10
-18.2
 20
-24.1
 42
-0.414214
 10
-19.1
 20
-23.2
 10
-19.1
 20
23.2
 42
-0.414214
 10
-18.2
 20
24.1
 10
-7.9
 20
24.1
 42
-0.414214
 10
-7.0
 20
23.199
 42
-0.414214
 10
-7.899
 20
22.3
 10
-12.6
 20
22.3
 42
0.414214
 10
-15.3
 20
19.6
 10
-15.3
 20
18.2
 42
0.414214
 10
-12.6
 20
15.5
 42
0.198912
 10
-9.842284
 20
16.642284
 10
-9.599643
 20
16.884924
 42
-0.198912
  0
LWPOLYLINE
  5
2C7
100
AcDbEntity
  8
GLAS_MED_FOGNING
100
AcDbPolyline
 90
        4
 70
     0
 43
0.0
 10
-20.0
 20
-23.2
 10
-20.0
 20
-25.0
 10
-30.0
 20
-25.0
 10
-30.0
 20
-23.2
  0
LWPOLYLINE
  5
2C8
100
AcDbEntity
  8
GLAS_MED_FOGNING
100
AcDbPolyline
 90
        4
 70
     0
 43
0.0
 10
-20.0
 20
23.2
 10
-20.0
 20
25.0
 10
-30.0
 20
25.0
 10
-30.0
 20
23.2
  0
ENDBLK
  5
2CA
100
AcDbEntity
  8
0
100
AcDbBlockEnd
  0
BLOCK
  5
2D3
100
AcDbEntity
  8
0
100
AcDbBlockBegin
  2
955020-550-10
 70
     0
 10
0.0
 20
0.0
 30
0.0
  3
955020-550-10
  1

  0
INSERT
  5
2CC
100
AcDbEntity
  8
GLAS_MED_FOGNING
100
AcDbBlockReference
  2
HATCH
 10
0.0
 20
0.0
 30
0.0
  0
LWPOLYLINE
  5
2CD
100
AcDbEntity
  8
STALPROFIL
100
AcDbPolyline
 90
        8
 70
     1
 43
1.8
 10
-49.1
 20
23.2
 42
-0.414214
 10
-48.2
 20
24.1
 10
-31.8
 20
24.1
 42
-0.414214
 10
-30.9
 20
23.2
 10
-30.9
 20
-23.2
 42
-0.414214
 10
-31.8
 20
-24.1
 10
-48.2
 20
-24.1
 42
-0.414214
 10
-49.1
 20
-23.2
  0
LWPOLYLINE
  5
2CE
100
AcDbEntity
  8
SPKONTUR
100
AcDbPolyline
 90
        8
 70
     1
 43
0.0
 10
-50.0
 20
23.2
 42
-0.414214
 10
-48.2
 20
25.0
 10
-31.8
 20
25.0
 42
-0.414214
 10
-30.0
 20
23.2
 10
-30.0
 20
-23.2
 42
-0.414214
 10
-31.8
 20
-25.0
 10
-48.2
 20
-25.0
 42
-0.414214
 10
-50.0
 20
-23.2
  0
LWPOLYLINE
  5
2CF
100
AcDbEntity
  8
SPKONTUR
100
AcDbPolyline
 90
        8
 70
     1
 43
0.0
 10
-20.0
 20
23.2
 42
-0.414214
 10
-18.2
 20
25.0
 10
-1.8
 20
25.0
 42
-0.414214
 10
0.0
 20
23.2
 10
0.0
 20
-23.2
 42
-0.414214
 10
-1.8
 20
-25.0
 10
-18.2
 20
-25.0
 42
-0.414214
 10
-20.0
 20
-23.2
  0
LWPOLYLINE
  5
2D0
100
AcDbEntity
  8
STALPROFIL
100
AcDbPolyline
 90
        8
 70
     1
 43
1.8
 10
-19.1
 20
23.2
 42
-0.414214
 10
-18.2
 20
24.1
 10
-1.8
 20
24.1
 42
-0.414214
 10
-0.9
 20
23.2
 10
-0.9
 20
-23.2
 42
-0.414214
 10
-1.8
 20
-24.1
 10
-18.2
 20
-24.1
 42
-0.414214
 10
-19.1
 20
-23.2
  0
LWPOLYLINE
  5
2D1
100
AcDbEntity
  8
GLAS_MED_FOGNING
100
AcDbPolyline
 90
        4
 70
     0
 43
0.0
 10
-20.0
 20
-23.2
 10
-20.0
 20
-25.0
 10
-30.0
 20
-25.0
 10
-30.0
 20
-23.2
  0
LWPOLYLINE
  5
2D2
100
AcDbEntity
  8
GLAS_MED_FOGNING
100
AcDbPolyline
 90
        4
 70
     0
 43
0.0
 10
-20.0
 20
23.2
 10
-20.0
 20
25.0
 10
-30.0
 20
25.0
 10
-30.0
 20
23.2
  0
ENDBLK
  5
2D4
100
AcDbEntity
  8
0
100
AcDbBlockEnd
  0
BLOCK
  5
2DD
100
AcDbEntity
  8
0
100
AcDbBlockBegin
  2
955024-550-10
 70
     0
 10
0.0
 20
0.0
 30
0.0
  3
955024-550-10
  1

  0
LWPOLYLINE
  5
2D6
100
AcDbEntity
  8
SPKONTUR
100
AcDbPolyline
 90
       11
 70
     1
 43
0.0
 10
-3.6
 20
25.0
 10
-18.2
 20
25.0
 42
0.414214
 10
-20.0
 20
23.2
 10
-20.0
 20
-23.2
 42
0.414214
 10
-18.2
 20
-25.0
 10
-1.8
 20
-25.0
 42
0.414214
 10
0.0
 20
-23.2
 10
0.0
 20
43.2
 42
0.414214
 10
-1.8
 20
45.0
 10
-1.801
 20
45.0
 42
0.414214
 10
-3.6
 20
43.201
  0
LWPOLYLINE
  5
2D7
100
AcDbEntity
  8
STALPROFIL
100
AcDbPolyline
 90
       11
 70
     1
 43
1.8
 10
-3.6
 20
24.1
 10
-18.2
 20
24.1
 42
0.414214
 10
-19.1
 20
23.2
 10
-19.1
 20
-23.2
 42
0.414214
 10
-18.2
 20
-24.1
 10
-1.8
 20
-24.1
 42
0.414214
 10
-0.9
 20
-23.2
 10
-0.9
 20
43.2
 42
0.414214
 10
-1.801
 20
44.1
 42
0.414214
 10
-2.7
 20
43.201
 10
-2.7
 20
25.0
 42
-0.414214
  0
INSERT
  5
2D8
100
AcDbEntity
  8
GLAS_MED_FOGNING
100
AcDbBlockReference
  2
HATCH
 10
0.0
 20
0.0
 30
0.0
  0
LWPOLYLINE
  5
2D9
100
AcDbEntity
  8
SPKONTUR
100
AcDbPolyline
 90
       11
 70
     1
 43
0.0
 10
-46.4
 20
25.0
 10
-31.8
 20
25.0
 42
-0.414214
 10
-30.0
 20
23.2
 10
-30.0
 20
-23.2
 42
-0.414214
 10
-31.8
 20
-25.0
 10
-48.2
 20
-25.0
 42
-0.414214
 10
-50.0
 20
-23.2
 10
-50.0
 20
43.2
 42
-0.414214
 10
-48.2
 20
45.0
 10
-48.199
 20
45.0
 42
-0.414214
 10
-46.4
 20
43.201
  0
LWPOLYLINE
  5
2DA
100
AcDbEntity
  8
STALPROFIL
100
AcDbPolyline
 90
       11
 70
     1
 43
1.8
 10
-46.4
 20
24.1
 10
-31.8
 20
24.1
 42
-0.414214
 10
-30.9
 20
23.2
 10
-30.9
 20
-23.2
 42
-0.414214
 10
-31.8
 20
-24.1
 10
-48.2
 20
-24.1
 42
-0.414214
 10
-49.1
 20
-23.2
 10
-49.1
 20
43.2
 42
-0.414214
 10
-48.199
 20
44.1
 42
-0.414214
 10
-47.3
 20
43.201
 10
-47.3
 20
25.0
 42
0.414214
  0
LWPOLYLINE
  5
2DB
100
AcDbEntity
  8
GLAS_MED_FOGNING
100
AcDbPolyline
 90
        4
 70
     0
 43
0.0
 10
-20.0
 20
-23.2
 10
-20.0
 20
-25.0
 10
-30.0
 20
-25.0
 10
-30.0
 20
-23.2
  0
LWPOLYLINE
  5
2DC
100
AcDbEntity
  8
GLAS_MED_FOGNING
100
AcDbPolyline
 90
        4
 70
     0
 43
0.0
 10
-20.0
 20
23.2
 10
-20.0
 20
25.0
 10
-30.0
 20
25.0
 10
-30.0
 20
23.2
  0
ENDBLK
  5
2DE
100
AcDbEntity
  8
0
100
AcDbBlockEnd
  0
BLOCK
  5
2E7
100
AcDbEntity
  8
0
100
AcDbBlockBegin
  2
955020-20-10
 70
     0
 10
0.0
 20
0.0
 30
0.0
  3
955020-20-10
  1

  0
INSERT
  5
2E0
100
AcDbEntity
  8
GLAS_MED_FOGNING
100
AcDbBlockReference
  2
*X20
 10
175.0
 20
-200.0
 30
0.0
1001
ACAD
1000
HATCH
1002
{
1070
    16
1000
FLEX
1040
10.0
1040
1.570796
1002
}
  0
LWPOLYLINE
  5
2E1
100
AcDbEntity
  8
SPKONTUR
100
AcDbPolyline
 90
        8
 70
     1
 43
0.0
 10
-50.0
 20
8.2
 42
-0.414214
 10
-48.2
 20
10.0
 10
-31.8
 20
10.0
 42
-0.414214
 10
-30.0
 20
8.2
 10
-30.0
 20
-8.2
 42
-0.414214
 10
-31.8
 20
-10.0
 10
-48.2
 20
-10.0
 42
-0.414214
 10
-50.0
 20
-8.2
  0
LWPOLYLINE
  5
2E2
100
AcDbEntity
  8
STALPROFIL
100
AcDbPolyline
 90
        8
 70
     1
 43
1.8
 10
-49.1
 20
8.2
 42
-0.414214
 10
-48.2
 20
9.1
 10
-31.8
 20
9.1
 42
-0.414214
 10
-30.9
 20
8.2
 10
-30.9
 20
-8.2
 42
-0.414214
 10
-31.8
 20
-9.1
 10
-48.2
 20
-9.1
 42
-0.414214
 10
-49.1
 20
-8.2
  0
LWPOLYLINE
  5
2E3
100
AcDbEntity
  8
SPKONTUR
100
AcDbPolyline
 90
        8
 70
     1
 43
0.0
 10
-20.0
 20
8.2
 42
-0.414214
 10
-18.2
 20
10.0
 10
-1.8
 20
10.0
 42
-0.414214
 10
0.0
 20
8.2
 10
0.0
 20
-8.2
 42
-0.414214
 10
-1.8
 20
-10.0
 10
-18.2
 20
-10.0
 42
-0.414214
 10
-20.0
 20
-8.2
  0
LWPOLYLINE
  5
2E4
100
AcDbEntity
  8
STALPROFIL
100
AcDbPolyline
 90
        8
 70
     1
 43
1.8
 10
-19.1
 20
8.2
 42
-0.414214
 10
-18.2
 20
9.1
 10
-1.8
 20
9.1
 42
-0.414214
 10
-0.9
 20
8.2
 10
-0.9
 20
-8.2
 42
-0.414214
 10
-1.8
 20
-9.1
 10
-18.2
 20
-9.1
 42
-0.414214
 10
-19.1
 20
-8.2
  0
LWPOLYLINE
  5
2E5
100
AcDbEntity
  8
GLAS_MED_FOGNING
100
AcDbPolyline
 90
        4
 70
     0
 43
0.0
 10
-20.0
 20
-8.2
 10
-20.0
 20
-10.0
 10
-30.0
 20
-10.0
 10
-30.0
 20
-8.2
  0
LWPOLYLINE
  5
2E6
100
AcDbEntity
  8
GLAS_MED_FOGNING
100
AcDbPolyline
 90
        4
 70
     0
 43
0.0
 10
-20.0
 20
8.2
 10
-20.0
 20
10.0
 10
-30.0
 20
10.0
 10
-30.0
 20
8.2
  0
ENDBLK
  5
2E8
100
AcDbEntity
  8
0
100
AcDbBlockEnd
  0
BLOCK
  5
2F2
100
AcDbEntity
  8
0
100
AcDbBlockBegin
  2
955013-550-10
 70
     0
 10
0.0
 20
0.0
 30
0.0
  3
955013-550-10
  1

  0
INSERT
  5
2EA
100
AcDbEntity
  8
GLAS_MED_FOGNING
100
AcDbBlockReference
  2
HATCH
 10
0.0
 20
0.0
 30
0.0
  0
LWPOLYLINE
  5
2EB
100
AcDbEntity
  8
SPKONTUR
100
AcDbPolyline
 90
       11
 70
     1
 43
0.0
 10
-46.4
 20
25.0
 10
-31.8
 20
25.0
 42
-0.414214
 10
-30.0
 20
23.2
 10
-30.0
 20
-23.2
 42
-0.414214
 10
-31.8
 20
-25.0
 10
-48.2
 20
-25.0
 42
-0.414214
 10
-50.0
 20
-23.2
 10
-50.0
 20
43.2
 42
-0.414214
 10
-48.2
 20
45.0
 10
-48.199
 20
45.0
 42
-0.414214
 10
-46.4
 20
43.201
  0
LWPOLYLINE
  5
2EC
100
AcDbEntity
  8
STALPROFIL
100
AcDbPolyline
 90
       11
 70
     1
 43
1.8
 10
-46.4
 20
24.1
 10
-31.8
 20
24.1
 42
-0.414214
 10
-30.9
 20
23.2
 10
-30.9
 20
-23.2
 42
-0.414214
 10
-31.8
 20
-24.1
 10
-48.2
 20
-24.1
 42
-0.414214
 10
-49.1
 20
-23.2
 10
-49.1
 20
43.2
 42
-0.414214
 10
-48.199
 20
44.1
 42
-0.414214
 10
-47.3
 20
43.201
 10
-47.3
 20
25.0
 42
0.414214
  0
LWPOLYLINE
  5
2ED
100
AcDbEntity
  8
STALPROFIL
100
AcDbPolyline
 90
       25
 70
     1
 43
1.8
 10
-8.114719
 20
17.5
 10
-8.1
 20
17.5
 42
-0.414214
 10
-6.5
 20
15.9
 10
-6.5
 20
13.8
 42
0.414214
 10
-3.8
 20
11.1
 10
-3.6
 20
11.1
 42
-0.414214
 10
-0.9
 20
8.4
 10
-0.9
 20
-43.2
 42
-0.414214
 10
-1.801
 20
-44.1
 42
-0.414214
 10
-2.7
 20
-43.201
 10
-2.7
 20
-25.0
 42
0.414214
 10
-3.6
 20
-24.1
 10
-18.2
 20
-24.1
 42
-0.414214
 10
-19.1
 20
-23.2
 10
-19.1
 20
23.2
 42
-0.414214
 10
-18.2
 20
24.1
 10
-7.9
 20
24.1
 42
-0.414214
 10
-7.0
 20
23.199
 42
-0.414214
 10
-7.899
 20
22.3
 10
-12.6
 20
22.3
 42
0.414214
 10
-15.3
 20
19.6
 10
-15.3
 20
18.2
 42
0.414214
 10
-12.6
 20
15.5
 42
0.198912
 10
-9.842284
 20
16.642284
 10
-9.599643
 20
16.884924
 42
-0.198912
  0
LWPOLYLINE
  5
2EE
100
AcDbEntity
  8
SPKONTUR
100
AcDbPolyline
 90
       28
 70
     0
 43
0.0
 10
-8.1
 20
18.4
 10
-8.114719
 20
18.4
 10
-8.1
 20
18.4
 42
-0.414214
 10
-5.6
 20
15.9
 10
-5.6
 20
13.8
 42
0.414214
 10
-3.8
 20
12.0
 10
-3.6
 20
12.0
 42
-0.414214
 10
0.0
 20
8.4
 10
0.0
 20
-43.2
 42
-0.414214
 10
-1.8
 20
-45.0
 10
-1.801
 20
-45.0
 42
-0.414214
 10
-3.6
 20
-43.201
 10
-3.6
 20
-25.0
 10
-18.2
 20
-25.0
 42
-0.414214
 10
-20.0
 20
-23.2
 10
-20.0
 20
23.2
 42
-0.414214
 10
-18.2
 20
25.0
 10
-7.9
 20
25.0
 42
-0.414214
 10
-6.1
 20
23.2
 10
-6.1
 20
23.199
 42
-0.414214
 10
-7.899
 20
21.4
 10
-12.6
 20
21.4
 42
0.414214
 10
-14.4
 20
19.6
 10
-14.4
 20
18.2
 42
0.414214
 10
-12.6
 20
16.4
 42
0.198912
 10
-10.47868
 20
17.27868
 10
-10.236039
 20
17.52132
 42
-0.198912
 10
-8.114719
 20
18.4
  0
LWPOLYLINE
  5
2EF
100
AcDbEntity
  8
GLAS_MED_FOGNING
100
AcDbPolyline
 90
        4
 70
     0
 43
0.0
 10
-20.0
 20
-23.2
 10
-20.0
 20
-25.0
 10
-30.0
 20
-25.0
 10
-30.0
 20
-23.2
  0
LWPOLYLINE
  5
2F0
100
AcDbEntity
  8
GLAS_MED_FOGNING
100
AcDbPolyline
 90
        4
 70
     0
 43
0.0
 10
-20.0
 20
23.2
 10
-20.0
 20
25.0
 10
-30.0
 20
25.0
 10
-30.0
 20
23.2
  0
INSERT
  5
2F1
100
AcDbEntity
  8
GLAS_MED_FOGNING
100
AcDbBlockReference
  2
SP40010
 10
0.0
 20
0.0
 30
0.0
  0
ENDBLK
  5
2F3
100
AcDbEntity
  8
0
100
AcDbBlockEnd
  0
BLOCK
  5
2FC
100
AcDbEntity
  8
0
100
AcDbBlockBegin
  2
955021-550-10
 70
     0
 10
0.0
 20
0.0
 30
0.0
  3
955021-550-10
  1

  0
INSERT
  5
2F5
100
AcDbEntity
  8
GLAS_MED_FOGNING
100
AcDbBlockReference
  2
HATCH
 10
0.0
 20
0.0
 30
0.0
  0
LWPOLYLINE
  5
2F6
100
AcDbEntity
  8
STALPROFIL
100
AcDbPolyline
 90
        8
 70
     1
 43
1.8
 10
-19.1
 20
23.2
 42
-0.414214
 10
-18.2
 20
24.1
 10
-1.8
 20
24.1
 42
-0.414214
 10
-0.9
 20
23.2
 10
-0.9
 20
-23.2
 42
-0.414214
 10
-1.8
 20
-24.1
 10
-18.2
 20
-24.1
 42
-0.414214
 10
-19.1
 20
-23.2
  0
LWPOLYLINE
  5
2F7
100
AcDbEntity
  8
SPKONTUR
100
AcDbPolyline
 90
        8
 70
     1
 43
0.0
 10
-20.0
 20
23.2
 42
-0.414214
 10
-18.2
 20
25.0
 10
-1.8
 20
25.0
 42
-0.414214
 10
0.0
 20
23.2
 10
0.0
 20
-23.2
 42
-0.414214
 10
-1.8
 20
-25.0
 10
-18.2
 20
-25.0
 42
-0.414214
 10
-20.0
 20
-23.2
  0
LWPOLYLINE
  5
2F8
100
AcDbEntity
  8
STALPROFIL
100
AcDbPolyline
 90
       11
 70
     1
 43
1.8
 10
-46.4
 20
24.1
 10
-31.8
 20
24.1
 42
-0.414214
 10
-30.9
 20
23.2
 10
-30.9
 20
-23.2
 42
-0.414214
 10
-31.8
 20
-24.1
 10
-48.2
 20
-24.1
 42
-0.414214
 10
-49.1
 20
-23.2
 10
-49.1
 20
43.2
 42
-0.414214
 10
-48.199
 20
44.1
 42
-0.414214
 10
-47.3
 20
43.201
 10
-47.3
 20
25.0
 42
0.414214
  0
LWPOLYLINE
  5
2F9
100
AcDbEntity
  8
SPKONTUR
100
AcDbPolyline
 90
       11
 70
     1
 43
0.0
 10
-46.4
 20
25.0
 10
-31.8
 20
25.0
 42
-0.414214
 10
-30.0
 20
23.2
 10
-30.0
 20
-23.2
 42
-0.414214
 10
-31.8
 20
-25.0
 10
-48.2
 20
-25.0
 42
-0.414214
 10
-50.0
 20
-23.2
 10
-50.0
 20
43.2
 42
-0.414214
 10
-48.2
 20
45.0
 10
-48.199
 20
45.0
 42
-0.414214
 10
-46.4
 20
43.201
  0
LWPOLYLINE
  5
2FA
100
AcDbEntity
  8
GLAS_MED_FOGNING
100
AcDbPolyline
 90
        4
 70
     0
 43
0.0
 10
-20.0
 20
-23.2
 10
-20.0
 20
-25.0
 10
-30.0
 20
-25.0
 10
-30.0
 20
-23.2
  0
LWPOLYLINE
  5
2FB
100
AcDbEntity
  8
GLAS_MED_FOGNING
100
AcDbPolyline
 90
        4
 70
     0
 43
0.0
 10
-20.0
 20
23.2
 10
-20.0
 20
25.0
 10
-30.0
 20
25.0
 10
-30.0
 20
23.2
  0
ENDBLK
  5
2FD
100
AcDbEntity
  8
0
100
AcDbBlockEnd
  0
BLOCK
  5
306
100
AcDbEntity
  8
0
100
AcDbBlockBegin
  2
955025-550-10
 70
     0
 10
0.0
 20
0.0
 30
0.0
  3
955025-550-10
  1

  0
INSERT
  5
2FF
100
AcDbEntity
  8
GLAS_MED_FOGNING
100
AcDbBlockReference
  2
HATCH
 10
0.0
 20
0.0
 30
0.0
  0
LWPOLYLINE
  5
300
100
AcDbEntity
  8
STALPROFIL
100
AcDbPolyline
 90
       16
 70
     1
 43
1.8
 10
-49.1
 20
0.0
 10
-49.1
 20
-43.2
 42
0.414214
 10
-48.199
 20
-44.1
 42
0.414214
 10
-47.3
 20
-43.201
 10
-47.3
 20
-25.0
 42
-0.414214
 10
-46.4
 20
-24.1
 10
-31.8
 20
-24.1
 42
0.414214
 10
-30.9
 20
-23.2
 10
-30.9
 20
0.0
 10
-30.9
 20
23.2
 42
0.414214
 10
-31.8
 20
24.1
 10
-46.4
 20
24.1
 42
-0.414214
 10
-47.3
 20
25.0
 10
-47.3
 20
43.201
 42
0.414214
 10
-48.2
 20
44.1
 42
0.414214
 10
-49.1
 20
43.2
  0
LWPOLYLINE
  5
301
100
AcDbEntity
  8
SPKONTUR
100
AcDbPolyline
 90
       16
 70
     1
 43
0.0
 10
-50.0
 20
0.0
 10
-50.0
 20
-43.2
 42
0.414214
 10
-48.2
 20
-45.0
 10
-48.199
 20
-45.0
 42
0.414214
 10
-46.4
 20
-43.201
 10
-46.4
 20
-25.0
 10
-31.8
 20
-25.0
 42
0.414214
 10
-30.0
 20
-23.2
 10
-30.0
 20
0.0
 10
-30.0
 20
23.2
 42
0.414214
 10
-31.8
 20
25.0
 10
-46.4
 20
25.0
 10
-46.4
 20
43.201
 42
0.414214
 10
-48.199
 20
45.0
 10
-48.2
 20
45.0
 42
0.414214
 10
-50.0
 20
43.2
  0
LWPOLYLINE
  5
302
100
AcDbEntity
  8
STALPROFIL
100
AcDbPolyline
 90
       11
 70
     1
 43
1.8
 10
-3.6
 20
24.1
 10
-18.2
 20
24.1
 42
0.414214
 10
-19.1
 20
23.2
 10
-19.1
 20
-23.2
 42
0.414214
 10
-18.2
 20
-24.1
 10
-1.8
 20
-24.1
 42
0.414214
 10
-0.9
 20
-23.2
 10
-0.9
 20
43.2
 42
0.414214
 10
-1.801
 20
44.1
 42
0.414214
 10
-2.7
 20
43.201
 10
-2.7
 20
25.0
 42
-0.414214
  0
LWPOLYLINE
  5
303
100
AcDbEntity
  8
SPKONTUR
100
AcDbPolyline
 90
       11
 70
     1
 43
0.0
 10
-3.6
 20
25.0
 10
-18.2
 20
25.0
 42
0.414214
 10
-20.0
 20
23.2
 10
-20.0
 20
-23.2
 42
0.414214
 10
-18.2
 20
-25.0
 10
-1.8
 20
-25.0
 42
0.414214
 10
0.0
 20
-23.2
 10
0.0
 20
43.2
 42
0.414214
 10
-1.8
 20
45.0
 10
-1.801
 20
45.0
 42
0.414214
 10
-3.6
 20
43.201
  0
LWPOLYLINE
  5
304
100
AcDbEntity
  8
GLAS_MED_FOGNING
100
AcDbPolyline
 90
        4
 70
     0
 43
0.0
 10
-20.0
 20
-23.2
 10
-20.0
 20
-25.0
 10
-30.0
 20
-25.0
 10
-30.0
 20
-23.2
  0
LWPOLYLINE
  5
305
100
AcDbEntity
  8
GLAS_MED_FOGNING
100
AcDbPolyline
 90
        4
 70
     0
 43
0.0
 10
-20.0
 20
23.2
 10
-20.0
 20
25.0
 10
-30.0
 20
25.0
 10
-30.0
 20
23.2
  0
ENDBLK
  5
307
100
AcDbEntity
  8
0
100
AcDbBlockEnd
  0
BLOCK
  5
326
100
AcDbEntity
  8
0
100
AcDbBlockBegin
  2
A$C37AC519F
 70
     0
 10
0.0
 20
0.0
 30
0.0
  3
A$C37AC519F
  1

  0
INSERT
  5
309
100
AcDbEntity
  8
0
100
AcDbBlockReference
  2
SIDA
 10
380.0
 20
-24.0
 30
0.0
  0
TEXT
  5
30A
100
AcDbEntity
  8
TEXT
100
AcDbText
 10
27.0
 20
50.538095
 30
0.0
 40
5.0
  1
%%USP 955013/550/10
 50
90.0
 41
0.8
  7
ROMANS
 72
     1
 11
27.0
 21
81.0
 31
0.0
100
AcDbText
  0
TEXT
  5
30B
100
AcDbEntity
  8
TEXT
100
AcDbText
 10
147.0
 20
50.538095
 30
0.0
 40
5.0
  1
%%USP 955021/550/10
 50
90.0
 41
0.8
  7
ROMANS
 72
     1
 11
147.0
 21
81.0
 31
0.0
100
AcDbText
  0
INSERT
  5
30C
100
AcDbEntity
  8
GLAS_MED_FOGNING
100
AcDbBlockReference
  2
955013-550-10
 10
85.0
 20
81.0
 30
0.0
  0
INSERT
  5
30D
100
AcDbEntity
  8
GLAS_MED_FOGNING
100
AcDbBlockReference
  2
955021-550-10
 10
205.0
 20
81.0
 30
0.0
  0
INSERT
  5
30E
100
AcDbEntity
  8
GLAS_MED_FOGNING
100
AcDbBlockReference
  2
955012-550-10
 10
85.0
 20
211.0
 30
0.0
  0
TEXT
  5
30F
100
AcDbEntity
  8
TEXT
100
AcDbText
 10
27.0
 20
180.538095
 30
0.0
 40
5.0
  1
%%USP 955012/550/10
 50
90.0
 41
0.8
  7
ROMANS
 72
     1
 11
27.0
 21
211.0
 31
0.0
100
AcDbText
  0
INSERT
  5
310
100
AcDbEntity
  8
GLAS_MED_FOGNING
100
AcDbBlockReference
  2
955020-20-10
 10
205.0
 20
176.0
 30
0.0
  0
TEXT
  5
311
100
AcDbEntity
  8
TEXT
100
AcDbText
 10
147.0
 20
147.442857
 30
0.0
 40
5.0
  1
%%USP 955020/20/10
 50
90.0
 41
0.8
  7
ROMANS
 72
     1
 11
147.0
 21
176.0
 31
0.0
100
AcDbText
  0
INSERT
  5
312
100
AcDbEntity
  8
GLAS_MED_FOGNING
100
AcDbBlockReference
  2
955020-550-10
 10
205.0
 20
241.0
 30
0.0
  0
TEXT
  5
313
100
AcDbEntity
  8
TEXT
100
AcDbText
 10
147.0
 20
210.538095
 30
0.0
 40
5.0
  1
%%USP 955020/550/10
 50
90.0
 41
0.8
  7
ROMANS
 72
     1
 11
147.0
 21
241.0
 31
0.0
100
AcDbText
  0
TEXT
  5
314
100
AcDbEntity
  8
TEXT
100
AcDbText
 10
267.0
 20
50.538095
 30
0.0
 40
5.0
  1
%%USP 955025/550/10
 50
90.0
 41
0.8
  7
ROMANS
 72
     1
 11
267.0
 21
81.0
 31
0.0
100
AcDbText
  0
INSERT
  5
315
100
AcDbEntity
  8
GLAS_MED_FOGNING
100
AcDbBlockReference
  2
955025-550-10
 10
325.0
 20
81.0
 30
0.0
  0
TEXT
  5
316
100
AcDbEntity
  8
TEXT
100
AcDbText
 10
299.952381
 20
1.0
 30
0.0
 40
5.0
  1
Filnamn  %%U950SID8
 41
0.8
  7
ROMANS
 72
     2
 11
355.0
 21
1.0
 31
0.0
100
AcDbText
  0
TEXT
  5
317
100
AcDbEntity
  8
TEXT
100
AcDbText
 10
296.142857
 20
16.0
 30
0.0
 40
5.0
  1
SP 95000  %%USIDA 8
 41
0.8
  7
ROMANS
 72
     2
 11
355.0
 21
16.0
 31
0.0
100
AcDbText
  0
TEXT
  5
318
100
AcDbEntity
  8
TEXT
100
AcDbText
 10
267.0
 20
180.538095
 30
0.0
 40
5.0
  1
%%USP 955024/550/10
 50
90.0
 41
0.8
  7
ROMANS
 72
     1
 11
267.0
 21
211.0
 31
0.0
100
AcDbText
  0
INSERT
  5
319
100
AcDbEntity
  8
GLAS_MED_FOGNING
100
AcDbBlockReference
  2
955024-550-10
 10
325.0
 20
211.0
 30
0.0
  0
TEXT
  5
31A
100
AcDbEntity
  8
TEXT
100
AcDbText
 10
27.0
 20
440.538095
 30
0.0
 40
5.0
  1
%%USP 955010/550/10
 50
90.0
 41
0.8
  7
ROMANS
 72
     1
 11
27.0
 21
471.0
 31
0.0
100
AcDbText
  0
TEXT
  5
31B
100
AcDbEntity
  8
TEXT
100
AcDbText
 10
147.0
 20
440.538095
 30
0.0
 40
5.0
  1
%%USP 955014/550/10
 50
90.0
 41
0.8
  7
ROMANS
 72
     1
 11
147.0
 21
471.0
 31
0.0
100
AcDbText
  0
INSERT
  5
31C
100
AcDbEntity
  8
GLAS_MED_FOGNING
100
AcDbBlockReference
  2
955010-550-10
 10
85.0
 20
471.0
 30
0.0
  0
INSERT
  5
31D
100
AcDbEntity
  8
GLAS_MED_FOGNING
100
AcDbBlockReference
  2
955014-550-10
 10
205.0
 20
471.0
 30
0.0
  0
INSERT
  5
31E
100
AcDbEntity
  8
GLAS_MED_FOGNING
100
AcDbBlockReference
  2
955011-550-10
 10
85.0
 20
341.0
 30
0.0
  0
TEXT
  5
31F
100
AcDbEntity
  8
TEXT
100
AcDbText
 10
27.0
 20
310.538095
 30
0.0
 40
5.0
  1
%%USP 955011/550/10
 50
90.0
 41
0.8
  7
ROMANS
 72
     1
 11
27.0
 21
341.0
 31
0.0
100
AcDbText
  0
TEXT
  5
320
100
AcDbEntity
  8
TEXT
100
AcDbText
 10
147.0
 20
310.538095
 30
0.0
 40
5.0
  1
%%USP 955015/550/10
 50
90.0
 41
0.8
  7
ROMANS
 72
     1
 11
147.0
 21
341.0
 31
0.0
100
AcDbText
  0
INSERT
  5
321
100
AcDbEntity
  8
GLAS_MED_FOGNING
100
AcDbBlockReference
  2
955015-550-10
 10
205.0
 20
341.0
 30
0.0
  0
TEXT
  5
322
100
AcDbEntity
  8
TEXT
100
AcDbText
 10
267.0
 20
440.538095
 30
0.0
 40
5.0
  1
%%USP 955022/550/10
 50
90.0
 41
0.8
  7
ROMANS
 72
     1
 11
267.0
 21
471.0
 31
0.0
100
AcDbText
  0
INSERT
  5
323
100
AcDbEntity
  8
GLAS_MED_FOGNING
100
AcDbBlockReference
  2
955022-550-10
 10
325.0
 20
471.0
 30
0.0
  0
TEXT
  5
324
100
AcDbEntity
  8
TEXT
100
AcDbText
 10
267.0
 20
310.538095
 30
0.0
 40
5.0
  1
%%USP 955023/550/10
 50
90.0
 41
0.8
  7
ROMANS
 72
     1
 11
267.0
 21
341.0
 31
0.0
100
AcDbText
  0
INSERT
  5
325
100
AcDbEntity
  8
GLAS_MED_FOGNING
100
AcDbBlockReference
  2
955023-550-10
 10
325.0
 20
341.0
 30
0.0
  0
ENDBLK
  5
327
100
AcDbEntity
  8
0
100
AcDbBlockEnd
  0
ENDSEC
  0
SECTION
  2
ENTITIES
  0
INSERT
  5
1E
100
AcDbEntity
  8
0
100
AcDbBlockReference
  2
SIDA
 10
0.0
 20
0.0
 30
0.0
  0
INSERT
  5
32
100
AcDbEntity
  8
GLAS_MED_FOGNING
100
AcDbBlockReference
  2
SP955025-585-10
 10
-55.0
 20
250.0
 30
0.0
  0
TEXT
  5
115
100
AcDbEntity
  8
TEXT
100
AcDbText
 10
-213.0
 20
74.538095
 30
0.0
 40
5.0
  1
%%USP 955022/585/10
 50
90.0
 41
0.8
  7
ROMANS
 72
     1
 11
-213.0
 21
105.0
 31
0.0
100
AcDbText
  0
TEXT
  5
118
100
AcDbEntity
  8
TEXT
100
AcDbText
 10
-333.0
 20
74.538095
 30
0.0
 40
5.0
  1
%%USP 955013/585/10
 50
90.0
 41
0.8
  7
ROMANS
 72
     1
 11
-333.0
 21
105.0
 31
0.0
100
AcDbText
  0
INSERT
  5
119
100
AcDbEntity
  8
GLAS_MED_FOGNING
100
AcDbBlockReference
  2
SP955013-585-10
 10
-295.0
 20
120.0
 30
0.0
  0
INSERT
  5
13D
100
AcDbEntity
  8
GLAS_MED_FOGNING
100
AcDbBlockReference
  2
SP955022-585-10
 10
-175.0
 20
120.0
 30
0.0
  0
INSERT
  5
148
100
AcDbEntity
  8
GLAS_MED_FOGNING
100
AcDbBlockReference
  2
SP955012-585-10
 10
-295.0
 20
250.0
 30
0.0
  0
TEXT
  5
154
100
AcDbEntity
  8
TEXT
100
AcDbText
 10
-333.0
 20
204.538095
 30
0.0
 40
5.0
  1
%%USP 955012/585/10
 50
90.0
 41
0.8
  7
ROMANS
 72
     1
 11
-333.0
 21
235.0
 31
0.0
100
AcDbText
  0
TEXT
  5
155
100
AcDbEntity
  8
TEXT
100
AcDbText
 10
-213.0
 20
204.538095
 30
0.0
 40
5.0
  1
%%USP 955021/585/10
 50
90.0
 41
0.8
  7
ROMANS
 72
     1
 11
-213.0
 21
235.0
 31
0.0
100
AcDbText
  0
INSERT
  5
156
100
AcDbEntity
  8
GLAS_MED_FOGNING
100
AcDbBlockReference
  2
SP955021-585-10
 10
-175.0
 20
250.0
 30
0.0
  0
TEXT
  5
161
100
AcDbEntity
  8
TEXT
100
AcDbText
 10
-86.114286
 20
40.0
 30
0.0
 40
5.0
  1
SP 95000  %%UPAGE 9
 41
0.8
  7
ROMANS
 72
     2
 11
-25.0
 21
40.0
 31
0.0
100
AcDbText
  0
TEXT
  5
162
100
AcDbEntity
  8
TEXT
100
AcDbText
 10
-92.971429
 20
25.0
 30
0.0
 40
5.0
  1
File name  %%U950PAGE9
 41
0.8
  7
ROMANS
 72
     2
 11
-25.0
 21
25.0
 31
0.0
100
AcDbText
  0
TEXT
  5
163
100
AcDbEntity
  8
TEXT
100
AcDbText
 10
-93.0
 20
204.538095
 30
0.0
 40
5.0
  1
%%USP 955025/585/10
 50
90.0
 41
0.8
  7
ROMANS
 72
     1
 11
-93.0
 21
235.0
 31
0.0
100
AcDbText
  0
INSERT
  5
164
100
AcDbEntity
  8
GLAS_MED_FOGNING
100
AcDbBlockReference
  2
SP955024-585-10
 10
-55.0
 20
380.0
 30
0.0
  0
INSERT
  5
16F
100
AcDbEntity
  8
GLAS_MED_FOGNING
100
AcDbBlockReference
  2
SP955023-585-10
 10
-55.0
 20
510.0
 30
0.0
  0
TEXT
  5
17A
100
AcDbEntity
  8
TEXT
100
AcDbText
 10
-333.0
 20
464.538095
 30
0.0
 40
5.0
  1
%%USP 955010/585/10
 50
90.0
 41
0.8
  7
ROMANS
 72
     1
 11
-333.0
 21
495.0
 31
0.0
100
AcDbText
  0
TEXT
  5
17B
100
AcDbEntity
  8
TEXT
100
AcDbText
 10
-213.0
 20
464.538095
 30
0.0
 40
5.0
  1
%%USP 955014/585/10
 50
90.0
 41
0.8
  7
ROMANS
 72
     1
 11
-213.0
 21
495.0
 31
0.0
100
AcDbText
  0
INSERT
  5
17C
100
AcDbEntity
  8
GLAS_MED_FOGNING
100
AcDbBlockReference
  2
SP955010-585-10
 10
-295.0
 20
510.0
 30
0.0
  0
INSERT
  5
188
100
AcDbEntity
  8
GLAS_MED_FOGNING
100
AcDbBlockReference
  2
SP955014-585-10
 10
-175.0
 20
510.0
 30
0.0
  0
INSERT
  5
194
100
AcDbEntity
  8
GLAS_MED_FOGNING
100
AcDbBlockReference
  2
SP955011-585-10
 10
-295.0
 20
380.0
 30
0.0
  0
TEXT
  5
1A0
100
AcDbEntity
  8
TEXT
100
AcDbText
 10
-333.0
 20
334.538095
 30
0.0
 40
5.0
  1
%%USP 955011/585/10
 50
90.0
 41
0.8
  7
ROMANS
 72
     1
 11
-333.0
 21
365.0
 31
0.0
100
AcDbText
  0
TEXT
  5
1A1
100
AcDbEntity
  8
TEXT
100
AcDbText
 10
-213.0
 20
334.538095
 30
0.0
 40
5.0
  1
%%USP 955020/585/10
 50
90.0
 41
0.8
  7
ROMANS
 72
     1
 11
-213.0
 21
365.0
 31
0.0
100
AcDbText
  0
INSERT
  5
1A2
100
AcDbEntity
  8
GLAS_MED_FOGNING
100
AcDbBlockReference
  2
SP955020-585-10
 10
-175.0
 20
380.0
 30
0.0
  0
TEXT
  5
1AD
100
AcDbEntity
  8
TEXT
100
AcDbText
 10
-93.0
 20
464.538095
 30
0.0
 40
5.0
  1
%%USP 955023/585/10
 50
90.0
 41
0.8
  7
ROMANS
 72
     1
 11
-93.0
 21
495.0
 31
0.0
100
AcDbText
  0
TEXT
  5
1AE
100
AcDbEntity
  8
TEXT
100
AcDbText
 10
-93.0
 20
334.538095
 30
0.0
 40
5.0
  1
%%USP 955024/585/10
 50
90.0
 41
0.8
  7
ROMANS
 72
     1
 11
-93.0
 21
365.0
 31
0.0
100
AcDbText
  0
INSERT
  5
329
100
AcDbEntity
  8
0
100
AcDbBlockReference
  2
SIDA
 10
-370.0
 20
0.0
 30
0.0
  0
TEXT
  5
32A
100
AcDbEntity
  8
TEXT
100
AcDbText
 10
-723.0
 20
74.538095
 30
0.0
 40
5.0
  1
%%USP 955013/550/10
 50
90.0
 41
0.8
  7
ROMANS
 72
     1
 11
-723.0
 21
105.0
 31
0.0
100
AcDbText
  0
TEXT
  5
32B
100
AcDbEntity
  8
TEXT
100
AcDbText
 10
-603.0
 20
74.538095
 30
0.0
 40
5.0
  1
%%USP 955021/550/10
 50
90.0
 41
0.8
  7
ROMANS
 72
     1
 11
-603.0
 21
105.0
 31
0.0
100
AcDbText
  0
INSERT
  5
32C
100
AcDbEntity
  8
GLAS_MED_FOGNING
100
AcDbBlockReference
  2
955013-550-10
 10
-665.0
 20
105.0
 30
0.0
  0
INSERT
  5
32D
100
AcDbEntity
  8
GLAS_MED_FOGNING
100
AcDbBlockReference
  2
955021-550-10
 10
-545.0
 20
105.0
 30
0.0
  0
INSERT
  5
32E
100
AcDbEntity
  8
GLAS_MED_FOGNING
100
AcDbBlockReference
  2
955012-550-10
 10
-665.0
 20
235.0
 30
0.0
  0
TEXT
  5
32F
100
AcDbEntity
  8
TEXT
100
AcDbText
 10
-723.0
 20
204.538095
 30
0.0
 40
5.0
  1
%%USP 955012/550/10
 50
90.0
 41
0.8
  7
ROMANS
 72
     1
 11
-723.0
 21
235.0
 31
0.0
100
AcDbText
  0
INSERT
  5
330
100
AcDbEntity
  8
GLAS_MED_FOGNING
100
AcDbBlockReference
  2
955020-20-10
 10
-545.0
 20
200.0
 30
0.0
  0
TEXT
  5
331
100
AcDbEntity
  8
TEXT
100
AcDbText
 10
-603.0
 20
171.442857
 30
0.0
 40
5.0
  1
%%USP 955020/20/10
 50
90.0
 41
0.8
  7
ROMANS
 72
     1
 11
-603.0
 21
200.0
 31
0.0
100
AcDbText
  0
INSERT
  5
332
100
AcDbEntity
  8
GLAS_MED_FOGNING
100
AcDbBlockReference
  2
955020-550-10
 10
-545.0
 20
265.0
 30
0.0
  0
TEXT
  5
333
100
AcDbEntity
  8
TEXT
100
AcDbText
 10
-603.0
 20
234.538095
 30
0.0
 40
5.0
  1
%%USP 955020/550/10
 50
90.0
 41
0.8
  7
ROMANS
 72
     1
 11
-603.0
 21
265.0
 31
0.0
100
AcDbText
  0
TEXT
  5
334
100
AcDbEntity
  8
TEXT
100
AcDbText
 10
-483.0
 20
74.538095
 30
0.0
 40
5.0
  1
%%USP 955025/550/10
 50
90.0
 41
0.8
  7
ROMANS
 72
     1
 11
-483.0
 21
105.0
 31
0.0
100
AcDbText
  0
INSERT
  5
335
100
AcDbEntity
  8
GLAS_MED_FOGNING
100
AcDbBlockReference
  2
955025-550-10
 10
-425.0
 20
105.0
 30
0.0
  0
TEXT
  5
336
100
AcDbEntity
  8
TEXT
100
AcDbText
 10
-462.971429
 20
25.0
 30
0.0
 40
5.0
  1
File name  %%U950PAGE9
 41
0.8
  7
ROMANS
 72
     2
 11
-395.0
 21
25.0
 31
0.0
100
AcDbText
  0
TEXT
  5
337
100
AcDbEntity
  8
TEXT
100
AcDbText
 10
-452.114286
 20
40.0
 30
0.0
 40
5.0
  1
SP 95000  %%UPAGE9
 41
0.8
  7
ROMANS
 72
     2
 11
-395.0
 21
40.0
 31
0.0
100
AcDbText
  0
TEXT
  5
338
100
AcDbEntity
  8
TEXT
100
AcDbText
 10
-483.0
 20
204.538095
 30
0.0
 40
5.0
  1
%%USP 955024/550/10
 50
90.0
 41
0.8
  7
ROMANS
 72
     1
 11
-483.0
 21
235.0
 31
0.0
100
AcDbText
  0
INSERT
  5
339
100
AcDbEntity
  8
GLAS_MED_FOGNING
100
AcDbBlockReference
  2
955024-550-10
 10
-425.0
 20
235.0
 30
0.0
  0
TEXT
  5
33A
100
AcDbEntity
  8
TEXT
100
AcDbText
 10
-723.0
 20
464.538095
 30
0.0
 40
5.0
  1
%%USP 955010/550/10
 50
90.0
 41
0.8
  7
ROMANS
 72
     1
 11
-723.0
 21
495.0
 31
0.0
100
AcDbText
  0
TEXT
  5
33B
100
AcDbEntity
  8
TEXT
100
AcDbText
 10
-603.0
 20
464.538095
 30
0.0
 40
5.0
  1
%%USP 955014/550/10
 50
90.0
 41
0.8
  7
ROMANS
 72
     1
 11
-603.0
 21
495.0
 31
0.0
100
AcDbText
  0
INSERT
  5
33C
100
AcDbEntity
  8
GLAS_MED_FOGNING
100
AcDbBlockReference
  2
955010-550-10
 10
-665.0
 20
495.0
 30
0.0
  0
INSERT
  5
33D
100
AcDbEntity
  8
GLAS_MED_FOGNING
100
AcDbBlockReference
  2
955014-550-10
 10
-545.0
 20
495.0
 30
0.0
  0
INSERT
  5
33E
100
AcDbEntity
  8
GLAS_MED_FOGNING
100
AcDbBlockReference
  2
955011-550-10
 10
-665.0
 20
365.0
 30
0.0
  0
TEXT
  5
33F
100
AcDbEntity
  8
TEXT
100
AcDbText
 10
-723.0
 20
334.538095
 30
0.0
 40
5.0
  1
%%USP 955011/550/10
 50
90.0
 41
0.8
  7
ROMANS
 72
     1
 11
-723.0
 21
365.0
 31
0.0
100
AcDbText
  0
TEXT
  5
340
100
AcDbEntity
  8
TEXT
100
AcDbText
 10
-603.0
 20
334.538095
 30
0.0
 40
5.0
  1
%%USP 955015/550/10
 50
90.0
 41
0.8
  7
ROMANS
 72
     1
 11
-603.0
 21
365.0
 31
0.0
100
AcDbText
  0
INSERT
  5
341
100
AcDbEntity
  8
GLAS_MED_FOGNING
100
AcDbBlockReference
  2
955015-550-10
 10
-545.0
 20
365.0
 30
0.0
  0
TEXT
  5
342
100
AcDbEntity
  8
TEXT
100
AcDbText
 10
-483.0
 20
464.538095
 30
0.0
 40
5.0
  1
%%USP 955022/550/10
 50
90.0
 41
0.8
  7
ROMANS
 72
     1
 11
-483.0
 21
495.0
 31
0.0
100
AcDbText
  0
INSERT
  5
343
100
AcDbEntity
  8
GLAS_MED_FOGNING
100
AcDbBlockReference
  2
955022-550-10
 10
-425.0
 20
495.0
 30
0.0
  0
TEXT
  5
344
100
AcDbEntity
  8
TEXT
100
AcDbText
 10
-483.0
 20
334.538095
 30
0.0
 40
5.0
  1
%%USP 955023/550/10
 50
90.0
 41
0.8
  7
ROMANS
 72
     1
 11
-483.0
 21
365.0
 31
0.0
100
AcDbText
  0
INSERT
  5
345
100
AcDbEntity
  8
GLAS_MED_FOGNING
100
AcDbBlockReference
  2
955023-550-10
 10
-425.0
 20
365.0
 30
0.0
  0
ENDSEC
  0
SECTION
  2
OBJECTS
  0
DICTIONARY
  5
1A
100
AcDbDictionary
  3
ACAD_GROUP
350
18
  3
ACAD_LAYOUT
350
34F
  3
ACAD_MLINESTYLE
350
19
  3
ACAD_PLOTSETTINGS
350
350
  3
ACAD_PLOTSTYLENAME
350
34D
  3
ACDBHEADERROUNDTRIPXREC
350
359
  0
DICTIONARY
  5
379
100
AcDbDictionary
280
     1
  3
ACAD_LAYOUTSELFREF
360
37A
  0
DICTIONARY
  5
37B
100
AcDbDictionary
280
     1
  3
ACAD_LAYOUTSELFREF
360
37C
  0
DICTIONARY
  5
18
102
{ACAD_REACTORS
330
1A
102
}
100
AcDbDictionary
  0
DICTIONARY
  5
34F
102
{ACAD_XDICTIONARY
360
39A
102
}
102
{ACAD_REACTORS
330
1A
102
}
100
AcDbDictionary
  3
LAYOUT1
350
352
  3
MODEL
350
351
  0
DICTIONARY
  5
19
102
{ACAD_REACTORS
330
1A
102
}
100
AcDbDictionary
  3
STANDARD
350
1C
  0
DICTIONARY
  5
350
102
{ACAD_REACTORS
330
1A
102
}
100
AcDbDictionary
  0
ACAD_PROXY_OBJECT
  5
34D
102
{ACAD_REACTORS
330
1A
102
}
100
AcDbProxyObject
 90
      499
 91
      503
 93
       86
310
405010041939BDC9B585B0
350
34E
340
34E
 94
        0
  0
DICTIONARY
  5
359
102
{ACAD_REACTORS
330
1A
102
}
100
AcDbDictionary
  3
CEPSNTYPE
350
363
  3
FINGERPRINTGUID
350
364
  3
HYPERLINKBASE
350
35C
  3
INSUNITS
350
362
  3
LAYOUTDICT
350
35E
  3
LWETCUNION
350
361
  3
PLOTSETDICT
350
35F
  3
PLOTSTYLNAMDICT
350
360
  3
PSVPSCALE
350
366
  3
PUCSBASE
350
369
  3
PUCSORGBACK
350
36F
  3
PUCSORGBOTTOM
350
36B
  3
PUCSORGFRONT
350
36E
  3
PUCSORGLEFT
350
36C
  3
PUCSORGRIGHT
350
36D
  3
PUCSORGTOP
350
36A
  3
PUCSORTHOREF
350
367
  3
PUCSORTHOVIEW
350
368
  3
STYLESHEET
350
35D
  3
TSTACKALIGN
350
35A
  3
TSTACKSIZE
350
35B
  3
UCSBASE
350
372
  3
UCSORGBACK
350
378
  3
UCSORGBOTTOM
350
374
  3
UCSORGFRONT
350
377
  3
UCSORGLEFT
350
375
  3
UCSORGRIGHT
350
376
  3
UCSORGTOP
350
373
  3
UCSORTHOREF
350
370
  3
UCSORTHOVIEW
350
371
  3
VERSIONGUID
350
365
  0
XRECORD
  5
37A
102
{ACAD_REACTORS
330
379
102
}
100
AcDbXrecord
340
2
  0
XRECORD
  5
37C
102
{ACAD_REACTORS
330
37B
102
}
100
AcDbXrecord
340
7
  0
DICTIONARY
  5
39A
100
AcDbDictionary
280
     1
  3
ACAD_XREC_ROUNDTRIP
360
39B
  0
ACAD_PROXY_OBJECT
  5
352
102
{ACAD_REACTORS
330
34F
102
}
100
AcDbProxyObject
 90
      499
 91
      505
 93
     1092
310
91D4850204C617365724A65742034562F344D5620506F73745363726970742C00AAAAAA416AA591069074C61796F75743140501A800000000000000000000000000000000000000000101E900000000000241C902A6A6A10232D5E076BC5510408CB5781DAF154410232D5E076BC5510408CB5781DAF15C410232D5E076BC5
310
710408CB5781DAF15C40
330
7
330
0
340
0
340
0
 94
        0
  0
ACAD_PROXY_OBJECT
  5
351
102
{ACAD_REACTORS
330
34F
102
}
100
AcDbProxyObject
 90
      499
 91
      505
 93
      668
310
91D4850204C617365724A65742034562F344D5620506F73745363726970742C01AAAAAAAAA5A69054D6F64656C901A800000000000000000000000000000000000000000000A1000000000000008902A6A6AAAA0
330
2
330
0
340
0
340
0
 94
        0
  0
MLINESTYLE
  5
1C
102
{ACAD_REACTORS
330
19
102
}
100
AcDbMlineStyle
  2
STANDARD
 70
     0
  3

 62
     0
 51
90.0
 52
90.0
 71
     2
 49
0.5
 62
   256
  6
BYLAYER
 49
-0.5
 62
   256
  6
BYLAYER
  0
ACAD_PROXY_OBJECT
  5
34E
102
{ACAD_REACTORS
330
34D
102
}
100
AcDbProxyObject
 90
      499
 91
      504
 93
        0
 94
        0
  0
XRECORD
  5
363
102
{ACAD_REACTORS
330
359
102
}
100
AcDbXrecord
 90
        0
  0
XRECORD
  5
364
102
{ACAD_REACTORS
330
359
102
}
100
AcDbXrecord
  1
{DCFA0AAF-0BE8-11D6-AA0B-00D0B7E2A69D}
  0
XRECORD
  5
35C
102
{ACAD_REACTORS
330
359
102
}
100
AcDbXrecord
  1

  0
XRECORD
  5
362
102
{ACAD_REACTORS
330
359
102
}
100
AcDbXrecord
 90
        0
  0
XRECORD
  5
35E
102
{ACAD_REACTORS
330
359
102
}
100
AcDbXrecord
340
34F
  0
XRECORD
  5
361
102
{ACAD_REACTORS
330
359
102
}
100
AcDbXrecord
 90
    14877
  0
XRECORD
  5
35F
102
{ACAD_REACTORS
330
359
102
}
100
AcDbXrecord
340
350
  0
XRECORD
  5
360
102
{ACAD_REACTORS
330
359
102
}
100
AcDbXrecord
340
34D
  0
XRECORD
  5
366
102
{ACAD_REACTORS
330
359
102
}
100
AcDbXrecord
 40
0.0
  0
XRECORD
  5
369
102
{ACAD_REACTORS
330
359
102
}
100
AcDbXrecord
340
0
  0
XRECORD
  5
36F
102
{ACAD_REACTORS
330
359
102
}
100
AcDbXrecord
 10
0.0
 20
0.0
 30
0.0
  0
XRECORD
  5
36B
102
{ACAD_REACTORS
330
359
102
}
100
AcDbXrecord
 10
0.0
 20
0.0
 30
0.0
  0
XRECORD
  5
36E
102
{ACAD_REACTORS
330
359
102
}
100
AcDbXrecord
 10
0.0
 20
0.0
 30
0.0
  0
XRECORD
  5
36C
102
{ACAD_REACTORS
330
359
102
}
100
AcDbXrecord
 10
0.0
 20
0.0
 30
0.0
  0
XRECORD
  5
36D
102
{ACAD_REACTORS
330
359
102
}
100
AcDbXrecord
 10
0.0
 20
0.0
 30
0.0
  0
XRECORD
  5
36A
102
{ACAD_REACTORS
330
359
102
}
100
AcDbXrecord
 10
0.0
 20
0.0
 30
0.0
  0
XRECORD
  5
367
102
{ACAD_REACTORS
330
359
102
}
100
AcDbXrecord
340
0
  0
XRECORD
  5
368
102
{ACAD_REACTORS
330
359
102
}
100
AcDbXrecord
 70
     0
  0
XRECORD
  5
35D
102
{ACAD_REACTORS
330
359
102
}
100
AcDbXrecord
  1

  0
XRECORD
  5
35A
102
{ACAD_REACTORS
330
359
102
}
100
AcDbXrecord
 90
        1
  0
XRECORD
  5
35B
102
{ACAD_REACTORS
330
359
102
}
100
AcDbXrecord
 90
       70
  0
XRECORD
  5
372
102
{ACAD_REACTORS
330
359
102
}
100
AcDbXrecord
340
0
  0
XRECORD
  5
378
102
{ACAD_REACTORS
330
359
102
}
100
AcDbXrecord
 10
0.0
 20
0.0
 30
0.0
  0
XRECORD
  5
374
102
{ACAD_REACTORS
330
359
102
}
100
AcDbXrecord
 10
0.0
 20
0.0
 30
0.0
  0
XRECORD
  5
377
102
{ACAD_REACTORS
330
359
102
}
100
AcDbXrecord
 10
0.0
 20
0.0
 30
0.0
  0
XRECORD
  5
375
102
{ACAD_REACTORS
330
359
102
}
100
AcDbXrecord
 10
0.0
 20
0.0
 30
0.0
  0
XRECORD
  5
376
102
{ACAD_REACTORS
330
359
102
}
100
AcDbXrecord
 10
0.0
 20
0.0
 30
0.0
  0
XRECORD
  5
373
102
{ACAD_REACTORS
330
359
102
}
100
AcDbXrecord
 10
0.0
 20
0.0
 30
0.0
  0
XRECORD
  5
370
102
{ACAD_REACTORS
330
359
102
}
100
AcDbXrecord
340
0
  0
XRECORD
  5
371
102
{ACAD_REACTORS
330
359
102
}
100
AcDbXrecord
 70
     0
  0
XRECORD
  5
365
102
{ACAD_REACTORS
330
359
102
}
100
AcDbXrecord
  1
{DCFA0AB1-0BE8-11D6-AA0B-00D0B7E2A69D}
  0
XRECORD
  5
39B
102
{ACAD_REACTORS
330
39A
102
}
100
AcDbXrecord
102
EXTNAMES
  1
LAYOUT1
  2
Layout1
  1
MODEL
  2
Model
  0
ENDSEC
  0
EOF
