  0
SECTION
  2
HEADER
  9
$ACADVER
  1
AC1014
  9
$ACADMAINTVER
 70
     0
  9
$DWGCODEPAGE
  3
ANSI_1252
  9
$INSBASE
 10
-755.0
 20
20.0
 30
0.0
  9
$EXTMIN
 10
-1130.0
 20
24.0
 30
0.0
  9
$EXTMAX
 10
-770.0
 20
560.0
 30
0.0
  9
$LIMMIN
 10
0.0
 20
0.0
  9
$LIMMAX
 10
840.0
 20
600.0
  9
$ORTHOMODE
 70
     0
  9
$REGENMODE
 70
     1
  9
$FILLMODE
 70
     1
  9
$QTEXTMODE
 70
     0
  9
$MIRRTEXT
 70
     1
  9
$DRAGMODE
 70
     2
  9
$LTSCALE
 40
5.0
  9
$OSMODE
 70
   547
  9
$ATTMODE
 70
     1
  9
$TEXTSIZE
 40
3.15
  9
$TRACEWID
 40
0.05
  9
$TEXTSTYLE
  7
STANDARD
  9
$CLAYER
  8
RAM
  9
$CELTYPE
  6
BYLAYER
  9
$CECOLOR
 62
   256
  9
$CELTSCALE
 40
1.0
  9
$DELOBJ
 70
     1
  9
$DISPSILH
 70
     0
  9
$DIMSCALE
 40
1.0
  9
$DIMASZ
 40
0.0
  9
$DIMEXO
 40
1.0
  9
$DIMDLI
 40
10.0
  9
$DIMRND
 40
0.0
  9
$DIMDLE
 40
0.0
  9
$DIMEXE
 40
2.0
  9
$DIMTP
 40
0.0
  9
$DIMTM
 40
0.0
  9
$DIMTXT
 40
3.5
  9
$DIMCEN
 40
2.5
  9
$DIMTSZ
 40
1.0
  9
$DIMTOL
 70
     0
  9
$DIMLIM
 70
     0
  9
$DIMTIH
 70
     0
  9
$DIMTOH
 70
     0
  9
$DIMSE1
 70
     0
  9
$DIMSE2
 70
     0
  9
$DIMTAD
 70
     1
  9
$DIMZIN
 70
     8
  9
$DIMBLK
  1

  9
$DIMASO
 70
     1
  9
$DIMSHO
 70
     1
  9
$DIMPOST
  1

  9
$DIMAPOST
  1

  9
$DIMALT
 70
     0
  9
$DIMALTD
 70
     2
  9
$DIMALTF
 40
25.4
  9
$DIMLFAC
 40
1.0
  9
$DIMTOFL
 70
     1
  9
$DIMTVP
 40
0.0
  9
$DIMTIX
 70
     0
  9
$DIMSOXD
 70
     0
  9
$DIMSAH
 70
     0
  9
$DIMBLK1
  1

  9
$DIMBLK2
  1

  9
$DIMSTYLE
  2
STANDARD
  9
$DIMCLRD
 70
     0
  9
$DIMCLRE
 70
     0
  9
$DIMCLRT
 70
     6
  9
$DIMTFAC
 40
1.0
  9
$DIMGAP
 40
0.1
  9
$DIMJUST
 70
     0
  9
$DIMSD1
 70
     0
  9
$DIMSD2
 70
     0
  9
$DIMTOLJ
 70
     1
  9
$DIMTZIN
 70
     0
  9
$DIMALTZ
 70
     0
  9
$DIMALTTZ
 70
     0
  9
$DIMFIT
 70
     3
  9
$DIMUPT
 70
     0
  9
$DIMUNIT
 70
     2
  9
$DIMDEC
 70
     4
  9
$DIMTDEC
 70
     4
  9
$DIMALTU
 70
     2
  9
$DIMALTTD
 70
     2
  9
$DIMTXSTY
  7
STANDARD
  9
$DIMAUNIT
 70
     0
  9
$LUNITS
 70
     2
  9
$LUPREC
 70
     2
  9
$SKETCHINC
 40
0.1
  9
$FILLETRAD
 40
0.5
  9
$AUNITS
 70
     0
  9
$AUPREC
 70
     4
  9
$MENU
  1
acad
  9
$ELEVATION
 40
0.0
  9
$PELEVATION
 40
0.0
  9
$THICKNESS
 40
0.0
  9
$LIMCHECK
 70
     0
  9
$BLIPMODE
 70
     0
  9
$CHAMFERA
 40
10.0
  9
$CHAMFERB
 40
10.0
  9
$CHAMFERC
 40
0.0
  9
$CHAMFERD
 40
0.0
  9
$SKPOLY
 70
     0
  9
$TDCREATE
 40
2450609.789203009
  9
$TDUPDATE
 40
2452293.540147685
  9
$TDINDWG
 40
0.1533805556
  9
$TDUSRTIMER
 40
0.1533805556
  9
$USRTIMER
 70
     1
  9
$ANGBASE
 50
0.0
  9
$ANGDIR
 70
     0
  9
$PDMODE
 70
    35
  9
$PDSIZE
 40
0.0
  9
$PLINEWID
 40
0.0
  9
$COORDS
 70
     1
  9
$SPLFRAME
 70
     0
  9
$SPLINETYPE
 70
     6
  9
$SPLINESEGS
 70
     8
  9
$ATTDIA
 70
     0
  9
$ATTREQ
 70
     1
  9
$HANDLING
 70
     1
  9
$HANDSEED
  5
DC
  9
$SURFTAB1
 70
     6
  9
$SURFTAB2
 70
     6
  9
$SURFTYPE
 70
     6
  9
$SURFU
 70
     6
  9
$SURFV
 70
     6
  9
$UCSNAME
  2

  9
$UCSORG
 10
0.0
 20
0.0
 30
0.0
  9
$UCSXDIR
 10
1.0
 20
0.0
 30
0.0
  9
$UCSYDIR
 10
0.0
 20
1.0
 30
0.0
  9
$PUCSNAME
  2

  9
$PUCSORG
 10
0.0
 20
0.0
 30
0.0
  9
$PUCSXDIR
 10
1.0
 20
0.0
 30
0.0
  9
$PUCSYDIR
 10
0.0
 20
1.0
 30
0.0
  9
$USERI1
 70
     0
  9
$USERI2
 70
     0
  9
$USERI3
 70
     0
  9
$USERI4
 70
     0
  9
$USERI5
 70
     0
  9
$USERR1
 40
0.0
  9
$USERR2
 40
0.0
  9
$USERR3
 40
0.0
  9
$USERR4
 40
0.0
  9
$USERR5
 40
0.0
  9
$WORLDVIEW
 70
     1
  9
$SHADEDGE
 70
     3
  9
$SHADEDIF
 70
    70
  9
$TILEMODE
 70
     1
  9
$MAXACTVP
 70
    16
  9
$PINSBASE
 10
0.0
 20
0.0
 30
0.0
  9
$PLIMCHECK
 70
     0
  9
$PEXTMIN
 10
1.000000E+20
 20
1.000000E+20
 30
1.000000E+20
  9
$PEXTMAX
 10
-1.000000E+20
 20
-1.000000E+20
 30
-1.000000E+20
  9
$PLIMMIN
 10
0.0
 20
0.0
  9
$PLIMMAX
 10
420.0
 20
297.0
  9
$UNITMODE
 70
     0
  9
$VISRETAIN
 70
     0
  9
$PLINEGEN
 70
     0
  9
$PSLTSCALE
 70
     1
  9
$TREEDEPTH
 70
  3020
  9
$PICKSTYLE
 70
     1
  9
$CMLSTYLE
  2
STANDARD
  9
$CMLJUST
 70
     0
  9
$CMLSCALE
 40
1.0
  9
$PROXYGRAPHICS
 70
     1
  9
$MEASUREMENT
 70
     0
  0
ENDSEC
  0
SECTION
  2
CLASSES
  0
CLASS
  1
LWPOLYLINE
  2
AcDbPolyline
  3
"AutoCAD"
 90
        0
280
     0
281
     1
  0
CLASS
  1
ACDBDICTIONARYWDFLT
  2
AcDbDictionaryWithDefault
  3
AutoCAD 2000
 90
        0
280
     0
281
     0
  0
CLASS
  1
ACDBPLACEHOLDER
  2
AcDbPlaceHolder
  3
AutoCAD 2000
 90
        0
280
     0
281
     0
  0
CLASS
  1
LAYOUT
  2
AcDbLayout
  3
AutoCAD 2000
 90
        0
280
     0
281
     0
  0
CLASS
  1
LONG_TRANSACTION
  2
AcDbLongTransaction
  3
AutoCAD 2000
 90
        0
280
     0
281
     0
  0
CLASS
  1
LWPOLYLINE
  2
AcDbPolyline
  3
"AutoCAD"
 90
        0
280
     0
281
     1
  0
CLASS
  1
HATCH
  2
AcDbHatch
  3
"ACAD_SEDONA"
 90
        0
280
     0
281
     1
  0
CLASS
  1
XRECORD
  2
AcDbXrecord
  3
"<Built In>"
 90
        0
280
     0
281
     0
  0
ENDSEC
  0
SECTION
  2
TABLES
  0
TABLE
  2
VPORT
  5
12
100
AcDbSymbolTable
 70
     1
  0
VPORT
  5
A7
102
{ACAD_XDICTIONARY
360
A8
102
}
100
AcDbSymbolTableRecord
100
AcDbViewportTableRecord
  2
*ACTIVE
 70
     0
 10
0.0
 20
0.0
 11
1.0
 21
1.0
 12
-894.738241
 22
305.164814
 13
0.0
 23
0.0
 14
5.0
 24
5.0
 15
10.0
 25
10.0
 16
0.0
 26
0.0
 36
1.0
 17
0.0
 27
0.0
 37
0.0
 40
638.032906
 41
1.630435
 42
50.0
 43
0.0
 44
0.0
 50
0.0
 51
0.0
 71
     0
 72
   100
 73
     1
 74
     1
 75
     1
 76
     0
 77
     0
 78
     0
  0
ENDTAB
  0
TABLE
  2
LTYPE
  5
D
100
AcDbSymbolTable
 70
     2
  0
LTYPE
  5
E
100
AcDbSymbolTableRecord
100
AcDbLinetypeTableRecord
  2
BYBLOCK
 70
     0
  3

 72
    65
 73
     0
 40
0.0
  0
LTYPE
  5
F
100
AcDbSymbolTableRecord
100
AcDbLinetypeTableRecord
  2
BYLAYER
 70
     0
  3

 72
    65
 73
     0
 40
0.0
  0
LTYPE
  5
5
100
AcDbSymbolTableRecord
100
AcDbLinetypeTableRecord
  2
CONTINUOUS
 70
     0
  3
Solid line
 72
    65
 73
     0
 40
0.0
  0
LTYPE
  5
22
100
AcDbSymbolTableRecord
100
AcDbLinetypeTableRecord
  2
DASHDOT
 70
     0
  3
__ . __ . __ . __ . __ . __ . __ . __ . __ . __
 72
    65
 73
     4
 40
1.0
 49
0.5
 74
     0
 49
-0.25
 74
     0
 49
0.0
 74
     0
 49
-0.25
 74
     0
  0
ENDTAB
  0
TABLE
  2
LAYER
  5
A
100
AcDbSymbolTable
 70
     6
  0
LAYER
  5
4
100
AcDbSymbolTableRecord
100
AcDbLayerTableRecord
  2
0
 70
     0
 62
     7
  6
CONTINUOUS
  0
LAYER
  5
35
100
AcDbSymbolTableRecord
100
AcDbLayerTableRecord
  2
STALPROFIL
 70
     0
 62
     1
  6
CONTINUOUS
  0
LAYER
  5
33
100
AcDbSymbolTableRecord
100
AcDbLayerTableRecord
  2
SPKONTUR
 70
     0
 62
     7
  6
CONTINUOUS
  0
LAYER
  5
47
100
AcDbSymbolTableRecord
100
AcDbLayerTableRecord
  2
GLAS_MED_FOGNING
 70
     0
 62
     2
  6
CONTINUOUS
  0
LAYER
  5
3F
100
AcDbSymbolTableRecord
100
AcDbLayerTableRecord
  2
TEXT
 70
     0
 62
     6
  6
CONTINUOUS
  0
LAYER
  5
1B
100
AcDbSymbolTableRecord
100
AcDbLayerTableRecord
  2
RAM
 70
     0
 62
     5
  6
CONTINUOUS
  0
ENDTAB
  0
TABLE
  2
STYLE
  5
B
100
AcDbSymbolTable
 70
     2
  0
STYLE
  5
C
100
AcDbSymbolTableRecord
100
AcDbTextStyleTableRecord
  2
STANDARD
 70
     0
 40
0.0
 41
1.0
 50
0.0
 71
     0
 42
5.0
  3
txt
  4

  0
STYLE
  5
40
100
AcDbSymbolTableRecord
100
AcDbTextStyleTableRecord
  2
ROMANS
 70
     0
 40
0.0
 41
0.8
 50
0.0
 71
     0
 42
5.0
  3
romans
  4

  0
ENDTAB
  0
TABLE
  2
VIEW
  5
10
100
AcDbSymbolTable
 70
     0
  0
ENDTAB
  0
TABLE
  2
UCS
  5
11
100
AcDbSymbolTable
 70
     0
  0
ENDTAB
  0
TABLE
  2
APPID
  5
14
100
AcDbSymbolTable
 70
     3
  0
APPID
  5
15
100
AcDbSymbolTableRecord
100
AcDbRegAppTableRecord
  2
ACAD
 70
     0
  0
APPID
  5
9A
100
AcDbSymbolTableRecord
100
AcDbRegAppTableRecord
  2
CONTENTBLOCKDESCRIPTION
 70
     0
  0
APPID
  5
9B
100
AcDbSymbolTableRecord
100
AcDbRegAppTableRecord
  2
CONTENTBLOCKICON
 70
     0
  0
ENDTAB
  0
TABLE
  2
DIMSTYLE
  5
16
100
AcDbSymbolTable
 70
     1
  0
DIMSTYLE
105
1D
100
AcDbSymbolTableRecord
100
AcDbDimStyleTableRecord
  2
STANDARD
 70
     0
  3

  4

  5

  6

  7

 40
1.0
 41
0.18
 42
0.0625
 43
0.38
 44
0.18
 45
0.0
 46
0.0
 47
0.0
 48
0.0
140
0.18
141
0.09
142
0.0
143
25.4
144
1.0
145
0.0
146
1.0
147
0.09
 71
     0
 72
     0
 73
     1
 74
     1
 75
     0
 76
     0
 77
     0
 78
     0
170
     0
171
     2
172
     0
173
     0
174
     0
175
     0
176
     0
177
     0
178
     0
270
     2
271
     4
272
     4
273
     2
274
     2
340
C
275
     0
280
     0
281
     0
282
     0
283
     1
284
     0
285
     0
286
     0
287
     3
288
     0
  0
ENDTAB
  0
TABLE
  2
BLOCK_RECORD
  5
1
100
AcDbSymbolTable
 70
    11
  0
BLOCK_RECORD
  5
2
102
{ACAD_XDICTIONARY
360
CA
102
}
100
AcDbSymbolTableRecord
100
AcDbBlockTableRecord
  2
*MODEL_SPACE
  0
BLOCK_RECORD
  5
7
102
{ACAD_XDICTIONARY
360
CC
102
}
100
AcDbSymbolTableRecord
100
AcDbBlockTableRecord
  2
*PAPER_SPACE
  0
BLOCK_RECORD
  5
6F
100
AcDbSymbolTableRecord
100
AcDbBlockTableRecord
  2
SP95011
1001
CONTENTBLOCKICON
1071
        0
1004
2800000020000000200000000100040000000000000200000000000000000000000000000000000000000000000080000080000000808000800000008000800080800000C0C0C000808080000000FF0000FF000000FFFF00FF000000FF00FF00FFFF0000FFFFFF00FFFFFF00000000000000000000FFFFFFFFFF0099999999
1004
9999999999990FFFFFFFFF0FFFFFFFFFFFFFFFFFFFF90FFFFFFFFF0FFFFFFFFFFFFFFFFFFFF90FFFFFFFFF0FFFFFFFFFFFFFFFFFFFF90FFFFFFFFF0FFFFFFFFFFFFFFFFFFFF90FFFFFFFFF0FFFFFFFFFFFFFFFFFFFF90FFFFFFFFF0FFFFFFFFFFFFFFFFFFFF90FFFFFFFFF0FFFFFFFFFFFFFFFFFFFF90FFFFFFFFF0FFFFFFF
1004
FFFFFFFFFFFFF90FFFFFFFFF0FFFFFFFFFFFFFFFFFFFF90FFFFFFFFF0FFFFFFFFFFFFFFFFFFFF90FFFFFFFFF0FFFFFFFFFFFFFFFFFFFF90FFFFFFFFF0FFFFFFFFFFFFFFFFFFFF90FFFFFFFFF0FFFFFFFFFFFFFFFFFFFF90FFFFFFFFF0FFFFFFFFFFFFFFFFFFFF90FFFFFFFFF0FFFFFFFFFFFFFFFFFFFF00FFFFFFFFF0FFFFF
1004
FFFFFFFFFFFFF90FFFFFFFFFFF0FFFFFFFFFFFFFFFFFF9BBFFFFFFFFFF0FFFFFFFFFFFFFFF0BFBBFFFFFFFFFFF0FFFFFFFFFFFFFFFBBBBBFFFFFFFFFFF0FFFFFFFFFFFFFFF0BBBBFFFFFFFFFFF09000000000000000000BFFFFFFFFFFF090FFFFFFFFFFFFFFFFFFFFFFFFFFFFF090FFFFFFFFFFFFFFFFFFFFFFFFFFFFF090F
1004
FFFFFFFFFFFFFFFFFFFFFFFFFFFF090FFFFFFFFFFFFFFFFFFFFFFFFFFFFF090FFFFFFFFFFFFFFFFFFFFFFFFFFFFF090FFFFFFFFFFFFFFFFFFFFFFFFFFFFF090FFFFFFFFFFFFFFFFFFFFFFFFFFFFF990FFFFFFFFFFFFFFFFFFFFFFFFFFFFF00FFFFFFFFFFFFFFFFFFFFFFFFFF
  0
BLOCK_RECORD
  5
7C
100
AcDbSymbolTableRecord
100
AcDbBlockTableRecord
  2
SP95012
1001
CONTENTBLOCKICON
1071
        0
1004
2800000020000000200000000100040000000000000200000000000000000000000000000000000000000000000080000080000000808000800000008000800080800000C0C0C000808080000000FF0000FF000000FFFF00FF000000FF00FF00FFFF0000FFFFFF00FFFFFFF00FFFFFFFFFFFFFFFFFFFFFFFFFFFFFF0FFFFFF
1004
FFFFFFFFFFFFFFFFFFFFFFFFF00FFFFFFFFFFFFFFFFFFFFFFFFFFFFFF00FFFFFFFFFFFFFFFFFFFFFFFFFFFFFF00FFFFFFFFFFFFFFFFFFFFFFFFFFFFFF00FFFFFFFFFFFFFFFFFFFFFFFFFFFFFF00FFFFFFFFFFFFFFFFFFFFFFFFFFFFFF000000000000000000FFFFFFFFFFFFFF0FFFFFFFFFFFFFFFFFFFFFFFFFFFFFFF0FFFF
1004
FFFFFFFFFFFF0FFFFFFFFFFFFFF0FFFFFFFFFFFFFFFF0FFFFFFFFFFFFFF0FFFFFFFFFFFFFFFF0FFFFFFFFFFFFFF0FFFFFFFFFFFFFFFF0FFFFFFFFFFFFFF0FFFFFFFFFFFFFFFF0FFFFFFFFFFFFFF0FFFFFFFFFFFFFFFF0FFFFFFFFFFFFFF0FFFFFFFFFFFFFFFF0FFFFFFFFFFFFFF0FFFFFFFFFFFFFFFF0FFFFFFFFFFFFFF0FF
1004
FFFFFFFFFFFFFF0FFFFFFFFFFFFFF0FFFFFFFFFFFFFFFF0FFFFFFFFFFFFFF0FFFFFFFFFFFFFFFF0FFFFFFFFFFFFFF0FFFFFFFFFFFFFF00FFFFFFFFFFFFFFF0FFFFFFFFFFFFBFBBFFFFFFFFFFFFFFF0FFFFFFFFFFF9BBBBFFFFFFFFFFFFFFF0FFFFFFFFFFF9BBBBFFFFFFFFFFFFFFF000000000000000BFFFFFFFFFFFFFFFF0
1004
0FFFFFFFFFFFFFFFFFFFFFFFFFFFFFF00FFFFFFFFFFFFFFFFFFFFFFFFFFFFFF00FFFFFFFFFFFFFFFFFFFFFFFFFFFFFF00FFFFFFFFFFFFFFFFFFFFFFFFFFFFFF00FFFFFFFFFFFFFFFFFFFFFFFFFFFFFF90FFFFFFFFFFFFFFFFFFFFFFFFFFFFFF00FFFFFFFFFFFFFFFFFFFFFFF
  0
BLOCK_RECORD
  5
43
100
AcDbSymbolTableRecord
100
AcDbBlockTableRecord
  2
SP95013
1001
CONTENTBLOCKICON
1071
        0
1004
2800000020000000200000000100040000000000000200000000000000000000000000000000000000000000000080000080000000808000800000008000800080800000C0C0C000808080000000FF0000FF000000FFFF00FF000000FF00FF00FFFF0000FFFFFF00FFFFFFFFFFFFFFFFFFFFFFF00FFFFFFFFFFFFFFFFFFFFF
1004
FFFFFFFFF0FFFFFFFFFFFFFFFFFFFFFFFFFFFFFFF00FFFFFFFFFFFFFFFFFFFFFFFFFFFFFF00FFFFFFFFFFFFFFFFFFFFFFFFFFFFFF00FFFFFFFFFFFFFFFFFFFFFFFFFFFFFF00FFFFFFFFFFFFFFFFFFFFFFFFFFFFFF00FFFFFFFFFFFFFF0F0000000000000000FFFFFFFFFFFFFF0FFFFFFFFFFFFFFFF0FFFFFFFFFFFFFF0FFFF
1004
FFFFFFFFFFFF0FFFFFFFFFFFFFF0FFFFFFFFFFFFFFFF0FFFFFFFFFFFFFF0FFFFFFFFFFFFFFFF0FFFFFFFFFFFFFF0FFFFFFFFFFFFFFFF0FFFFFFFFFFFFFF0FFFFFFFFFFFFFFFF0FFFFFFFFFFFFFF0FFFFFFFFFFFFFFFF0FFFFFFFFFFFFFF0FFFFFFFFFFFFFFFF0FFFFFFFFFFFFFF0FFFFFFFFFFFFFFFF0FFFFFFFFFFFFFF0FF
1004
FFFFFFFFFFFFFF0FFFFFFFFFFFFFF0FFFFFFFFFFFFFFFF0FFFFFFFFFFFFFF0FFFFFFFFFFFFFFFF0FFFFFFFFFFFFFF0FFFFFFFFFFFFFF90FFFFFFFFFFFFFFF0FFFFFFFFFFFFB09BFFFFFFFFFFFFFFF0FFFFFFFFFFF9BBBBFFFFFFFFFFFFFFF0FFFFFFFFFFF9BBBBFFFFFFFFFFFFFFF000000000000000BFFFFFFFFFFFFFFFF0
1004
0FFFFFFFFFFFFFFFFFFFFFFFFFFFFFF00FFFFFFFFFFFFFFFFFFFFFFFFFFFFFF00FFFFFFFFFFFFFFFFFFFFFFFFFFFFFF00FFFFFFFFFFFFFFFFFFFFFFFFFFFFFF00FFFFFFFFFFFFFFFFFFFFFFFFFFFFFF90FFFFFFFFFFFFFFFFFFFFFFFFFFFFFF00FFFFFFFFFFFFFFFFFFFFFFF
  0
BLOCK_RECORD
  5
76
100
AcDbSymbolTableRecord
100
AcDbBlockTableRecord
  2
SP95021
1001
CONTENTBLOCKICON
1071
        0
1004
2800000020000000200000000100040000000000000200000000000000000000000000000000000000000000000080000080000000808000800000008000800080800000C0C0C000808080000000FF0000FF000000FFFF00FF000000FF00FF00FFFF0000FFFFFF00FFFFFF00000000000000000000FFFFFFFFFF0999999999
1004
9999999999990FFFFFFFFF9FFFFFFFFFFFFFFFFFFFF90FFFFFFFFF9FFFFFFFFFFFFFFFFFFFF90FFFFFFFFF9FFFFFFFFFFFFFFFFFFFF90FFFFFFFFF9FFFFFFFFFFFFFFFFFFFF90FFFFFFFFF9FFFFFFFFFFFFFFFFFFFF90FFFFFFFFF9FFFFFFFFFFFFFFFFFFFF90FFFFFFFFF9FFFFFFFFFFFFFFFFFFFF90FFFFFFFFF9FFFFFFF
1004
FFFFFFFFFFFFF90FFFFFFFFF9FFFFFFFFFFFFFFFFFFFF90FFFFFFFFF9FFFFFFFFFFFFFFFFFFFF90FFFFFFFFF9FFFFFFFFFFFFFFFFFFFF90FFFFFFFFF9FFFFFFFFFFFFFFFFFFFF90FFFFFFFFF9FFFFFFFFFFFFFFFFFFFF90FFFFFFFFF9FFFFFFFFFFFFFFFFFFFF90FFFFFFFFF9FFFFFFFFFFFFFFFFFFFF90FFFFFFFFF9FFFFF
1004
FFFFFFFFFFFFFFF90FFFFFFFFF9FFFFFFFFFFFFFFFFFFFF90FFFFFFFFF9FFFFFFFFFFFFFFFFFFFF90FFFFFFFFF9FFFFFFFFFFFFFFFFFFFF90FFFFFFFFF9FFFFFFFFFFFFFFFFFFFF90FFFFFFFFF99999999999999999999990FFFFFFFFF990FFFFFFFFFFFFFFFFFFFFFFFFFFFFF990FFFFFFFFFFFFFFFFFFFFFFFFFFFFF990F
1004
FFFFFFFFFFFFFFFFFFFFFFFFFFFF990FFFFFFFFFFFFFFFFFFFFFFFFFFFFF990FFFFFFFFFFFFFFFFFFFFFFFFFFFFF990FFFFFFFFFFFFFFFFFFFFFFFFFFFFF990FFFFFFFFFFFFFFFFFFFFFFFFFFFFF990FFFFFFFFFFFFFFFFFFFFFFFFFFFFF90FFFFFFFFFFFFFFFFFFFFFFFFFF
  0
BLOCK_RECORD
  5
84
100
AcDbSymbolTableRecord
100
AcDbBlockTableRecord
  2
SP95022
1001
CONTENTBLOCKICON
1071
        0
1004
2800000020000000200000000100040000000000000200000000000000000000000000000000000000000000000080000080000000808000800000008000800080800000C0C0C000808080000000FF0000FF000000FFFF00FF000000FF00FF00FFFF0000FFFFFF00FFFFFFF00FFFFFFFFFFFFFFFFFFFFFFFFFFFFFF0FFFFFF
1004
FFFFFFFFFFFFFFFFFFFFFFFFF00FFFFFFFFFFFFFFFFFFFFFFFFFFFFFF00FFFFFFFFFFFFFFFFFFFFFFFFFFFFFF00FFFFFFFFFFFFFFFFFFFFFFFFFFFFFF00FFFFFFFFFFFFFFFFFFFFFFFFFFFFFF00FFFFFFFFFFFFFFFFFFFFFFFFFFFFFF000000000000000000FFFFFFFFFFFFFF0FFFFFFFFFFFFFFFFFFFFFFFFFFFFFFF0FFFF
1004
FFFFFFFFFFFF0FFFFFFFFFFFFFF0FFFFFFFFFFFFFFFF0FFFFFFFFFFFFFF0FFFFFFFFFFFFFFFF0FFFFFFFFFFFFFF0FFFFFFFFFFFFFFFF0FFFFFFFFFFFFFF0FFFFFFFFFFFFFFFF0FFFFFFFFFFFFFF0FFFFFFFFFFFFFFFF0FFFFFFFFFFFFFF0FFFFFFFFFFFFFFFF0FFFFFFFFFFFFFF0FFFFFFFFFFFFFFFF0FFFFFFFFFFFFFF0FF
1004
FFFFFFFFFFFFFF0FFFFFFFFFFFFFF0FFFFFFFFFFFFFFFF0FFFFFFFFFFFFFF0FFFFFFFFFFFFFFFF0FFFFFFFFFFFFFF0FFFFFFFFFFFFFFFF0FFFFFFFFFFFFFF0FFFFFFFFFFFFFFFF0FFFFFFFFFFFFFF0FFFFFFFFFFFFFFFF0FFFFFFFFFFFFFF0FFFFFFFFFFFFFFFF0FFFFFFFFFFFFFF000000000000000090FFFFFFFFFFFFFF0
1004
0FFFFFFFFFFFFFFFFFFFFFFFFFFFFFF00FFFFFFFFFFFFFFFFFFFFFFFFFFFFFF00FFFFFFFFFFFFFFFFFFFFFFFFFFFFFF00FFFFFFFFFFFFFFFFFFFFFFFFFFFFFF00FFFFFFFFFFFFFFFFFFFFFFFFFFFFFF90FFFFFFFFFFFFFFFFFFFFFFFFFFFFFF00FFFFFFFFFFFFFFFFFFFFFFF
  0
BLOCK_RECORD
  5
5E
100
AcDbSymbolTableRecord
100
AcDbBlockTableRecord
  2
SP95023
1001
CONTENTBLOCKICON
1071
        0
1004
2800000020000000200000000100040000000000000200000000000000000000000000000000000000000000000080000080000000808000800000008000800080800000C0C0C000808080000000FF0000FF000000FFFF00FF000000FF00FF00FFFF0000FFFFFF00FFFFFFF00FFFFFFFFFFFFFFFFFFFFFFFFFFFFFF00FFFFF
1004
FFFFFFFFFFFFFFFFFFFFFFFFF00FFFFFFFFFFFFFFFFFFFFFFFFFFFFFF00FFFFFFFFFFFFFFFFFFFFFFFFFFFFFF00FFFFFFFFFFFFFFFFFFFFFFFFFFFFFF00FFFFFFFFFFFFFFFFFFFFFFFFFFFFFF0FFFFFFFFFFFFFFFFFFFFFFFFFFFFFFF000000000000000000FFFFFFFFFFFFFF0FFFFFFFFFFFFFFFF0FFFFFFFFFFFFFF0FFFF
1004
FFFFFFFFFFFF0FFFFFFFFFFFFFF0FFFFFFFFFFFFFFFF0FFFFFFFFFFFFFF0FFFFFFFFFFFFFFFF0FFFFFFFFFFFFFF0FFFFFFFFFFFFFFFF0FFFFFFFFFFFFFF0FFFFFFFFFFFFFFFF0FFFFFFFFFFFFFF0FFFFFFFFFFFFFFFF0FFFFFFFFFFFFFF0FFFFFFFFFFFFFFFF0FFFFFFFFFFFFFF0FFFFFFFFFFFFFFFF0FFFFFFFFFFFFFF0FF
1004
FFFFFFFFFFFFFF0FFFFFFFFFFFFFF0FFFFFFFFFFFFFFFF0FFFFFFFFFFFFFF0FFFFFFFFFFFFFFFF0FFFFFFFFFFFFFF0FFFFFFFFFFFFFFFF0FFFFFFFFFFFFFF0FFFFFFFFFFFFFFFF0FFFFFFFFFFFFFF0FFFFFFFFFFFFFFFF0FFFFFFFFFFFFFF0FFFFFFFFFFFFFFFF0FFFFFFFFFFFFFF000000000000000000FFFFFFFFFFFFFFF
1004
FFFFFFFFFFFFFFF90FFFFFFFFFFFFFFFFFFFFFFFFFFFFFF00FFFFFFFFFFFFFFFFFFFFFFFFFFFFFF00FFFFFFFFFFFFFFFFFFFFFFFFFFFFFF00FFFFFFFFFFFFFFFFFFFFFFFFFFFFFF00FFFFFFFFFFFFFFFFFFFFFFFFFFFFFF00FFFFFFFFFFFFFFFFFFFFFFFFFFFFFF00FFFFFFF
  0
BLOCK_RECORD
  5
48
100
AcDbSymbolTableRecord
100
AcDbBlockTableRecord
  2
SP40035
  0
BLOCK_RECORD
  5
4B
100
AcDbSymbolTableRecord
100
AcDbBlockTableRecord
  2
*X7
  0
BLOCK_RECORD
  5
1F
100
AcDbSymbolTableRecord
100
AcDbBlockTableRecord
  2
SIDA
  0
BLOCK_RECORD
  5
8D
100
AcDbSymbolTableRecord
100
AcDbBlockTableRecord
  2
SP95012-85
1001
CONTENTBLOCKICON
1071
        0
1004
2800000020000000200000000100040000000000000200000000000000000000000000000000000000000000000080000080000000808000800000008000800080800000C0C0C000808080000000FF0000FF000000FFFF00FF000000FF00FF00FFFF0000FFFFFF00FFFFFFFFF0FFFFFFFFFFFFFFFFFFFFFFFFFFFFFFF00FFF
1004
FFFFFFFFFFFFFFFFFFFFFFFFFFF00FFFFFFFFFFFFFFFFFFFFFFFFFFFFFF00FFFFFFFFFFFFFFFFFFFFFFFFFFFFFF00FFFFFFFFFFFFFFFFFFFFFFFFFFFFFF0000000000000FFFFFFFFFFFFFFFFFFF0FFFFFFFFFFFFFFFFFFFFFFFFFFFFFFF0FFFFFFFFFFF0FFFFFFFFFFFFFFFFFFF0FFFFFFFFFFF0FFFFFFFFFFFFFFFFFFF0FF
1004
FFFFFFFFF0FFFFFFFFFFFFFFFFFFF0FFFFFFFFFFF0FFFFFFFFFFFFFFFFFFF0FFFFFFFFFFF0FFFFFFFFFFFFFFFFFFF0FFFFFFFFFFF0FFFFFFFFFFFFFFFFFFF0FFFFFFFFFFF0FFFFFFFFFFFFFFFFFFF0FFFFFFFFFFF0FFFFFFFFFFFFFFFFFFF0FFFFFFFFFFF0FFFFFFFFFFFFFFFFFFF0FFFFFFFFFFF0FFFFFFFFFFFFFFFFFFF0
1004
FFFFFFFFFFF0FFFFFFFFFFFFFFFFFFF0FFFFFFFFFFF0FFFFFFFFFFFFFFFFFFF0FFFFFFFFFFF0FFFFFFFFFFFFFFFFFFF0FFFFFFFFFFF0FFFFFFFFFFFFFFFFFFF0FFFFFFFFFFF0FFFFFFFFFFFFFFFFFFF0FFFFFFFFFFF0FFFFFFFFFFFFFFFFFFF0FFFFFFFFFF90FFFFFFFFFFFFFFFFFFF0FFFFFFFFBBBBFFFFFFFFFFFFFFFFFF
1004
F0FFFFFFFFBBBFFFFFFFFFFFFFFFFFFFF00000000000BFFFFFFFFFFFFFFFFFFFF00FFFFFFFFFFFFFFFFFFFFFFFFFFFFFF00FFFFFFFFFFFFFFFFFFFFFFFFFFFFFF00FFFFFFFFFFFFFFFFFFFFFFFFFFFFFF00FFFFFFFFFFFFFFFFFFFFFFFFFFFFFF00FFFFFFFFFFFFFFFFFFFFF
  0
BLOCK_RECORD
  5
67
100
AcDbSymbolTableRecord
100
AcDbBlockTableRecord
  2
SP95013-85
1001
CONTENTBLOCKICON
1071
        0
1004
2800000020000000200000000100040000000000000200000000000000000000000000000000000000000000000080000080000000808000800000008000800080800000C0C0C000808080000000FF0000FF000000FFFF00FF000000FF00FF00FFFF0000FFFFFF00FFFFFFFFFFFFFFFFFFFFF0FFFFFFFFFFFFFFFFFFFFFFFF
1004
FFFFFFF0FFFFFFFFFFFFFFFFFFFFFFFFFFFFFFF0FFFFFFFFFFFFFFFFFFFFFFFFFFFFFFF0FFFFFFFFFFFFFFFFFFFFFFFFFFFFFFF0FFFFFFFFFFFFFFFFFFF0F00000000000FFFFFFFFFFFFFFFFFFF0FFFFFFFFFFF0FFFFFFFFFFFFFFFFFFF0FFFFFFFFFFF0FFFFFFFFFFFFFFFFFFF0FFFFFFFFFFF0FFFFFFFFFFFFFFFFFFF0FF
1004
FFFFFFFFF0FFFFFFFFFFFFFFFFFFF0FFFFFFFFFFF0FFFFFFFFFFFFFFFFFFF0FFFFFFFFFFF0FFFFFFFFFFFFFFFFFFF0FFFFFFFFFFF0FFFFFFFFFFFFFFFFFFF0FFFFFFFFFFF0FFFFFFFFFFFFFFFFFFF0FFFFFFFFFFF0FFFFFFFFFFFFFFFFFFF0FFFFFFFFFFF0FFFFFFFFFFFFFFFFFFF0FFFFFFFFFFF0FFFFFFFFFFFFFFFFFFF0
1004
FFFFFFFFFFF0FFFFFFFFFFFFFFFFFFF0FFFFFFFFFFF0FFFFFFFFFFFFFFFFFFF0FFFFFFFFFFF0FFFFFFFFFFFFFFFFFFF0FFFFFFFFFFF0FFFFFFFFFFFFFFFFFFF0FFFFFFFFFFF0FFFFFFFFFFFFFFFFFFF0FFFFFFFFFFF0FFFFFFFFFFFFFFFFFFF0FFFFFFFFFF90FFFFFFFFFFFFFFFFFFF0FFFFFFFFBBBBFFFFFFFFFFFFFFFFFF
1004
F0FFFFFFFFBBBFFFFFFFFFFFFFFFFFFFF00000000000BFFFFFFFFFFFFFFFFFFFF00FFFFFFFFFFFFFFFFFFFFFFFFFFFFFF00FFFFFFFFFFFFFFFFFFFFFFFFFFFFFF00FFFFFFFFFFFFFFFFFFFFFFFFFFFFFF00FFFFFFFFFFFFFFFFFFFFFFFFFFFFFF00FFFFFFFFFFFFFFFFFFFFF
  0
ENDTAB
  0
ENDSEC
  0
SECTION
  2
BLOCKS
  0
BLOCK
  5
3
100
AcDbEntity
  8
0
100
AcDbBlockBegin
  2
*MODEL_SPACE
 70
     0
 10
0.0
 20
0.0
 30
0.0
  3
*MODEL_SPACE
  1

  0
ENDBLK
  5
6
100
AcDbEntity
  8
0
100
AcDbBlockEnd
  0
BLOCK
  5
8
100
AcDbEntity
 67
     1
  8
0
100
AcDbBlockBegin
  2
*PAPER_SPACE
 70
     0
 10
0.0
 20
0.0
 30
0.0
  3
*PAPER_SPACE
  1

  0
ENDBLK
  5
9
100
AcDbEntity
 67
     1
  8
0
100
AcDbBlockEnd
  0
BLOCK
  5
73
100
AcDbEntity
  8
0
100
AcDbBlockBegin
  2
SP95011
 70
     0
 10
0.0
 20
0.0
 30
0.0
  3
SP95011
  1

  0
LWPOLYLINE
  5
70
100
AcDbEntity
  8
STALPROFIL
100
AcDbPolyline
 90
       27
 70
     1
 43
1.5
 10
-6.75
 20
23.5
 42
-0.414214
 10
-7.5
 20
22.75
 10
-12.0
 20
22.75
 42
0.414214
 10
-14.25
 20
20.5
 10
-14.25
 20
18.5
 42
0.414214
 10
-12.0
 20
16.25
 42
0.198912
 10
-10.40901
 20
16.90901
 10
-9.727029
 20
17.59099
 42
-0.198912
 10
-8.136039
 20
18.25
 10
-8.0
 20
18.25
 42
-0.414214
 10
-5.75
 20
16.0
 10
-5.75
 20
13.5
 42
0.414214
 10
-3.5
 20
11.25
 10
-3.0
 20
11.25
 42
-0.414214
 10
-0.75
 20
9.0
 10
-0.75
 20
-22.5
 42
-0.414214
 10
-2.5
 20
-24.25
 10
-47.5
 20
-24.25
 42
-0.414214
 10
-49.25
 20
-22.5
 10
-49.25
 20
43.501
 42
-0.414214
 10
-48.501
 20
44.25
 10
-48.5
 20
44.25
 42
-0.414214
 10
-47.75
 20
43.5
 10
-47.75
 20
26.5
 42
0.414214
 10
-45.5
 20
24.25
 10
-7.499
 20
24.25
 42
-0.414214
 10
-6.75
 20
23.501
  0
LWPOLYLINE
  5
71
100
AcDbEntity
  8
SPKONTUR
100
AcDbPolyline
 90
       28
 70
     1
 43
0.0
 10
-6.0
 20
23.5
 42
-0.414214
 10
-7.5
 20
22.0
 10
-12.0
 20
22.0
 42
0.414214
 10
-13.5
 20
20.5
 10
-13.5
 20
18.5
 42
0.414214
 10
-12.0
 20
17.0
 42
0.198912
 10
-10.93934
 20
17.43934
 10
-10.257359
 20
18.12132
 42
-0.198912
 10
-8.136039
 20
19.0
 10
-8.0
 20
19.0
 42
-0.414214
 10
-5.0
 20
16.0
 10
-5.0
 20
13.5
 42
0.414214
 10
-3.5
 20
12.0
 10
-3.0
 20
12.0
 42
-0.414214
 10
0.0
 20
9.0
 10
0.0
 20
-22.5
 42
-0.414214
 10
-2.5
 20
-25.0
 10
-47.5
 20
-25.0
 42
-0.414214
 10
-50.0
 20
-22.5
 10
-50.0
 20
43.501
 42
-0.414214
 10
-48.501
 20
45.0
 10
-48.5
 20
45.0
 42
-0.414214
 10
-47.0
 20
43.5
 10
-47.0
 20
26.5
 42
0.414214
 10
-45.5
 20
25.0
 10
-13.5
 20
25.0
 10
-7.499
 20
25.0
 42
-0.414214
 10
-6.0
 20
23.501
  0
INSERT
  5
72
100
AcDbEntity
  8
GLAS_MED_FOGNING
100
AcDbBlockReference
  2
SP40035
 10
0.0
 20
0.0
 30
0.0
  0
ENDBLK
  5
74
100
AcDbEntity
  8
0
100
AcDbBlockEnd
  0
BLOCK
  5
80
100
AcDbEntity
  8
0
100
AcDbBlockBegin
  2
SP95012
 70
     0
 10
0.0
 20
0.0
 30
0.0
  3
SP95012
  1

  0
LWPOLYLINE
  5
7D
100
AcDbEntity
  8
STALPROFIL
100
AcDbPolyline
 90
       31
 70
     1
 43
1.5
 10
-8.0
 20
18.25
 42
-0.414214
 10
-5.75
 20
16.0
 10
-5.75
 20
13.5
 42
0.414214
 10
-3.5
 20
11.25
 10
-3.0
 20
11.25
 42
-0.414214
 10
-0.75
 20
9.0
 10
-0.75
 20
-22.5
 42
-0.414214
 10
-2.5
 20
-24.25
 10
-45.5
 20
-24.25
 42
0.414214
 10
-47.75
 20
-26.5
 10
-47.75
 20
-43.5
 42
-0.414214
 10
-48.5
 20
-44.25
 10
-48.501
 20
-44.25
 42
-0.414214
 10
-49.25
 20
-43.501
 10
-49.25
 20
43.501
 42
-0.414214
 10
-48.501
 20
44.25
 10
-48.5
 20
44.25
 42
-0.414214
 10
-47.75
 20
43.5
 10
-47.75
 20
26.5
 42
0.414214
 10
-45.5
 20
24.25
 10
-7.499
 20
24.25
 42
-0.414214
 10
-6.75
 20
23.501
 10
-6.75
 20
23.5
 42
-0.414214
 10
-7.5
 20
22.75
 10
-12.0
 20
22.75
 42
0.414214
 10
-14.25
 20
20.5
 10
-14.25
 20
18.5
 42
0.414214
 10
-12.0
 20
16.25
 42
0.198912
 10
-10.40901
 20
16.90901
 10
-9.727029
 20
17.59099
 42
-0.198912
 10
-8.136039
 20
18.25
  0
LWPOLYLINE
  5
7E
100
AcDbEntity
  8
SPKONTUR
100
AcDbPolyline
 90
       37
 70
     0
 43
0.0
 10
-7.99
 20
19.0
 10
-8.0
 20
19.0
 42
-0.414214
 10
-5.0
 20
16.0
 10
-5.0
 20
13.5
 42
0.414214
 10
-3.5
 20
12.0
 10
-3.0
 20
12.0
 42
-0.414214
 10
0.0
 20
9.0
 10
0.0
 20
-22.5
 42
-0.414214
 10
-2.5
 20
-25.0
 10
-25.0
 20
-25.0
 10
-45.5
 20
-25.0
 42
0.414214
 10
-47.0
 20
-26.5
 10
-47.0
 20
-43.5
 42
-0.414214
 10
-48.5
 20
-45.0
 10
-48.501
 20
-45.0
 42
-0.414214
 10
-50.0
 20
-43.501
 10
-50.0
 20
0.0
 10
-50.0
 20
43.501
 42
-0.414214
 10
-48.501
 20
45.0
 10
-48.5
 20
45.0
 42
-0.414214
 10
-47.0
 20
43.5
 10
-47.0
 20
26.5
 42
0.414214
 10
-45.5
 20
25.0
 10
-25.0
 20
25.0
 10
-13.5
 20
25.0
 10
-7.499
 20
25.0
 42
-0.414214
 10
-6.0
 20
23.501
 10
-6.0
 20
23.5
 42
-0.414214
 10
-7.5
 20
22.0
 10
-12.0
 20
22.0
 42
0.414214
 10
-13.5
 20
20.5
 10
-13.5
 20
18.5
 42
0.414214
 10
-12.0
 20
17.0
 42
0.198912
 10
-10.93934
 20
17.43934
 10
-10.257359
 20
18.12132
 42
-0.198912
 10
-8.136039
 20
19.0
 10
-8.0
 20
19.0
  0
INSERT
  5
7F
100
AcDbEntity
  8
GLAS_MED_FOGNING
100
AcDbBlockReference
  2
SP40035
 10
0.0
 20
0.0
 30
0.0
  0
ENDBLK
  5
81
100
AcDbEntity
  8
0
100
AcDbBlockEnd
  0
BLOCK
  5
5A
100
AcDbEntity
  8
0
100
AcDbBlockBegin
  2
SP95013
 70
     0
 10
0.0
 20
0.0
 30
0.0
  3
SP95013
  1

  0
LWPOLYLINE
  5
44
100
AcDbEntity
  8
STALPROFIL
100
AcDbPolyline
 90
       28
 70
     1
 43
1.5
 10
-7.499
 20
24.25
 42
-0.414214
 10
-6.75
 20
23.5
 42
-0.414214
 10
-7.5
 20
22.75
 10
-12.0
 20
22.75
 42
0.414214
 10
-14.25
 20
20.5
 10
-14.25
 20
18.5
 42
0.414214
 10
-12.0
 20
16.25
 42
0.198912
 10
-10.40901
 20
16.90901
 10
-9.727029
 20
17.59099
 42
-0.198912
 10
-8.136039
 20
18.25
 10
-8.0
 20
18.25
 42
-0.414214
 10
-5.75
 20
16.0
 10
-5.75
 20
13.5
 42
0.414214
 10
-3.5
 20
11.25
 10
-3.0
 20
11.25
 42
-0.414214
 10
-0.75
 20
9.0
 10
-0.75
 20
-43.501
 42
-0.414214
 10
-1.5
 20
-44.25
 42
-0.414214
 10
-2.25
 20
-43.5
 10
-2.25
 20
-26.5
 42
0.414214
 10
-4.5
 20
-24.25
 10
-47.5
 20
-24.25
 42
-0.414214
 10
-49.25
 20
-22.5
 10
-49.25
 20
43.501
 42
-0.414214
 10
-48.5
 20
44.25
 42
-0.414214
 10
-47.75
 20
43.5
 10
-47.75
 20
26.5
 42
0.414214
 10
-45.5
 20
24.25
  0
LWPOLYLINE
  5
45
100
AcDbEntity
  8
SPKONTUR
100
AcDbPolyline
 90
       34
 70
     1
 43
0.0
 10
-7.499
 20
25.0
 42
-0.414214
 10
-6.0
 20
23.501
 10
-6.0
 20
23.5
 42
-0.414214
 10
-7.5
 20
22.0
 10
-12.0
 20
22.0
 42
0.414214
 10
-13.5
 20
20.5
 10
-13.5
 20
18.5
 42
0.414214
 10
-12.0
 20
17.0
 42
0.198912
 10
-10.93934
 20
17.43934
 10
-10.257359
 20
18.12132
 42
-0.198912
 10
-8.136039
 20
19.0
 10
-8.0
 20
19.0
 42
-0.414214
 10
-5.0
 20
16.0
 10
-5.0
 20
13.5
 42
0.414214
 10
-3.5
 20
12.0
 10
-3.0
 20
12.0
 42
-0.414214
 10
0.0
 20
9.0
 10
0.0
 20
0.0
 10
0.0
 20
-43.501
 42
-0.414214
 10
-1.499
 20
-45.0
 10
-1.5
 20
-45.0
 42
-0.414214
 10
-3.0
 20
-43.5
 10
-3.0
 20
-26.5
 42
0.414214
 10
-4.5
 20
-25.0
 10
-47.5
 20
-25.0
 42
-0.414214
 10
-50.0
 20
-22.5
 10
-50.0
 20
43.501
 42
-0.414214
 10
-48.501
 20
45.0
 10
-48.5
 20
45.0
 42
-0.414214
 10
-47.0
 20
43.5
 10
-47.0
 20
26.5
 42
0.414214
 10
-45.5
 20
25.0
 10
-25.0
 20
25.0
 10
-13.5
 20
25.0
  0
INSERT
  5
46
100
AcDbEntity
  8
GLAS_MED_FOGNING
100
AcDbBlockReference
  2
SP40035
 10
0.0
 20
0.0
 30
0.0
  0
ENDBLK
  5
5B
100
AcDbEntity
  8
0
100
AcDbBlockEnd
  0
BLOCK
  5
79
100
AcDbEntity
  8
0
100
AcDbBlockBegin
  2
SP95021
 70
     0
 10
0.0
 20
0.0
 30
0.0
  3
SP95021
  1

  0
LWPOLYLINE
  5
77
100
AcDbEntity
  8
SPKONTUR
100
AcDbPolyline
 90
       12
 70
     1
 43
0.0
 10
-47.0
 20
43.501
 10
-47.0
 20
26.5
 42
0.414214
 10
-45.5
 20
25.0
 10
-2.5
 20
25.0
 42
-0.414214
 10
0.0
 20
22.5
 10
0.0
 20
-22.5
 42
-0.414214
 10
-2.5
 20
-25.0
 10
-47.5
 20
-25.0
 42
-0.414214
 10
-50.0
 20
-22.5
 10
-50.0
 20
43.5
 42
-0.414214
 10
-48.5
 20
45.0
 10
-48.499
 20
45.0
 42
-0.414214
  0
LWPOLYLINE
  5
78
100
AcDbEntity
  8
STALPROFIL
100
AcDbPolyline
 90
       11
 70
     1
 43
1.5
 10
-47.75
 20
43.501
 10
-47.75
 20
26.5
 42
0.414214
 10
-45.5
 20
24.25
 10
-2.5
 20
24.25
 42
-0.414214
 10
-0.75
 20
22.5
 10
-0.75
 20
-22.5
 42
-0.414214
 10
-2.5
 20
-24.25
 10
-47.5
 20
-24.25
 42
-0.414214
 10
-49.25
 20
-22.5
 10
-49.25
 20
43.5
 42
-0.414214
 10
-48.499
 20
44.25
 42
-0.414214
  0
ENDBLK
  5
7A
100
AcDbEntity
  8
0
100
AcDbBlockEnd
  0
BLOCK
  5
87
100
AcDbEntity
  8
0
100
AcDbBlockBegin
  2
SP95022
 70
     0
 10
0.0
 20
0.0
 30
0.0
  3
SP95022
  1

  0
LWPOLYLINE
  5
85
100
AcDbEntity
  8
STALPROFIL
100
AcDbPolyline
 90
       14
 70
     1
 43
1.5
 10
-48.5
 20
-44.25
 42
-0.414214
 10
-49.25
 20
-43.5
 10
-49.25
 20
43.5
 42
-0.414214
 10
-48.499
 20
44.25
 42
-0.414214
 10
-47.75
 20
43.501
 10
-47.75
 20
26.5
 42
0.414214
 10
-45.5
 20
24.25
 10
-2.5
 20
24.25
 42
-0.414214
 10
-0.75
 20
22.5
 10
-0.75
 20
-22.5
 42
-0.414214
 10
-2.5
 20
-24.25
 10
-45.5
 20
-24.25
 42
0.414214
 10
-47.75
 20
-26.5
 10
-47.75
 20
-43.501
 42
-0.414214
  0
LWPOLYLINE
  5
86
100
AcDbEntity
  8
SPKONTUR
100
AcDbPolyline
 90
       18
 70
     0
 43
0.0
 10
-48.5
 20
-45.0
 42
-0.414214
 10
-50.0
 20
-43.5
 10
-50.0
 20
0.0
 10
-50.0
 20
43.5
 42
-0.414214
 10
-48.5
 20
45.0
 10
-48.499
 20
45.0
 42
-0.414214
 10
-47.0
 20
43.501
 10
-47.0
 20
26.5
 42
0.414214
 10
-45.5
 20
25.0
 10
-2.5
 20
25.0
 42
-0.414214
 10
0.0
 20
22.5
 10
0.0
 20
0.0
 10
0.0
 20
-22.5
 42
-0.414214
 10
-2.5
 20
-25.0
 10
-45.5
 20
-25.0
 42
0.414214
 10
-47.0
 20
-26.5
 10
-47.0
 20
-43.501
 42
-0.414214
 10
-48.499
 20
-45.0
  0
ENDBLK
  5
88
100
AcDbEntity
  8
0
100
AcDbBlockEnd
  0
BLOCK
  5
61
100
AcDbEntity
  8
0
100
AcDbBlockBegin
  2
SP95023
 70
     0
 10
0.0
 20
0.0
 30
0.0
  3
SP95023
  1

  0
LWPOLYLINE
  5
5F
100
AcDbEntity
  8
STALPROFIL
100
AcDbPolyline
 90
       14
 70
     1
 43
1.5
 10
-48.499
 20
-44.25
 42
0.414214
 10
-47.75
 20
-43.501
 10
-47.75
 20
-26.5
 42
-0.414214
 10
-45.5
 20
-24.25
 10
-2.5
 20
-24.25
 42
0.414214
 10
-0.75
 20
-22.5
 10
-0.75
 20
43.5
 42
0.414214
 10
-1.501
 20
44.25
 42
0.414214
 10
-2.25
 20
43.501
 10
-2.25
 20
26.5
 42
-0.414214
 10
-4.5
 20
24.25
 10
-47.5
 20
24.25
 42
0.414214
 10
-49.25
 20
22.5
 10
-49.25
 20
-43.5
 42
0.414214
  0
LWPOLYLINE
  5
60
100
AcDbEntity
  8
SPKONTUR
100
AcDbPolyline
 90
       18
 70
     0
 43
0.0
 10
-48.499
 20
-45.0
 42
0.414214
 10
-47.0
 20
-43.501
 10
-47.0
 20
-26.5
 42
-0.414214
 10
-45.5
 20
-25.0
 10
-2.5
 20
-25.0
 42
0.414214
 10
0.0
 20
-22.5
 10
0.0
 20
0.0
 10
0.0
 20
43.5
 42
0.414214
 10
-1.5
 20
45.0
 10
-1.501
 20
45.0
 42
0.414214
 10
-3.0
 20
43.501
 10
-3.0
 20
26.5
 42
-0.414214
 10
-4.5
 20
25.0
 10
-47.5
 20
25.0
 42
0.414214
 10
-50.0
 20
22.5
 10
-50.0
 20
0.0
 10
-50.0
 20
-43.5
 42
0.414214
 10
-48.5
 20
-45.0
  0
ENDBLK
  5
62
100
AcDbEntity
  8
0
100
AcDbBlockEnd
  0
BLOCK
  5
58
100
AcDbEntity
  8
0
100
AcDbBlockBegin
  2
SP40035
 70
     0
 10
0.0
 20
0.0
 30
0.0
  3
SP40035
  1

  0
LWPOLYLINE
  5
49
100
AcDbEntity
  8
GLAS_MED_FOGNING
100
AcDbPolyline
 90
       27
 70
     0
 43
0.0
 10
-8.852065
 20
19.196423
 10
-10.983077
 20
18.805517
 42
0.47758
 10
-11.354779
 20
18.122322
 10
-11.210724
 20
17.774669
 42
-1.066974
 10
-12.133919
 20
17.460466
 10
-12.812762
 20
19.979168
 10
-12.932189
 20
21.311463
 42
-0.851446
 10
-11.997323
 20
21.549707
 42
0.34625
 10
-11.453027
 20
21.25625
 10
-7.402831
 20
21.912702
 42
0.253088
 10
-6.011592
 20
22.97609
 10
-5.634511
 20
23.850525
 42
-0.653084
 10
-5.268363
 20
23.84175
 10
-4.427123
 20
21.793776
 42
0.887127
 10
-4.462387
 20
21.199099
 42
-0.212108
 10
-4.126593
 20
20.970977
 42
-0.212173
 10
-3.3563
 20
15.420463
 42
-0.418069
 10
-3.606337
 20
15.284328
 10
-4.191267
 20
15.461041
 42
-0.397156
 10
-4.259603
 20
15.580033
 42
0.194939
 10
-4.934258
 20
20.036515
 42
1.053912
 10
-5.530639
 20
19.674495
 10
-4.379492
 20
17.401862
 42
-0.459605
 10
-4.495679
 20
17.121417
 10
-4.998564
 20
16.956773
 42
-0.312484
 10
-5.107704
 20
16.989264
 42
0.373013
 10
-9.018037
 20
19.165978
  0
INSERT
  5
4A
100
AcDbEntity
  8
GLAS_MED_FOGNING
100
AcDbBlockReference
  2
*X7
 10
-320.0
 20
440.0
 30
0.0
 50
270.0
1001
ACAD
1000
HATCH
1002
{
1070
    16
1000
ANSI31
1040
10.0
1040
0.087266
1002
}
  0
ENDBLK
  5
59
100
AcDbEntity
  8
0
100
AcDbBlockEnd
  0
BLOCK
  5
56
100
AcDbEntity
  8
0
100
AcDbBlockBegin
  2
*X7
 70
     1
 10
0.0
 20
0.0
 30
0.0
  3
*X7
  1

  0
LINE
  5
4C
100
AcDbEntity
  8
0
 62
     0
100
AcDbLine
 10
418.490967
 20
310.1066
 30
0.0
 11
421.167604
 21
313.296491
 31
0.0
  0
LINE
  5
4D
100
AcDbEntity
  8
0
 62
     0
100
AcDbLine
 10
423.349042
 20
315.896228
 30
0.0
 11
424.080112
 21
316.767482
 31
0.0
  0
LINE
  5
4E
100
AcDbEntity
  8
0
 62
     0
100
AcDbLine
 10
422.064957
 20
314.365914
 30
0.0
 11
422.918328
 21
315.382923
 31
0.0
  0
LINE
  5
4F
100
AcDbEntity
  8
0
 62
     0
100
AcDbLine
 10
418.226804
 20
311.736438
 30
0.0
 11
420.663771
 21
314.640701
 31
0.0
  0
LINE
  5
50
100
AcDbEntity
  8
0
 62
     0
100
AcDbLine
 10
421.575811
 20
315.727628
 30
0.0
 11
422.569739
 21
316.912145
 31
0.0
  0
LINE
  5
51
100
AcDbEntity
  8
0
 62
     0
100
AcDbLine
 10
417.857133
 20
313.240535
 30
0.0
 11
420.696467
 21
316.624321
 31
0.0
  0
LINE
  5
52
100
AcDbEntity
  8
0
 62
     0
100
AcDbLine
 10
416.898348
 20
314.042554
 30
0.0
 11
418.169933
 21
315.55797
 31
0.0
  0
LINE
  5
53
100
AcDbEntity
  8
0
 62
     0
100
AcDbLine
 10
418.751032
 20
308.471878
 30
0.0
 11
420.838188
 21
310.959254
 31
0.0
  0
LINE
  5
54
100
AcDbEntity
  8
0
 62
     0
100
AcDbLine
 10
419.246616
 20
307.117837
 30
0.0
 11
421.130916
 21
309.363458
 31
0.0
  0
LINE
  5
55
100
AcDbEntity
  8
0
 62
     0
100
AcDbLine
 10
421.204244
 20
307.506193
 30
0.0
 11
422.301392
 21
308.813723
 31
0.0
  0
ENDBLK
  5
57
100
AcDbEntity
  8
0
100
AcDbBlockEnd
  0
BLOCK
  5
2E
100
AcDbEntity
  8
0
100
AcDbBlockBegin
  2
SIDA
 70
     0
 10
0.0
 20
0.0
 30
0.0
  3
SIDA
  1

  0
LWPOLYLINE
  5
20
100
AcDbEntity
  8
RAM
 62
     5
100
AcDbPolyline
 90
        4
 70
     1
 43
0.0
 10
-20.0
 20
35.0
 10
-20.0
 20
560.0
 10
-380.0
 20
560.0
 10
-380.0
 20
35.0
  0
LINE
  5
21
100
AcDbEntity
  8
RAM
  6
DASHDOT
 62
     6
100
AcDbLine
 10
-260.0
 20
307.5
 30
0.0
 11
-260.0
 21
287.5
 31
0.0
  0
LINE
  5
23
100
AcDbEntity
  8
RAM
  6
DASHDOT
 62
     6
100
AcDbLine
 10
-270.0
 20
167.5
 30
0.0
 11
-250.0
 21
167.5
 31
0.0
  0
LINE
  5
24
100
AcDbEntity
  8
RAM
  6
DASHDOT
 62
     6
100
AcDbLine
 10
-260.0
 20
177.5
 30
0.0
 11
-260.0
 21
157.5
 31
0.0
  0
LINE
  5
25
100
AcDbEntity
  8
RAM
  6
DASHDOT
 62
     6
100
AcDbLine
 10
-270.0
 20
297.5
 30
0.0
 11
-250.0
 21
297.5
 31
0.0
  0
LINE
  5
26
100
AcDbEntity
  8
RAM
  6
DASHDOT
 62
     6
100
AcDbLine
 10
-270.0
 20
427.5
 30
0.0
 11
-250.0
 21
427.5
 31
0.0
  0
LINE
  5
27
100
AcDbEntity
  8
RAM
  6
DASHDOT
 62
     6
100
AcDbLine
 10
-260.0
 20
437.5
 30
0.0
 11
-260.0
 21
417.5
 31
0.0
  0
LINE
  5
28
100
AcDbEntity
  8
RAM
  6
DASHDOT
 62
     6
100
AcDbLine
 10
-140.0
 20
307.5
 30
0.0
 11
-140.0
 21
287.5
 31
0.0
  0
LINE
  5
29
100
AcDbEntity
  8
RAM
  6
DASHDOT
 62
     6
100
AcDbLine
 10
-140.0
 20
177.5
 30
0.0
 11
-140.0
 21
157.5
 31
0.0
  0
LINE
  5
2A
100
AcDbEntity
  8
RAM
  6
DASHDOT
 62
     6
100
AcDbLine
 10
-150.0
 20
167.5
 30
0.0
 11
-130.0
 21
167.5
 31
0.0
  0
LINE
  5
2B
100
AcDbEntity
  8
RAM
  6
DASHDOT
 62
     6
100
AcDbLine
 10
-150.0
 20
297.5
 30
0.0
 11
-130.0
 21
297.5
 31
0.0
  0
LINE
  5
2C
100
AcDbEntity
  8
RAM
  6
DASHDOT
 62
     6
100
AcDbLine
 10
-150.0
 20
427.5
 30
0.0
 11
-130.0
 21
427.5
 31
0.0
  0
LINE
  5
2D
100
AcDbEntity
  8
RAM
  6
DASHDOT
 62
     6
100
AcDbLine
 10
-140.0
 20
437.5
 30
0.0
 11
-140.0
 21
417.5
 31
0.0
  0
ENDBLK
  5
2F
100
AcDbEntity
  8
0
100
AcDbBlockEnd
  0
BLOCK
  5
91
100
AcDbEntity
  8
0
100
AcDbBlockBegin
  2
SP95012-85
 70
     0
 10
0.0
 20
0.0
 30
0.0
  3
SP95012-85
  1

  0
LWPOLYLINE
  5
8E
100
AcDbEntity
  8
STALPROFIL
100
AcDbPolyline
 90
       31
 70
     1
 43
1.5
 10
-8.0
 20
18.25
 42
-0.414214
 10
-5.75
 20
16.0
 10
-5.75
 20
13.5
 42
0.414214
 10
-3.5
 20
11.25
 10
-3.0
 20
11.25
 42
-0.414214
 10
-0.75
 20
9.0
 10
-0.75
 20
-57.5
 42
-0.414214
 10
-2.5
 20
-59.25
 10
-45.5
 20
-59.25
 42
0.414214
 10
-47.75
 20
-61.5
 10
-47.75
 20
-78.5
 42
-0.414214
 10
-48.5
 20
-79.25
 10
-48.501
 20
-79.25
 42
-0.414214
 10
-49.25
 20
-78.501
 10
-49.25
 20
43.501
 42
-0.414214
 10
-48.501
 20
44.25
 10
-48.5
 20
44.25
 42
-0.414214
 10
-47.75
 20
43.5
 10
-47.75
 20
26.5
 42
0.414214
 10
-45.5
 20
24.25
 10
-7.499
 20
24.25
 42
-0.414214
 10
-6.75
 20
23.501
 10
-6.75
 20
23.5
 42
-0.414214
 10
-7.5
 20
22.75
 10
-12.0
 20
22.75
 42
0.414214
 10
-14.25
 20
20.5
 10
-14.25
 20
18.5
 42
0.414214
 10
-12.0
 20
16.25
 42
0.198912
 10
-10.40901
 20
16.90901
 10
-9.727029
 20
17.59099
 42
-0.198912
 10
-8.136039
 20
18.25
  0
LWPOLYLINE
  5
8F
100
AcDbEntity
  8
SPKONTUR
100
AcDbPolyline
 90
       37
 70
     0
 43
0.0
 10
-7.99
 20
19.0
 10
-8.0
 20
19.0
 42
-0.414214
 10
-5.0
 20
16.0
 10
-5.0
 20
13.5
 42
0.414214
 10
-3.5
 20
12.0
 10
-3.0
 20
12.0
 42
-0.414214
 10
0.0
 20
9.0
 10
0.0
 20
-57.5
 42
-0.414214
 10
-2.5
 20
-60.0
 10
-25.0
 20
-60.0
 10
-45.5
 20
-60.0
 42
0.414214
 10
-47.0
 20
-61.5
 10
-47.0
 20
-78.5
 42
-0.414214
 10
-48.5
 20
-80.0
 10
-48.501
 20
-80.0
 42
-0.414214
 10
-50.0
 20
-78.501
 10
-50.0
 20
0.0
 10
-50.0
 20
43.501
 42
-0.414214
 10
-48.501
 20
45.0
 10
-48.5
 20
45.0
 42
-0.414214
 10
-47.0
 20
43.5
 10
-47.0
 20
26.5
 42
0.414214
 10
-45.5
 20
25.0
 10
-25.0
 20
25.0
 10
-13.5
 20
25.0
 10
-7.499
 20
25.0
 42
-0.414214
 10
-6.0
 20
23.501
 10
-6.0
 20
23.5
 42
-0.414214
 10
-7.5
 20
22.0
 10
-12.0
 20
22.0
 42
0.414214
 10
-13.5
 20
20.5
 10
-13.5
 20
18.5
 42
0.414214
 10
-12.0
 20
17.0
 42
0.198912
 10
-10.93934
 20
17.43934
 10
-10.257359
 20
18.12132
 42
-0.198912
 10
-8.136039
 20
19.0
 10
-8.0
 20
19.0
  0
INSERT
  5
90
100
AcDbEntity
  8
GLAS_MED_FOGNING
100
AcDbBlockReference
  2
SP40035
 10
0.0
 20
0.0
 30
0.0
  0
ENDBLK
  5
92
100
AcDbEntity
  8
0
100
AcDbBlockEnd
  0
BLOCK
  5
6B
100
AcDbEntity
  8
0
100
AcDbBlockBegin
  2
SP95013-85
 70
     0
 10
0.0
 20
0.0
 30
0.0
  3
SP95013-85
  1

  0
LWPOLYLINE
  5
68
100
AcDbEntity
  8
STALPROFIL
100
AcDbPolyline
 90
       28
 70
     1
 43
1.5
 10
-7.499
 20
24.25
 42
-0.414214
 10
-6.75
 20
23.5
 42
-0.414214
 10
-7.5
 20
22.75
 10
-12.0
 20
22.75
 42
0.414214
 10
-14.25
 20
20.5
 10
-14.25
 20
18.5
 42
0.414214
 10
-12.0
 20
16.25
 42
0.198912
 10
-10.40901
 20
16.90901
 10
-9.727029
 20
17.59099
 42
-0.198912
 10
-8.136039
 20
18.25
 10
-8.0
 20
18.25
 42
-0.414214
 10
-5.75
 20
16.0
 10
-5.75
 20
13.5
 42
0.414214
 10
-3.5
 20
11.25
 10
-3.0
 20
11.25
 42
-0.414214
 10
-0.75
 20
9.0
 10
-0.75
 20
-78.501
 42
-0.414214
 10
-1.5
 20
-79.25
 42
-0.414214
 10
-2.25
 20
-78.5
 10
-2.25
 20
-61.5
 42
0.414214
 10
-4.5
 20
-59.25
 10
-47.5
 20
-59.25
 42
-0.414214
 10
-49.25
 20
-57.5
 10
-49.25
 20
43.501
 42
-0.414214
 10
-48.5
 20
44.25
 42
-0.414214
 10
-47.75
 20
43.5
 10
-47.75
 20
26.5
 42
0.414214
 10
-45.5
 20
24.25
  0
LWPOLYLINE
  5
69
100
AcDbEntity
  8
SPKONTUR
100
AcDbPolyline
 90
       34
 70
     1
 43
0.0
 10
-7.499
 20
25.0
 42
-0.414214
 10
-6.0
 20
23.501
 10
-6.0
 20
23.5
 42
-0.414214
 10
-7.5
 20
22.0
 10
-12.0
 20
22.0
 42
0.414214
 10
-13.5
 20
20.5
 10
-13.5
 20
18.5
 42
0.414214
 10
-12.0
 20
17.0
 42
0.198912
 10
-10.93934
 20
17.43934
 10
-10.257359
 20
18.12132
 42
-0.198912
 10
-8.136039
 20
19.0
 10
-8.0
 20
19.0
 42
-0.414214
 10
-5.0
 20
16.0
 10
-5.0
 20
13.5
 42
0.414214
 10
-3.5
 20
12.0
 10
-3.0
 20
12.0
 42
-0.414214
 10
0.0
 20
9.0
 10
0.0
 20
0.0
 10
0.0
 20
-78.501
 42
-0.414214
 10
-1.499
 20
-80.0
 10
-1.5
 20
-80.0
 42
-0.414214
 10
-3.0
 20
-78.5
 10
-3.0
 20
-61.5
 42
0.414214
 10
-4.5
 20
-60.0
 10
-47.5
 20
-60.0
 42
-0.414214
 10
-50.0
 20
-57.5
 10
-50.0
 20
43.501
 42
-0.414214
 10
-48.501
 20
45.0
 10
-48.5
 20
45.0
 42
-0.414214
 10
-47.0
 20
43.5
 10
-47.0
 20
26.5
 42
0.414214
 10
-45.5
 20
25.0
 10
-25.0
 20
25.0
 10
-13.5
 20
25.0
  0
INSERT
  5
6A
100
AcDbEntity
  8
GLAS_MED_FOGNING
100
AcDbBlockReference
  2
SP40035
 10
0.0
 20
0.0
 30
0.0
  0
ENDBLK
  5
6C
100
AcDbEntity
  8
0
100
AcDbBlockEnd
  0
ENDSEC
  0
SECTION
  2
ENTITIES
  0
INSERT
  5
1E
100
AcDbEntity
  8
0
100
AcDbBlockReference
  2
SIDA
 10
-750.0
 20
0.0
 30
0.0
  0
INSERT
  5
42
100
AcDbEntity
  8
0
100
AcDbBlockReference
  2
SP95013
 10
-1045.0
 20
235.0
 30
0.0
  0
TEXT
  5
5C
100
AcDbEntity
  8
TEXT
100
AcDbText
 10
-1084.842857
 20
233.0
 30
0.0
 40
5.0
  1
%%USP 95013
 41
0.8
  7
ROMANS
 72
     1
 11
-1070.0
 21
233.0
 31
0.0
100
AcDbText
  0
INSERT
  5
5D
100
AcDbEntity
  8
0
100
AcDbBlockReference
  2
SP95023
 10
-925.0
 20
235.0
 30
0.0
  0
TEXT
  5
63
100
AcDbEntity
  8
TEXT
100
AcDbText
 10
-964.842857
 20
233.0
 30
0.0
 40
5.0
  1
%%USP 95023
 41
0.8
  7
ROMANS
 72
     1
 11
-950.0
 21
233.0
 31
0.0
100
AcDbText
  0
TEXT
  5
64
100
AcDbEntity
  8
TEXT
100
AcDbText
 10
-832.142857
 20
40.0
 30
0.0
 40
5.0
  1
SP 95000  %%UPAGE6
 41
0.8
  7
ROMANS
 72
     2
 11
-775.0
 21
40.0
 31
0.0
100
AcDbText
  0
TEXT
  5
65
100
AcDbEntity
  8
TEXT
100
AcDbText
 10
-843.0
 20
25.0
 30
0.0
 40
5.0
  1
File name  %%U950PAGE6
 41
0.8
  7
ROMANS
 72
     2
 11
-775.0
 21
25.0
 31
0.0
100
AcDbText
  0
INSERT
  5
66
100
AcDbEntity
  8
GLAS_MED_FOGNING
100
AcDbBlockReference
  2
SP95013-85
 10
-805.0
 20
235.0
 30
0.0
  0
TEXT
  5
6D
100
AcDbEntity
  8
TEXT
100
AcDbText
 10
-850.747619
 20
218.0
 30
0.0
 40
5.0
  1
%%USP 95013/85
 41
0.8
  7
ROMANS
 72
     1
 11
-830.0
 21
218.0
 31
0.0
100
AcDbText
  0
INSERT
  5
6E
100
AcDbEntity
  8
0
100
AcDbBlockReference
  2
SP95011
 10
-1045.0
 20
495.0
 30
0.0
  0
INSERT
  5
75
100
AcDbEntity
  8
0
100
AcDbBlockReference
  2
SP95021
 10
-925.0
 20
495.0
 30
0.0
  0
INSERT
  5
7B
100
AcDbEntity
  8
0
100
AcDbBlockReference
  2
SP95012
 10
-1045.0
 20
365.0
 30
0.0
  0
TEXT
  5
82
100
AcDbEntity
  8
TEXT
100
AcDbText
 10
-1084.842857
 20
363.0
 30
0.0
 40
5.0
  1
%%USP 95012
 41
0.8
  7
ROMANS
 72
     1
 11
-1070.0
 21
363.0
 31
0.0
100
AcDbText
  0
INSERT
  5
83
100
AcDbEntity
  8
0
100
AcDbBlockReference
  2
SP95022
 10
-925.0
 20
365.0
 30
0.0
  0
TEXT
  5
89
100
AcDbEntity
  8
TEXT
100
AcDbText
 10
-964.842857
 20
363.0
 30
0.0
 40
5.0
  1
%%USP 95022
 41
0.8
  7
ROMANS
 72
     1
 11
-950.0
 21
363.0
 31
0.0
100
AcDbText
  0
TEXT
  5
8A
100
AcDbEntity
  8
TEXT
100
AcDbText
 10
-1084.828571
 20
493.0
 30
0.0
 40
5.0
  1
%%USP 95011
 41
0.8
  7
ROMANS
 72
     1
 11
-1070.0
 21
493.0
 31
0.0
100
AcDbText
  0
TEXT
  5
8B
100
AcDbEntity
  8
TEXT
100
AcDbText
 10
-964.828571
 20
493.0
 30
0.0
 40
5.0
  1
%%USP 95021
 41
0.8
  7
ROMANS
 72
     1
 11
-950.0
 21
493.0
 31
0.0
100
AcDbText
  0
INSERT
  5
8C
100
AcDbEntity
  8
0
100
AcDbBlockReference
  2
SP95012-85
 10
-805.0
 20
380.0
 30
0.0
  0
TEXT
  5
93
100
AcDbEntity
  8
TEXT
100
AcDbText
 10
-850.747619
 20
363.0
 30
0.0
 40
5.0
  1
%%USP 95012/85
 41
0.8
  7
ROMANS
 72
     1
 11
-830.0
 21
363.0
 31
0.0
100
AcDbText
  0
ENDSEC
  0
SECTION
  2
OBJECTS
  0
DICTIONARY
  5
1A
100
AcDbDictionary
  3
ACAD_GROUP
350
18
  3
ACAD_LAYOUT
350
A0
  3
ACAD_MLINESTYLE
350
19
  3
ACAD_PLOTSETTINGS
350
A1
  3
ACAD_PLOTSTYLENAME
350
9E
  3
ACDBHEADERROUNDTRIPXREC
350
AA
  0
DICTIONARY
  5
A8
100
AcDbDictionary
280
     1
  3
ACAD_XREC_ROUNDTRIP
360
A9
  0
DICTIONARY
  5
CA
100
AcDbDictionary
280
     1
  3
ACAD_LAYOUTSELFREF
360
CB
  0
DICTIONARY
  5
CC
100
AcDbDictionary
280
     1
  3
ACAD_LAYOUTSELFREF
360
CD
  0
DICTIONARY
  5
18
102
{ACAD_REACTORS
330
1A
102
}
100
AcDbDictionary
  0
DICTIONARY
  5
A0
102
{ACAD_XDICTIONARY
360
D6
102
}
102
{ACAD_REACTORS
330
1A
102
}
100
AcDbDictionary
  3
LAYOUT1
350
A3
  3
MODEL
350
A2
  0
DICTIONARY
  5
19
102
{ACAD_REACTORS
330
1A
102
}
100
AcDbDictionary
  3
STANDARD
350
1C
  0
DICTIONARY
  5
A1
102
{ACAD_REACTORS
330
1A
102
}
100
AcDbDictionary
  0
ACAD_PROXY_OBJECT
  5
9E
102
{ACAD_REACTORS
330
1A
102
}
100
AcDbProxyObject
 90
      499
 91
      501
 93
       86
310
405010041939BDC9B585B0
350
9F
340
9F
 94
        0
  0
DICTIONARY
  5
AA
102
{ACAD_REACTORS
330
1A
102
}
100
AcDbDictionary
  3
CEPSNTYPE
350
B4
  3
FINGERPRINTGUID
350
B5
  3
HYPERLINKBASE
350
AD
  3
INSUNITS
350
B3
  3
LAYOUTDICT
350
AF
  3
LWETCUNION
350
B2
  3
PLOTSETDICT
350
B0
  3
PLOTSTYLNAMDICT
350
B1
  3
PSVPSCALE
350
B7
  3
PUCSBASE
350
BA
  3
PUCSORGBACK
350
C0
  3
PUCSORGBOTTOM
350
BC
  3
PUCSORGFRONT
350
BF
  3
PUCSORGLEFT
350
BD
  3
PUCSORGRIGHT
350
BE
  3
PUCSORGTOP
350
BB
  3
PUCSORTHOREF
350
B8
  3
PUCSORTHOVIEW
350
B9
  3
STYLESHEET
350
AE
  3
TSTACKALIGN
350
AB
  3
TSTACKSIZE
350
AC
  3
UCSBASE
350
C3
  3
UCSORGBACK
350
C9
  3
UCSORGBOTTOM
350
C5
  3
UCSORGFRONT
350
C8
  3
UCSORGLEFT
350
C6
  3
UCSORGRIGHT
350
C7
  3
UCSORGTOP
350
C4
  3
UCSORTHOREF
350
C1
  3
UCSORTHOVIEW
350
C2
  3
VERSIONGUID
350
B6
  0
XRECORD
  5
A9
102
{ACAD_REACTORS
330
A8
102
}
100
AcDbXrecord
102
EXTNAMES
  1
*ACTIVE
  2
*Active
102
UCS
 74
     0
 71
     1
 10
0.0
 20
0.0
 30
0.0
 10
1.0
 20
0.0
 30
0.0
 10
0.0
 20
1.0
 30
0.0
146
0.0
 79
     0
102
VIEW
281
     0
  0
XRECORD
  5
CB
102
{ACAD_REACTORS
330
CA
102
}
100
AcDbXrecord
340
2
  0
XRECORD
  5
CD
102
{ACAD_REACTORS
330
CC
102
}
100
AcDbXrecord
340
7
  0
DICTIONARY
  5
D6
100
AcDbDictionary
280
     1
  3
ACAD_XREC_ROUNDTRIP
360
D7
  0
ACAD_PROXY_OBJECT
  5
A3
102
{ACAD_REACTORS
330
A0
102
}
100
AcDbProxyObject
 90
      499
 91
      503
 93
     1092
310
91D4850204C617365724A65742034562F344D5620506F73745363726970742C00AAAAAA416AA591069074C61796F75743140501A800000000000000000000000000000000000000000101E900000000000241C902A6A6A10232D5E076BC5510408CB5781DAF154410232D5E076BC5510408CB5781DAF15C410232D5E076BC5
310
710408CB5781DAF15C40
330
7
330
0
340
0
340
0
 94
        0
  0
ACAD_PROXY_OBJECT
  5
A2
102
{ACAD_REACTORS
330
A0
102
}
100
AcDbProxyObject
 90
      499
 91
      503
 93
      668
310
91D4850204C617365724A65742034562F344D5620506F73745363726970742C01AAAAAAAAA5A69054D6F64656C901A800000000000000000000000000000000000000000000A1000000000000008902A6A6AAAA0
330
2
330
0
340
0
340
0
 94
        0
  0
MLINESTYLE
  5
1C
102
{ACAD_REACTORS
330
19
102
}
100
AcDbMlineStyle
  2
STANDARD
 70
     0
  3

 62
     0
 51
90.0
 52
90.0
 71
     2
 49
0.5
 62
   256
  6
BYLAYER
 49
-0.5
 62
   256
  6
BYLAYER
  0
ACAD_PROXY_OBJECT
  5
9F
102
{ACAD_REACTORS
330
9E
102
}
100
AcDbProxyObject
 90
      499
 91
      502
 93
        0
 94
        0
  0
XRECORD
  5
B4
102
{ACAD_REACTORS
330
AA
102
}
100
AcDbXrecord
 90
        0
  0
XRECORD
  5
B5
102
{ACAD_REACTORS
330
AA
102
}
100
AcDbXrecord
  1
{DCFA0AB9-0BE8-11D6-AA0B-00D0B7E2A69D}
  0
XRECORD
  5
AD
102
{ACAD_REACTORS
330
AA
102
}
100
AcDbXrecord
  1

  0
XRECORD
  5
B3
102
{ACAD_REACTORS
330
AA
102
}
100
AcDbXrecord
 90
        0
  0
XRECORD
  5
AF
102
{ACAD_REACTORS
330
AA
102
}
100
AcDbXrecord
340
A0
  0
XRECORD
  5
B2
102
{ACAD_REACTORS
330
AA
102
}
100
AcDbXrecord
 90
    14877
  0
XRECORD
  5
B0
102
{ACAD_REACTORS
330
AA
102
}
100
AcDbXrecord
340
A1
  0
XRECORD
  5
B1
102
{ACAD_REACTORS
330
AA
102
}
100
AcDbXrecord
340
9E
  0
XRECORD
  5
B7
102
{ACAD_REACTORS
330
AA
102
}
100
AcDbXrecord
 40
0.0
  0
XRECORD
  5
BA
102
{ACAD_REACTORS
330
AA
102
}
100
AcDbXrecord
340
0
  0
XRECORD
  5
C0
102
{ACAD_REACTORS
330
AA
102
}
100
AcDbXrecord
 10
0.0
 20
0.0
 30
0.0
  0
XRECORD
  5
BC
102
{ACAD_REACTORS
330
AA
102
}
100
AcDbXrecord
 10
0.0
 20
0.0
 30
0.0
  0
XRECORD
  5
BF
102
{ACAD_REACTORS
330
AA
102
}
100
AcDbXrecord
 10
0.0
 20
0.0
 30
0.0
  0
XRECORD
  5
BD
102
{ACAD_REACTORS
330
AA
102
}
100
AcDbXrecord
 10
0.0
 20
0.0
 30
0.0
  0
XRECORD
  5
BE
102
{ACAD_REACTORS
330
AA
102
}
100
AcDbXrecord
 10
0.0
 20
0.0
 30
0.0
  0
XRECORD
  5
BB
102
{ACAD_REACTORS
330
AA
102
}
100
AcDbXrecord
 10
0.0
 20
0.0
 30
0.0
  0
XRECORD
  5
B8
102
{ACAD_REACTORS
330
AA
102
}
100
AcDbXrecord
340
0
  0
XRECORD
  5
B9
102
{ACAD_REACTORS
330
AA
102
}
100
AcDbXrecord
 70
     0
  0
XRECORD
  5
AE
102
{ACAD_REACTORS
330
AA
102
}
100
AcDbXrecord
  1

  0
XRECORD
  5
AB
102
{ACAD_REACTORS
330
AA
102
}
100
AcDbXrecord
 90
        1
  0
XRECORD
  5
AC
102
{ACAD_REACTORS
330
AA
102
}
100
AcDbXrecord
 90
       70
  0
XRECORD
  5
C3
102
{ACAD_REACTORS
330
AA
102
}
100
AcDbXrecord
340
0
  0
XRECORD
  5
C9
102
{ACAD_REACTORS
330
AA
102
}
100
AcDbXrecord
 10
0.0
 20
0.0
 30
0.0
  0
XRECORD
  5
C5
102
{ACAD_REACTORS
330
AA
102
}
100
AcDbXrecord
 10
0.0
 20
0.0
 30
0.0
  0
XRECORD
  5
C8
102
{ACAD_REACTORS
330
AA
102
}
100
AcDbXrecord
 10
0.0
 20
0.0
 30
0.0
  0
XRECORD
  5
C6
102
{ACAD_REACTORS
330
AA
102
}
100
AcDbXrecord
 10
0.0
 20
0.0
 30
0.0
  0
XRECORD
  5
C7
102
{ACAD_REACTORS
330
AA
102
}
100
AcDbXrecord
 10
0.0
 20
0.0
 30
0.0
  0
XRECORD
  5
C4
102
{ACAD_REACTORS
330
AA
102
}
100
AcDbXrecord
 10
0.0
 20
0.0
 30
0.0
  0
XRECORD
  5
C1
102
{ACAD_REACTORS
330
AA
102
}
100
AcDbXrecord
340
0
  0
XRECORD
  5
C2
102
{ACAD_REACTORS
330
AA
102
}
100
AcDbXrecord
 70
     0
  0
XRECORD
  5
B6
102
{ACAD_REACTORS
330
AA
102
}
100
AcDbXrecord
  1
{DCFA0ABB-0BE8-11D6-AA0B-00D0B7E2A69D}
  0
XRECORD
  5
D7
102
{ACAD_REACTORS
330
D6
102
}
100
AcDbXrecord
102
EXTNAMES
  1
LAYOUT1
  2
Layout1
  1
MODEL
  2
Model
  0
ENDSEC
  0
EOF
