  0
SECTION
  2
HEADER
  9
$ACADVER
  1
AC1014
  9
$ACADMAINTVER
 70
     0
  9
$DWGCODEPAGE
  3
ANSI_1252
  9
$INSBASE
 10
220.0
 20
380.0
 30
0.0
  9
$EXTMIN
 10
-155.0
 20
384.0
 30
0.0
  9
$EXTMAX
 10
205.538095
 20
920.0
 30
0.0
  9
$LIMMIN
 10
0.0
 20
0.0
  9
$LIMMAX
 10
840.0
 20
600.0
  9
$ORTHOMODE
 70
     0
  9
$REGENMODE
 70
     1
  9
$FILLMODE
 70
     1
  9
$QTEXTMODE
 70
     0
  9
$MIRRTEXT
 70
     1
  9
$DRAGMODE
 70
     2
  9
$LTSCALE
 40
5.0
  9
$OSMODE
 70
   547
  9
$ATTMODE
 70
     1
  9
$TEXTSIZE
 40
3.15
  9
$TRACEWID
 40
0.05
  9
$TEXTSTYLE
  7
STANDARD
  9
$CLAYER
  8
GLAS_MED_FOGNING
  9
$CELTYPE
  6
BYLAYER
  9
$CECOLOR
 62
   256
  9
$CELTSCALE
 40
1.0
  9
$DELOBJ
 70
     1
  9
$DISPSILH
 70
     0
  9
$DIMSCALE
 40
1.0
  9
$DIMASZ
 40
0.0
  9
$DIMEXO
 40
1.0
  9
$DIMDLI
 40
10.0
  9
$DIMRND
 40
0.0
  9
$DIMDLE
 40
0.0
  9
$DIMEXE
 40
2.0
  9
$DIMTP
 40
0.0
  9
$DIMTM
 40
0.0
  9
$DIMTXT
 40
3.5
  9
$DIMCEN
 40
2.5
  9
$DIMTSZ
 40
1.0
  9
$DIMTOL
 70
     0
  9
$DIMLIM
 70
     0
  9
$DIMTIH
 70
     0
  9
$DIMTOH
 70
     0
  9
$DIMSE1
 70
     0
  9
$DIMSE2
 70
     0
  9
$DIMTAD
 70
     1
  9
$DIMZIN
 70
     8
  9
$DIMBLK
  1

  9
$DIMASO
 70
     1
  9
$DIMSHO
 70
     1
  9
$DIMPOST
  1

  9
$DIMAPOST
  1

  9
$DIMALT
 70
     0
  9
$DIMALTD
 70
     2
  9
$DIMALTF
 40
25.4
  9
$DIMLFAC
 40
1.0
  9
$DIMTOFL
 70
     1
  9
$DIMTVP
 40
0.0
  9
$DIMTIX
 70
     0
  9
$DIMSOXD
 70
     0
  9
$DIMSAH
 70
     0
  9
$DIMBLK1
  1

  9
$DIMBLK2
  1

  9
$DIMSTYLE
  2
STANDARD
  9
$DIMCLRD
 70
     0
  9
$DIMCLRE
 70
     0
  9
$DIMCLRT
 70
     6
  9
$DIMTFAC
 40
1.0
  9
$DIMGAP
 40
0.1
  9
$DIMJUST
 70
     0
  9
$DIMSD1
 70
     0
  9
$DIMSD2
 70
     0
  9
$DIMTOLJ
 70
     1
  9
$DIMTZIN
 70
     0
  9
$DIMALTZ
 70
     0
  9
$DIMALTTZ
 70
     0
  9
$DIMFIT
 70
     3
  9
$DIMUPT
 70
     0
  9
$DIMUNIT
 70
     2
  9
$DIMDEC
 70
     4
  9
$DIMTDEC
 70
     4
  9
$DIMALTU
 70
     2
  9
$DIMALTTD
 70
     2
  9
$DIMTXSTY
  7
STANDARD
  9
$DIMAUNIT
 70
     0
  9
$LUNITS
 70
     2
  9
$LUPREC
 70
     2
  9
$SKETCHINC
 40
0.1
  9
$FILLETRAD
 40
0.5
  9
$AUNITS
 70
     0
  9
$AUPREC
 70
     4
  9
$MENU
  1
acad
  9
$ELEVATION
 40
0.0
  9
$PELEVATION
 40
0.0
  9
$THICKNESS
 40
0.0
  9
$LIMCHECK
 70
     0
  9
$BLIPMODE
 70
     0
  9
$CHAMFERA
 40
10.0
  9
$CHAMFERB
 40
10.0
  9
$CHAMFERC
 40
0.0
  9
$CHAMFERD
 40
0.0
  9
$SKPOLY
 70
     0
  9
$TDCREATE
 40
2450609.792267708
  9
$TDUPDATE
 40
2452293.541586227
  9
$TDINDWG
 40
0.0414216435
  9
$TDUSRTIMER
 40
0.0414216435
  9
$USRTIMER
 70
     1
  9
$ANGBASE
 50
0.0
  9
$ANGDIR
 70
     0
  9
$PDMODE
 70
    35
  9
$PDSIZE
 40
0.0
  9
$PLINEWID
 40
0.0
  9
$COORDS
 70
     1
  9
$SPLFRAME
 70
     0
  9
$SPLINETYPE
 70
     6
  9
$SPLINESEGS
 70
     8
  9
$ATTDIA
 70
     0
  9
$ATTREQ
 70
     1
  9
$HANDLING
 70
     1
  9
$HANDSEED
  5
691
  9
$SURFTAB1
 70
     6
  9
$SURFTAB2
 70
     6
  9
$SURFTYPE
 70
     6
  9
$SURFU
 70
     6
  9
$SURFV
 70
     6
  9
$UCSNAME
  2

  9
$UCSORG
 10
0.0
 20
0.0
 30
0.0
  9
$UCSXDIR
 10
1.0
 20
0.0
 30
0.0
  9
$UCSYDIR
 10
0.0
 20
1.0
 30
0.0
  9
$PUCSNAME
  2

  9
$PUCSORG
 10
0.0
 20
0.0
 30
0.0
  9
$PUCSXDIR
 10
1.0
 20
0.0
 30
0.0
  9
$PUCSYDIR
 10
0.0
 20
1.0
 30
0.0
  9
$USERI1
 70
     0
  9
$USERI2
 70
     0
  9
$USERI3
 70
     0
  9
$USERI4
 70
     0
  9
$USERI5
 70
     0
  9
$USERR1
 40
0.0
  9
$USERR2
 40
0.0
  9
$USERR3
 40
0.0
  9
$USERR4
 40
0.0
  9
$USERR5
 40
0.0
  9
$WORLDVIEW
 70
     1
  9
$SHADEDGE
 70
     3
  9
$SHADEDIF
 70
    70
  9
$TILEMODE
 70
     1
  9
$MAXACTVP
 70
    16
  9
$PINSBASE
 10
0.0
 20
0.0
 30
0.0
  9
$PLIMCHECK
 70
     0
  9
$PEXTMIN
 10
1.000000E+20
 20
1.000000E+20
 30
1.000000E+20
  9
$PEXTMAX
 10
-1.000000E+20
 20
-1.000000E+20
 30
-1.000000E+20
  9
$PLIMMIN
 10
0.0
 20
0.0
  9
$PLIMMAX
 10
420.0
 20
297.0
  9
$UNITMODE
 70
     0
  9
$VISRETAIN
 70
     0
  9
$PLINEGEN
 70
     0
  9
$PSLTSCALE
 70
     1
  9
$TREEDEPTH
 70
  3020
  9
$PICKSTYLE
 70
     1
  9
$CMLSTYLE
  2
STANDARD
  9
$CMLJUST
 70
     0
  9
$CMLSCALE
 40
1.0
  9
$PROXYGRAPHICS
 70
     1
  9
$MEASUREMENT
 70
     0
  0
ENDSEC
  0
SECTION
  2
CLASSES
  0
CLASS
  1
LWPOLYLINE
  2
AcDbPolyline
  3
"AutoCAD"
 90
        0
280
     0
281
     1
  0
CLASS
  1
HATCH
  2
AcDbHatch
  3
"ACAD_SEDONA"
 90
        0
280
     0
281
     1
  0
CLASS
  1
ACDBDICTIONARYWDFLT
  2
AcDbDictionaryWithDefault
  3
AutoCAD 2000
 90
        0
280
     0
281
     0
  0
CLASS
  1
ACDBPLACEHOLDER
  2
AcDbPlaceHolder
  3
AutoCAD 2000
 90
        0
280
     0
281
     0
  0
CLASS
  1
LAYOUT
  2
AcDbLayout
  3
AutoCAD 2000
 90
        0
280
     0
281
     0
  0
CLASS
  1
LONG_TRANSACTION
  2
AcDbLongTransaction
  3
AutoCAD 2000
 90
        0
280
     0
281
     0
  0
CLASS
  1
LWPOLYLINE
  2
AcDbPolyline
  3
"AutoCAD"
 90
        0
280
     0
281
     1
  0
CLASS
  1
HATCH
  2
AcDbHatch
  3
"ACAD_SEDONA"
 90
        0
280
     0
281
     1
  0
CLASS
  1
XRECORD
  2
AcDbXrecord
  3
"<Built In>"
 90
        0
280
     0
281
     0
  0
ENDSEC
  0
SECTION
  2
TABLES
  0
TABLE
  2
VPORT
  5
12
100
AcDbSymbolTable
 70
     1
  0
VPORT
  5
645
102
{ACAD_XDICTIONARY
360
646
102
}
100
AcDbSymbolTableRecord
100
AcDbViewportTableRecord
  2
*ACTIVE
 70
     0
 10
0.0
 20
0.0
 11
1.0
 21
1.0
 12
116.505202
 22
659.458275
 13
0.0
 23
0.0
 14
5.0
 24
5.0
 15
10.0
 25
10.0
 16
0.0
 26
0.0
 36
1.0
 17
0.0
 27
0.0
 37
0.0
 40
677.883853
 41
1.630435
 42
50.0
 43
0.0
 44
0.0
 50
0.0
 51
0.0
 71
     0
 72
   100
 73
     1
 74
     1
 75
     1
 76
     0
 77
     0
 78
     0
  0
ENDTAB
  0
TABLE
  2
LTYPE
  5
D
100
AcDbSymbolTable
 70
     2
  0
LTYPE
  5
E
100
AcDbSymbolTableRecord
100
AcDbLinetypeTableRecord
  2
BYBLOCK
 70
     0
  3

 72
    65
 73
     0
 40
0.0
  0
LTYPE
  5
F
100
AcDbSymbolTableRecord
100
AcDbLinetypeTableRecord
  2
BYLAYER
 70
     0
  3

 72
    65
 73
     0
 40
0.0
  0
LTYPE
  5
5
100
AcDbSymbolTableRecord
100
AcDbLinetypeTableRecord
  2
CONTINUOUS
 70
     0
  3
Solid line
 72
    65
 73
     0
 40
0.0
  0
LTYPE
  5
91
100
AcDbSymbolTableRecord
100
AcDbLinetypeTableRecord
  2
DASHDOT
 70
     0
  3
__ . __ . __ . __ . __ . __ . __ . __ . __ . __
 72
    65
 73
     4
 40
1.0
 49
0.5
 74
     0
 49
-0.25
 74
     0
 49
0.0
 74
     0
 49
-0.25
 74
     0
  0
ENDTAB
  0
TABLE
  2
LAYER
  5
A
100
AcDbSymbolTable
 70
     9
  0
LAYER
  5
4
100
AcDbSymbolTableRecord
100
AcDbLayerTableRecord
  2
0
 70
     0
 62
     7
  6
CONTINUOUS
  0
LAYER
  5
8A
100
AcDbSymbolTableRecord
100
AcDbLayerTableRecord
  2
STALPROFIL
 70
     0
 62
     1
  6
CONTINUOUS
  0
LAYER
  5
8C
100
AcDbSymbolTableRecord
100
AcDbLayerTableRecord
  2
SPKONTUR
 70
     0
 62
     7
  6
CONTINUOUS
  0
LAYER
  5
1B
100
AcDbSymbolTableRecord
100
AcDbLayerTableRecord
  2
GLAS_MED_FOGNING
 70
     0
 62
     2
  6
CONTINUOUS
  0
LAYER
  5
90
100
AcDbSymbolTableRecord
100
AcDbLayerTableRecord
  2
CENTRUM
 70
     0
 62
     3
  6
DASHDOT
  0
LAYER
  5
10D
100
AcDbSymbolTableRecord
100
AcDbLayerTableRecord
  2
TEXT
 70
     0
 62
     6
  6
CONTINUOUS
  0
LAYER
  5
FD
100
AcDbSymbolTableRecord
100
AcDbLayerTableRecord
  2
RAM
 70
     0
 62
     5
  6
CONTINUOUS
  0
LAYER
  5
2B1
100
AcDbSymbolTableRecord
100
AcDbLayerTableRecord
  2
ISOLERING
 70
     0
 62
     3
  6
CONTINUOUS
  0
LAYER
  5
551
100
AcDbSymbolTableRecord
100
AcDbLayerTableRecord
  2
DIM
 70
     0
 62
     4
  6
CONTINUOUS
  0
ENDTAB
  0
TABLE
  2
STYLE
  5
B
100
AcDbSymbolTable
 70
     2
  0
STYLE
  5
C
100
AcDbSymbolTableRecord
100
AcDbTextStyleTableRecord
  2
STANDARD
 70
     0
 40
0.0
 41
1.0
 50
0.0
 71
     0
 42
5.0
  3
txt
  4

  0
STYLE
  5
10E
100
AcDbSymbolTableRecord
100
AcDbTextStyleTableRecord
  2
ROMANS
 70
     0
 40
0.0
 41
0.8
 50
0.0
 71
     0
 42
5.0
  3
romans
  4

  0
ENDTAB
  0
TABLE
  2
VIEW
  5
10
100
AcDbSymbolTable
 70
     0
  0
ENDTAB
  0
TABLE
  2
UCS
  5
11
100
AcDbSymbolTable
 70
     0
  0
ENDTAB
  0
TABLE
  2
APPID
  5
14
100
AcDbSymbolTable
 70
     3
  0
APPID
  5
15
100
AcDbSymbolTableRecord
100
AcDbRegAppTableRecord
  2
ACAD
 70
     0
  0
APPID
  5
86
100
AcDbSymbolTableRecord
100
AcDbRegAppTableRecord
  2
CONTENTBLOCKICON
 70
     0
  0
APPID
  5
5EC
100
AcDbSymbolTableRecord
100
AcDbRegAppTableRecord
  2
CONTENTBLOCKDESCRIPTION
 70
     0
  0
ENDTAB
  0
TABLE
  2
DIMSTYLE
  5
16
100
AcDbSymbolTable
 70
     1
  0
DIMSTYLE
105
1D
100
AcDbSymbolTableRecord
100
AcDbDimStyleTableRecord
  2
STANDARD
 70
     0
  3

  4

  5

  6

  7

 40
1.0
 41
0.18
 42
0.0625
 43
0.38
 44
0.18
 45
0.0
 46
0.0
 47
0.0
 48
0.0
140
0.18
141
0.09
142
0.0
143
25.4
144
1.0
145
0.0
146
1.0
147
0.09
 71
     0
 72
     0
 73
     1
 74
     1
 75
     0
 76
     0
 77
     0
 78
     0
170
     0
171
     2
172
     0
173
     0
174
     0
175
     0
176
     0
177
     0
178
     0
270
     2
271
     4
272
     4
273
     2
274
     2
340
C
275
     0
280
     0
281
     0
282
     0
283
     1
284
     0
285
     0
286
     0
287
     3
288
     0
  0
ENDTAB
  0
TABLE
  2
BLOCK_RECORD
  5
1
100
AcDbSymbolTable
 70
    69
  0
BLOCK_RECORD
  5
2
102
{ACAD_XDICTIONARY
360
668
102
}
100
AcDbSymbolTableRecord
100
AcDbBlockTableRecord
  2
*MODEL_SPACE
  0
BLOCK_RECORD
  5
7
102
{ACAD_XDICTIONARY
360
66A
102
}
100
AcDbSymbolTableRecord
100
AcDbBlockTableRecord
  2
*PAPER_SPACE
  0
BLOCK_RECORD
  5
E3
100
AcDbSymbolTableRecord
100
AcDbBlockTableRecord
  2
SP40020
  0
BLOCK_RECORD
  5
439
100
AcDbSymbolTableRecord
100
AcDbBlockTableRecord
  2
SP93520
1001
CONTENTBLOCKICON
1071
        0
1004
2800000020000000200000000100040000000000000200000000000000000000000000000000000000000000000080000080000000808000800000008000800080800000C0C0C000808080000000FF0000FF000000FFFF00FF000000FF00FF00FFFF0000FFFFFF00FFFFFFFFFFFFFFFFFFFFFFFFFFFFFFFFFFFFFFFFFFFFFF
1004
FFFFFFFFFFFFFFFFFFFFFFFFFFFFFFFFFFFFFFFFFFFFFFFFFFFFFFFFFFFFFFFFFFFFFFFFFFFFFFFFFFFFFFFFFFFFFFFFFFFFFAFFFFFFFFFFFFFFFFFFFFFFFFFFFFFFFAFFFFFFFFFFFFFFFFFFFFFFFFFFFFFFFAFFFFFFFFFFFFFFFFFFFFFFFFFFFFFBBBBBBFFFFFFFFFFFFFFFFFFFFFFFFFFBFFFFBFFFFFFFFFFFFFFFFFFFFF
1004
FFFFFBFAFFBFFFFFFFFFFF0000000000000FFFFAFFFF000000FFF999999999999990BBBBBBBB9999990F9FFFFFFFFFFFFFF9BFFFFFFBFFFFFF909FFFFFFFFFFFFFFBFFFAFFF0BFFFFF909FFFFFFFFFFFFF9BBBBBBBBBBFFFFF909FFFFFFFFFFFFFFFFFBBBBFFFFFFFF909FFFFFFFFFFFFFFFFFFFFFFFFFFFFF909FFFFFFFFF
1004
FFFFFFFFFAFFFFFFFFFF909FFFFFFFFFFFFFFFFFFAFFFFFFFFFF909FFFFFFFFFFFFFFFFFFFFFFFFFFFFF909FFFFFFFFFFFFFFFFFFFFFFFFFFFFF909FFFFFFFFFFFFFFFFFFFFFFFFFFFFF909FFFFFFFFFFFFFFFFFFFFFFFFFFFFF909FFFFFFFFFFFFFFFFFFFFFFFFFFFFF909FFFFFFFFFFFFFFFFFFFFFFFFFFFFF909FFFFFFF
1004
FFFFFFFFFFFFFFFFFFFFFF909FFFFFFFFFFFFFFFFFFFFFFFFFFFFF90F999999999999999999999999999990FFFFFFFFFFFFFFFFFFFFFFFFFFFFFFFFFFFFFFFFFFFFFFFFFFFFFFFFFFFFFFFFFFFFFFFFFFFFFFFFFFFFFFFFFFFFFFFFFFFFFFFFFFFFFFFFFFFFFFFFFFFFFFFFF
  0
BLOCK_RECORD
  5
42D
100
AcDbSymbolTableRecord
100
AcDbBlockTableRecord
  2
*X2
  0
BLOCK_RECORD
  5
428
100
AcDbSymbolTableRecord
100
AcDbBlockTableRecord
  2
*X3
  0
BLOCK_RECORD
  5
3F8
100
AcDbSymbolTableRecord
100
AcDbBlockTableRecord
  2
*X4
  0
BLOCK_RECORD
  5
3EB
100
AcDbSymbolTableRecord
100
AcDbBlockTableRecord
  2
GLAS5-4X3
  0
BLOCK_RECORD
  5
FB
100
AcDbSymbolTableRecord
100
AcDbBlockTableRecord
  2
SIDA
1001
CONTENTBLOCKICON
1071
        0
1004
2800000020000000200000000100040000000000000200000000000000000000000000000000000000000000000080000080000000808000800000008000800080800000C0C0C000808080000000FF0000FF000000FFFF00FF000000FF00FF00FFFF0000FFFFFF00FFFFFCCCCCCCCCCCCCCCCCCCCCCFFFFFFFFFFCFFFFFFFF
1004
FFFFFFFFFFFFCFFFFFFFFFFCFFFFFFFFFFFFFFFFFFFFCFFFFFFFFFFCFFFFFFFFFFFFFFFFFFFFCFFFFFFFFFFCFFFFFFFFFFFFFFFFFFFFCFFFFFFFFFFCFFFFFFFFFFFFFFFFFFFFCFFFFFFFFFFCFFFFFFFFFFFFFFFFFFFFCFFFFFFFFFFCFFFFFFDFFFFFFDFFFFFFCFFFFFFFFFFCFFFFFDDDFFFFFDDFFFFFCFFFFFFFFFFCFFFFFF
1004
FFFFFFFFFFFFFFCFFFFFFFFFFCFFFFFFFFFFFFFFFFFFFFCFFFFFFFFFFCFFFFFFFFFFFFFFFFFFFFCFFFFFFFFFFCFFFFFFFFFFFFFFFFFFFFCFFFFFFFFFFCFFFFFFFFFFFFFFFFFFFFCFFFFFFFFFFCFFFFFFFFFFFFFFFFFFFFCFFFFFFFFFFCFFFFFFDFFFFFFDFFFFFFCFFFFFFFFFFCFFFFFDDDFFFFFDDFFFFFCFFFFFFFFFFCFFFF
1004
FFFFFFFFFFFFFFFFCFFFFFFFFFFCFFFFFFFFFFFFFFFFFFFFCFFFFFFFFFFCFFFFFFFFFFFFFFFFFFFFCFFFFFFFFFFCFFFFFFFFFFFFFFFFFFFFCFFFFFFFFFFCFFFFFFFFFFFFFFFFFFFFCFFFFFFFFFFCFFFFFFFFFFFFFFFFFFFFCFFFFFFFFFFCFFFFFDDDFFFFFDDFFFFFCFFFFFFFFFFCFFFFFFDFFFFFFDFFFFFFCFFFFFFFFFFCFF
1004
FFFFFFFFFFFFFFFFFFCFFFFFFFFFFCFFFFFFFFFFFFFFFFFFFFCFFFFFFFFFFCFFFFFFFFFFFFFFFFFFFFCFFFFFFFFFFCFFFFFFFFFFFFFFFFFFFFCFFFFFFFFFFCFFFFFFFFFFFFFFFFFFFFCFFFFFFFFFFCFFFFFFFFFFFFFFFFFFFFCFFFFFFFFFFCCCCCCCCCCCCCCCCCCCCCCFFFFF
  0
BLOCK_RECORD
  5
2A9
100
AcDbSymbolTableRecord
100
AcDbBlockTableRecord
  2
SP90520
1001
CONTENTBLOCKICON
1071
        0
1004
2800000020000000200000000100040000000000000200000000000000000000000000000000000000000000000080000080000000808000800000008000800080800000C0C0C000808080000000FF0000FF000000FFFF00FF000000FF00FF00FFFF0000FFFFFF00FFFFFFFFFFFFFFFFFFFFFFFFFFFFFFFFFFFFFFFFFFFFFF
1004
FFFFFFFFFFFFFFFFFFFFFFFFFAFFFFFFFFFFFFFFFFFFFFFFFFFFFFFFFAFFFFFFFFFFFFFFFFFFFFFFFFFFFFFFFAFFFFFFFFFFFFFFFFFFFFFFFFFFFFFFFAFFFFFFFFFFFFFFFFFFFFFFFFFFFFFFFFFFFFFFFFFFFFFFFFFFFFFFFFFFFFFFFFFFFFFFFFFFFFFFFFFFFFFFFFFFBBBBBABBBBBF00000000000000000FFBFFFFFAFFFF
1004
BF999BBB999999999990BFFFFFFFFFFFFB9BBFFFBFFFFFFFF990FFFFFFFFFFFFFBBFFFFFFBFFFFFFF990FFFFFFFFFFFFFFFFFFFFFBFFFFFFF990FFFFFFFFFFFFFFFFFFFFFFBFFFFFF990FFFFFFFFFFFFFFFFFFFFFFFFFFFFF990FFFFFFFFFFFFFFFFFFFFFFFFFFFFF990FFFFFFFFFFFFFFFFFFFFFFFFFFFFF990FFFFFFFFFF
1004
FFFFFFFFFFFFFFFFFFF990FFFFFFFFFFFFFFFFFFFFFFFFFFFFF990FFFFFFFFFFFFFFFFFFFFFFFFFFFFF990FFFFFFFFFFFFFFFFFFFFFFFFFFFFF990FFFFFFFFFFFFFFFFFFFFFFFFFFFFF990FFFFFFFFFFFFFFFFFFFFFFFFFFFFF990FFFFFFFFFFFFFFFFFFFFFFFFFFFFF990FFFFFFFFFFFFFFFFFFFFFFFFFFFF9990FFFFFFFF
1004
FFFFFFFFFFFFFFFFFFFF9990FFFFFFFFFFFFFFFFFFFFFFFFFFFF9990FFFFFFFFFFFFFFFFFFFFFFFFFFFF9990FFFFFFFFFFFFFFFFFFFFFFFFFFFF9990FFFFFFFFFFFFFFFFFFFFFFFFFFFF9990FFFFFFFFFFFFFFFFFFFFFFFFFFFF990FFFFFFFFFFFFFFFFFFFFFFFFFFFFFFFFF
  0
BLOCK_RECORD
  5
1D8
100
AcDbSymbolTableRecord
100
AcDbBlockTableRecord
  2
SP91520
1001
CONTENTBLOCKICON
1071
        0
1004
2800000020000000200000000100040000000000000200000000000000000000000000000000000000000000000080000080000000808000800000008000800080800000C0C0C000808080000000FF0000FF000000FFFF00FF000000FF00FF00FFFF0000FFFFFF00FFFFFFFFFFFFFFFFAFFFFFFFFFFFFFFFFFFFFFFFFFFFFF
1004
FFAFFFFFFFFFFFFFFFFFFFFFFFFFFFFFFFAFFFFFFFFFFFFFFFFFFFFFFFFFFFFFBBBBBBFFFFFFFFFFFFFFFFFFFFFFFFFBFFFFFBFFFFFFFFFFFFFFFFFFFFFFFFFBBBBBBBFFFFFFFFFFFFFFFFFFFFFFFFFBFFAFFBFFFFFFFFFFFFFFFFFFFFFFFFFFFFAFFFFFFFFFFFFFFFFFFFFFFF0000FFFFAFFFF0000FFFFFFFFFFFFFF09990
1004
BBBBBBBB09990FFFFFFFFFFFFFF09F90BFFFFFFF09F90FFFFFFFFFFFFFF09F90BFFFAFFF09F90FFFFFFFFFFFFFF0990BFFFFAFFFF0990FFFFFFFFFFFFFF0990BFFFFAFFFF0990FFFFFFFFFFFFFF09FFBBBBBBBBBB0F90FFFFFFFFFFFFFF09FFFFFBBBBBFFFF90FFFFFFFFFFFFFF09FFFFFFFFFFFFFF90FFFFFFFFFFFFFF09F
1004
FFFFFFAFFFFFF90FFFFFFFFFFFFFF09FFFFFFFAFFFFFF90FFFFFFFFFFFFFF09FFFFFFFFFFFFFF90FFFFFFFFFFFFFF09FFFFFFFFFFFFFF90FFFFFFFFFFFFFF09FFFFFFFFFFFFFF90FFFFFFFFFFFFFF09FFFFFFFFFFFFFF90FFFFFFFFFFFFFF09FFFFFFFFFFFFFF90FFFFFFFFFFFFFF09FFFFFFFFFFFFFF90FFFFFFFFFFFFFF0
1004
9FFFFFFFFFFFFFF90FFFFFFFFFFFFFF09FFFFFFFFFFFFFF90FFFFFFFFFFFFFF09FFFFFFFFFFFFFF90FFFFFFFFFFFFFF09FFFFFFFFFFFFFF90FFFFFFFFFFFFFFF0FFFFFFFFFFFFFF90FFFFFFFFFFFFFFF09999999999999990FFFFFFFFFFFFFFFF000000000000000FFFFFFFF
  0
BLOCK_RECORD
  5
E1
100
AcDbSymbolTableRecord
100
AcDbBlockTableRecord
  2
SP92520
1001
CONTENTBLOCKICON
1071
        0
1004
2800000020000000200000000100040000000000000200000000000000000000000000000000000000000000000080000080000000808000800000008000800080800000C0C0C000808080000000FF0000FF000000FFFF00FF000000FF00FF00FFFF0000FFFFFF00FFFFFFFFFFFFFFFAFFFFFFFFFFFFFFFFFFFFFFFFFFFFFF
1004
FAFFFFFFFFFFFFFFFFFFFFFFFFFFFFFFFAFFFFFFFFFFFFFFFFFFFFFFFFFFFFFBBBBBBFFFFFFFFFFFFFFFFFFFFFFFFFBFFFFFBFFFFFFFFFFFFFFFFFFFFFFFFFBBBBBBBFFFFFFFFFFFFFFFFFFFFFFFFFBFFAFFBFFFFFFFFFFFFFFFFFFFFFFFFFFFFAFFFFFFFFFFFFFFFFFFF000000FFFFFFAFFFFF0000000FFFFFF099999900B
1004
BBBBBBBB0999999900FFF09FFFFFF990FFFFFFFB0FFFFFFF990FF09FFFFFF990FFFAFFFB0FFFFFFF990FF09FFFFF990FFFFAFFFF09FFFFFF990FF09FFFFF990FFFFAFFFF09FFFFFF990FF09FFFFFFFBBBBBBBBBB0FFFFFFF990FF09FFFFFFFFFFBBBBBFFFFFFFFFF990FF09FFFFFFFFFFFFFFFFFFFFFFFFF990FF09FFFFFFF
1004
FFFFFAFFFFFFFFFFFF990FF09FFFFFFFFFFFFAFFFFFFFFFFFF990FF09FFFFFFFFFFFFFFFFFFFFFFFFF990FF09FFFFFFFFFFFFFFFFFFFFFFFFF990FF09FFFFFFFFFFFFFFFFFFFFFFFFF990FF09FFFFFFFFFFFFFFFFFFFFFFFFF990FF09FFFFFFFFFFFFFFFFFFFFFFFFF990FF09FFFFFFFFFFFFFFFFFFFFFFFFF990FF09FFFFF
1004
FFFFFFFFFFFFFFFFFFFF990FF09FFFFFFFFFFFFFFFFFFFFFFFFF990FF09FFFFFFFFFFFFFFFFFFFFFFFFF990FF09FFFFFFFFFFFFFFFFFFFFFFFFF990FF09FFFFFFFFFFFFFFFFFFFFFFFFF90FFFF0099999999999999999999999990FFFFFF0000000000000000000000000FFF
  0
BLOCK_RECORD
  5
11A
100
AcDbSymbolTableRecord
100
AcDbBlockTableRecord
  2
SP93020
1001
CONTENTBLOCKICON
1071
        0
1004
2800000020000000200000000100040000000000000200000000000000000000000000000000000000000000000080000080000000808000800000008000800080800000C0C0C000808080000000FF0000FF000000FFFF00FF000000FF00FF00FFFF0000FFFFFF00FFFFFFFFFFFFFFFFFFFFFFFFFFFFFFFFFFFFFFFFFFFFFF
1004
FFFFFFFFFFFFFFFFFFFFFFFFFFFFFFFFFFFFAFFFFFFFFFFFFFFFFFFFFFFFFFFFFFFFAFFFFFFFFFFFFFFFFFFFFFFFFFFFFFFFAFFFFFFFFFFFFFFFFFFFFFFFFFFFFFBBBBBFFFFFFFFFFFFFFFFFFFFFFFFFBBBBBBBBFFFFFFFFFFFFFFFFFFFFFFFFBBFFAFBBFFFFFFFFFFFFFFFFFFFFFFFFBBFFAFBBFFFFFFFFFFFF0000000000
1004
FFFFFFAFFFF0000000FFF9999999999990BBBBBBBB999999990F99FFFFFFFFFF90BFFFFFFB9FFFFFF99099FFFFFFFFFF99BFFFAFFB9FFFFFF99099FFFFFFFFF99BFFFFAFFFB9FFFFF99099FFFFFFFFF99BBBBBBBBBB9FFFFF99099FFFFFFFFFFFFFFBBBBBFFFFFFFF99099FFFFFFFFFFFFFFFFFFFFFFFFFFF99099FFFFFFFF
1004
FFFFFFFFAFFFFFFFFFF99099FFFFFFFFFFFFFFFFAFFFFFFFFFF99099FFFFFFFFFFFFFFFFFFFFFFFFFFF99099FFFFFFFFFFFFFFFFFFFFFFFFFFF99099FFFFFFFFFFFFFFFFFFFFFFFFFFF99099FFFFFFFFFFFFFFFFFFFFFFFFFFF99099FFFFFFFFFFFFFFFFFFFFFFFFFFF99099FFFFFFFFFFFFFFFFFFFFFFFFFFF99099FFFFFF
1004
FFFFFFFFFFFFFFFFFFFFF99099FFFFFFFFFFFFFFFFFFFFFFFFFFF99099FFFFFFFFFFFFFFFFFFFFFFFFFFF99009FFFFFFFFFFFFFFFFFFFFFFFFFFF99FF999999999999999999999999999990FFFFFFFFFFFFFFFFFFFFFFFFFFFFFFFFFFFFFFFFFFFFFFFFFFFFFFFFFFFFFFFFF
  0
BLOCK_RECORD
  5
31F
100
AcDbSymbolTableRecord
100
AcDbBlockTableRecord
  2
SP92020
1001
CONTENTBLOCKICON
1071
        0
1004
2800000020000000200000000100040000000000000200000000000000000000000000000000000000000000000080000080000000808000800000008000800080800000C0C0C000808080000000FF0000FF000000FFFF00FF000000FF00FF00FFFF0000FFFFFF00FFFFFFFFFFFFFFFFFFFAFFFFFFFFFFFFFFFFFFFFFFFFFF
1004
FFFFFAFFFFFFFFFFFFFFFFFFFFFFFFFFFFFFFAFFFFFFFFFFFFFFFFFFFFFFFFFFFFFBBBBBFFFFFFFFFFFFFFFFFFFFFFFFFBBFFFFBBFFFFFFFFFFFFFFFFFFFFFFFFBBBBBBBBFFFFFFFFFFFFFFFFFFFFFFFFBBFFAFBBFFFFFFFFFFFFFFFFFFFFFFFFFFFFAFFFFFFFFFFFFFFFFFFF000000FFFFFFAFFFF0000FFFFFFFFF9999999
1004
90BBBBBBBBBB9990FFFFFFFF99FFFFFF99BFFFFFFFFB9F90FFFFFFFF99FFFFFFF9BFFFFAFFFB9F90FFFFFFFF99FFFFFF9BFFFFFAFFFFBF90FFFFFFFF99FFFFFF9BFFFFFAFFFFBF90FFFFFFFF99FFFFFFFBBBBBBBBBBBBF90FFFFFFFF99FFFFFFFFFFBBBBBBFFFF90FFFFFFFF99FFFFFFFFFFFFFFFFFFFF90FFFFFFFF99FFFF
1004
FFFFFFFFFAFFFFFF90FFFFFFFF99FFFFFFFFFFFFFAFFFFFF90FFFFFFFF99FFFFFFFFFFFFFFFFFFFF90FFFFFFFF99FFFFFFFFFFFFFFFFFFFF90FFFFFFFF99FFFFFFFFFFFFFFFFFFFF90FFFFFFFF99FFFFFFFFFFFFFFFFFFFF90FFFFFFFF99FFFFFFFFFFFFFFFFFFFF90FFFFFFFF99FFFFFFFFFFFFFFFFFFFF90FFFFFFFF99FF
1004
FFFFFFFFFFFFFFFFFF90FFFFFFFF99FFFFFFFFFFFFFFFFFFFF90FFFFFFFF99FFFFFFFFFFFFFFFFFFFF90FFFFFFFF99FFFFFFFFFFFFFFFFFFFF90FFFFFFFFF9FFFFFFFFFFFFFFFFFFF99FFFFFFFFFF9999999999999999999990FFFFFFFFFFF09999999999999999990FFFFFF
  0
BLOCK_RECORD
  5
88
100
AcDbSymbolTableRecord
100
AcDbBlockTableRecord
  2
SP91020
1001
CONTENTBLOCKICON
1071
        0
1004
2800000020000000200000000100040000000000000200000000000000000000000000000000000000000000000080000080000000808000800000008000800080800000C0C0C000808080000000FF0000FF000000FFFF00FF000000FF00FF00FFFF0000FFFFFF00FFFFFFFFFAFFFFFFFFFFFFFFFFFFFFFFFFFFFFFFFAFFFF
1004
FFFFFFFFFFFFFFFFFFFFFFFFFFFAFFFFFFFFFFFFFFFFFFFFFFFFFFFFFFFFFFFFFFFFFFFFFFFFFFFFFFFFFFFFFFFAFFFFFFFFFFFFFFFFFFFFFFFFFFFFFFFFFFFFFFFFFFFFFFFFFFFFFFFFFFBBBBBBBBBBBFFFF000000000FFFFFFFBFFFFFAFFFFFBF009999999990FFFFFBFFFFFFFFFFFFBF099BBB9999990FFFFFFFFFFFFFF
1004
FFFFB0BBFFFBFFF990FFFFFFFFFFFFFFFFFFBBFFFFFFBFF990FFFFFFFFFFFFFFFFFFFFFFFFFFBFF990FFFFFFFFFFFFFFFFFFFFFFFFFFFBF990FFFFFFFFFFFFFFFFFFF0FFFFFFFFF990FFFFFFFFFFFFFFFFFFF0FFFFFFFFF990FFFFFFFFFFFFFFFFFFF0FFFFFFFFF990FFFFFFFFFFFFFFFFFFF0FFFFFFFFF990FFFFFFFFFFFF
1004
FFFFFFF0FFFFFFFFF990FFFFFFFFFFFFFFFFFFF0FFFFFFFFF990FFFFFFFFFFFFFFFFFFF0FFFFFFFFF990FFFFFFFFFFFFFFFFFFF0FFFFFFFFF990FFFFFFFFFFFFFFFFFFF0FFFFFFFFF990FFFFFFFFFFFFFFFFFFF0FFFFFFFFF990FFFFFFFFFFFFFFFFFFF0FFFFFFFFF990FFFFFFFFFFFFFFFFFFF0FFFFFFFFF990FFFFFFFFFF
1004
FFFFFFFFF0FFFFFFFFF990FFFFFFFFFFFFFFFFFFF0FFFFFFFFF990FFFFFFFFFFFFFFFFFFF0FFFFFFFFF990FFFFFFFFFFFFFFFFFFF0FFFFFFFFF990FFFFFFFFFFFFFFFFFFF0FFFFFFFFF90FFFFFFFFFFFFFFFFFFFF099999999990FFFFFFFFFFFFFFFFFFFFF0000000000FFFF
  0
BLOCK_RECORD
  5
28E
100
AcDbSymbolTableRecord
100
AcDbBlockTableRecord
  2
*X13
  0
BLOCK_RECORD
  5
485
100
AcDbSymbolTableRecord
100
AcDbBlockTableRecord
  2
*X14
  0
BLOCK_RECORD
  5
480
100
AcDbSymbolTableRecord
100
AcDbBlockTableRecord
  2
*X15
  0
BLOCK_RECORD
  5
451
100
AcDbSymbolTableRecord
100
AcDbBlockTableRecord
  2
*X16
  0
BLOCK_RECORD
  5
46C
100
AcDbSymbolTableRecord
100
AcDbBlockTableRecord
  2
*X17
  0
BLOCK_RECORD
  5
444
100
AcDbSymbolTableRecord
100
AcDbBlockTableRecord
  2
GLAS5-4X3DK
  0
BLOCK_RECORD
  5
3E9
100
AcDbSymbolTableRecord
100
AcDbBlockTableRecord
  2
50_SP93520
1001
CONTENTBLOCKICON
1071
        0
1004
2800000020000000200000000100040000000000000200000000000000000000000000000000000000000000000080000080000000808000800000008000800080800000C0C0C000808080000000FF0000FF000000FFFF00FF000000FF00FF00FFFF0000FFFFFF00FFFFFFFFFFFFFFFFFFFFFFFFFFFFFFFFFFFFFFFFFFFFFF
1004
FFFFFFFFFFFFFFFFFFFFFFFFFFFFFFFFFFFFFFFFFFFFFFFFFFFFFFFFFFFFFFFFFFFFFFFFFFFFFFFFFFFFFFFFFFFFFFFFFFFFFFFFFAFFFFFFFFFFFFFFFFFFFFFFFFFFFFFFFAFFFFFFFFFFFFFFFFFFFFFFFFFFFFFBBBBBFFFFFFFFFFFFFFFFFFFFFFFFFFFBFFBBFFFFFFFFFBFFFFFF0000000000FFFAFF00000FFFBFBBFBBF99
1004
99999999BBBBBB99990FFFFBFBBBF9FFFFFFFFFFBFFFFBFFFF90FFBFBBBBB9FFFFFFFFF9BBBBBBBFFF90FFFBBFFBB9FFFFFFFFFFFFFAFFFFFF90FFFBBFFBB9FFFFFFFFFFFFFFFFFFFF90FFFBBFFBB9FFFFFFFFFFFFFAFFFFFF90FFFBBFFBB9FFFFFFFFFFFFFFFFFFFF90FFFBBFFBB9FFFFFFFFFFFFFFFFFFFF90FFFBBFFBB9
1004
FFFFFFFFFFFFFFFFFFFF90FFFBBFFBB9FFFFFFFFFFFFFFFFFFFF90FFBFBFFBB9FFFFFFFFFFFFFFFFFFFF90FFFBBFFBBF0FFFFFFFFFFFFFFFFFFF0FFFFFBFFBFF999999999999999999990FFFFFBFFBFFFFFFFFFFFFFFFFFFFFFFFFFFFFBFFBFFFFFFFFFFFFFFFFFFFFFFFFFFFFBFFBFFFFFFFFFFFFFFFFFFFFFFFFFFFFBFFB
1004
FFFFFFFFFFFFFFFFFFFFFFFFFFFFBFFBFFFFFFFFFFFFFFFFFFFFFFFFFFFFBFFBFFFFFFFFFFFFFFFFFFFFFFFFAAAFBAABAAAFAAFAAFAAFAAFAAFAAFAAFFFFFFFFFFFFFFFFFFFFFFFFFFFFFFFFFFFFFFFFFFFFFFFFFFFFFFFFFFFFFFFFFFFFFFFFFFFFFFFFFFFFFFFFFFFFFFFF
  0
BLOCK_RECORD
  5
442
100
AcDbSymbolTableRecord
100
AcDbBlockTableRecord
  2
50_SP93520DK
1001
CONTENTBLOCKICON
1071
        0
1004
2800000020000000200000000100040000000000000200000000000000000000000000000000000000000000000080000080000000808000800000008000800080800000C0C0C000808080000000FF0000FF000000FFFF00FF000000FF00FF00FFFF0000FFFFFF00FFFFFFFFFFFFFFFFFFFFFFFFFFFFFFFFFFFFFFFFFFFFFF
1004
FFFFFFFFFFFFFFFFFFFFFFFFFFFFFFFFFFFFFFFFFFFFFFFFFFFFFFFFFFFFFFFFFFFFFFFFFFFFFFFFFFFFFFFFFFFFFFFFFFFFFFFFFAFFFFFFFFFFFFFFFFFFFFFFFFFFFFFFFAFFFFFFFFFFFFFFFFFFFFFFFFFFFFFBBBBBFFFFFFFFFFFFFFFFFFFFFFFFFFFBFFBBFFFFFFFFFBFFFBFF0000000000FFFAFF00000FFFBFBBBBBF99
1004
99999999BBBBBB99990FFFFBBBBBF9FFFFFFFFFFBFFFFBFFFF90FFBFBBBBB9FFFFFFFFF9BBBBBBBFFF90FFFBBFFBB9FFFFFFFFFFFFFAFFFFFF90FFFBBFFBB9FFFFFFFFFFFFFFFFFFFF90FFFBBFFBB9FFFFFFFFFFFFFAFFFFFF90FFFBBFFBB9FFFFFFFFFFFFFFFFFFFF90FFFBBFFBB9FFFFFFFFFFFFFFFFFFFF90FFFBBFFBB9
1004
FFFFFFFFFFFFFFFFFFFF90FFFBBFFBB9FFFFFFFFFFFFFFFFFFFF90FFBFBFFBB9FFFFFFFFFFFFFFFFFFFF90FFFBBFFBBF0FFFFFFFFFFFFFFFFFFF0FFFFFBFFBFF999999999999999999990FFFFFBFFBFFFFFFFFFFFFFFFFFFFFFFFFFFFFBFFBFFFFFFFFFFFFFFFFFFFFFFFFFFFFBFFBFFFFFFFFFFFFFFFFFFFFFFFFFFFFBFFB
1004
FFFFFFFFFFFFFFFFFFFFFFFFFFFFBFFBFFFFFFFFFFFFFFFFFFFFFFFFFFFFBFFBFFFFFFFFFFFFFFFFFFFFFFFFAAAFBAABAAAFAAFAAFAAFAAFAAFAAFAAFFFFFFFFFFFFFFFFFFFFFFFFFFFFFFFFFFFFFFFFFFFFFFFFFFFFFFFFFFFFFFFFFFFFFFFFFFFFFFFFFFFFFFFFFFFFFFFF
  0
BLOCK_RECORD
  5
68
100
AcDbSymbolTableRecord
100
AcDbBlockTableRecord
  2
*X21
  0
BLOCK_RECORD
  5
78
100
AcDbSymbolTableRecord
100
AcDbBlockTableRecord
  2
*X22
  0
BLOCK_RECORD
  5
1F0
100
AcDbSymbolTableRecord
100
AcDbBlockTableRecord
  2
*X23
  0
BLOCK_RECORD
  5
215
100
AcDbSymbolTableRecord
100
AcDbBlockTableRecord
  2
*X24
  0
BLOCK_RECORD
  5
23A
100
AcDbSymbolTableRecord
100
AcDbBlockTableRecord
  2
GLAS6-6X5DK
  0
BLOCK_RECORD
  5
123
100
AcDbSymbolTableRecord
100
AcDbBlockTableRecord
  2
*X26
  0
BLOCK_RECORD
  5
121
100
AcDbSymbolTableRecord
100
AcDbBlockTableRecord
  2
GLAS6-6X5
  0
BLOCK_RECORD
  5
116
100
AcDbSymbolTableRecord
100
AcDbBlockTableRecord
  2
50_SP93020
1001
CONTENTBLOCKICON
1071
        0
1004
2800000020000000200000000100040000000000000200000000000000000000000000000000000000000000000080000080000000808000800000008000800080800000C0C0C000808080000000FF0000FF000000FFFF00FF000000FF00FF00FFFF0000FFFFFF00FFFFFFFFFFFFFFFFFFFFFFFFFFFFFFFFFFFFFFFFFFFFFF
1004
FFFFFFFFFFFFFFFFFFFFFFFFFFFFFFFFFFFFFFFFFFFFFFFFFFFFFFFFFFFFFFFFFFFFFFFFFFFFFFFFFFFFFFFFFFFFFFFFFFFFFFFFFAFFFFFFFFFFFFFFFFFFFFFFFFFFFFFFFAFFFFFFFFFFFFFFFFFFFFFFFFFFFFFBBBBBFFFFFFFFFFFFFFFFFFFFFFFFFFFBFFBBFFFFFFFFFBFFFFFFFFFB000000FFFAFF00000FFFBFBBFBBFBB
1004
B9999999BBBBBB99990FFFFBFBBBFBBFBFFFFFFFBFFFFBFFFF90FFBFBBFBBBFFBFFFFFF9BBBBBBBFFF90FFFBBBBFFBBBBFFFFFFFFFFAFFFFFF90FFFBBBBFFBBBBFFFFFFFFFFFFFFFFF90FFFBBBBFFBBBBFFFFFFFFFFAFFFFFF90FFFBBBBFFBBBBFFFFFFFFFFFFFFFFF90FFFBBBBFFBBBBFFFFFFFFFFFFFFFFF90FFFBBBBFFB
1004
BBBFFFFFFFFFFFFFFFFF90FFFBBBBFFBBBBFFFFFFFFFFFFFFFFF90FFBFBBBFFBBBBFFFFFFFFFFFFFFFFF90FFFBBBBFFBBFF0FFFFFFFFFFFFFFFF0FFFFFFBBFFBBFFF99999999999999990FFFFFFBBFFBFFFFFFFFFFFFFFFFFFFFFFFFFFFFBFFBFFFFFFFFFFFFFFFFFFFFFFFFFFFFBFFBFFFFFFFFFFFFFFFFFFFFFFFFFFFFBF
1004
FBFFFFFFFFFFFFFFFFFFFFFFFFFFFFBFFBFFFFFFFFFFFFFFFFFFFFFFFFFFFFBFFBFFFFFFFFFFFFFFFFFFFFFFAAAAFAAAFAAAFAAFAAFAAFAAFAAFAAFAFFFFFFFFFFFFFFFFFFFFFFFFFFFFFFFFFFFFFFFFFFFFFFFFFFFFFFFFFFFFFFFFFFFFFFFFFFFFFFFFFFFFFFFFFFFFFFFF
  0
BLOCK_RECORD
  5
236
100
AcDbSymbolTableRecord
100
AcDbBlockTableRecord
  2
50_SP93020DK
1001
CONTENTBLOCKICON
1071
        0
1004
2800000020000000200000000100040000000000000200000000000000000000000000000000000000000000000080000080000000808000800000008000800080800000C0C0C000808080000000FF0000FF000000FFFF00FF000000FF00FF00FFFF0000FFFFFF00FFFFFFFFFFFFFFFFFFFFFFFFFFFFFFFFFFFFFFFFFFFFFF
1004
FFFFFFFFFFFFFFFFFFFFFFFFFFFFFFFFFFFFFFFFFFFFFFFFFFFFFFFFFFFFFFFFFFFFFFFFFFFFFFFFFFFFFFFFFFFFFFFFFFFFFFFFFAFFFFFFFFFFFFFFFFFFFFFFFFFFFFFFFAFFFFFFFFFFFFFFFFFFFFFFFFFFFFFBBBBBFFFFFFFFFFFFFFFFFFFFFFFFFFFBFFBBFFFFFFFFFBFFFFFFFFFB000000FFFAFF00000FFFBFBBBBBBBB
1004
B9999999BBBBBB99990FFFFBFBBBBBBFBFFFFFFFBFFFFBFFFF90FFBFBBBBBBFFBFFFFFF9BBBBBBBFFF90FFFBBBBFFBBBBFFFFFFFFFFAFFFFFF90FFFBBBBFFBBBBFFFFFFFFFFFFFFFFF90FFFBBBBFFBBBBFFFFFFFFFFAFFFFFF90FFFBBBBFFBBBBFFFFFFFFFFFFFFFFF90FFFBBBBFFBBBBFFFFFFFFFFFFFFFFF90FFFBBBBFFB
1004
BBBFFFFFFFFFFFFFFFFF90FFFBBBBFFBBBBFFFFFFFFFFFFFFFFF90FFBFBBBFFBBBBFFFFFFFFFFFFFFFFF90FFFBBBBFFBBFF0FFFFFFFFFFFFFFFF0FFFFFFBBFFBBFFF99999999999999990FFFFFFBBFFBFFFFFFFFFFFFFFFFFFFFFFFFFFFFBFFBFFFFFFFFFFFFFFFFFFFFFFFFFFFFBFFBFFFFFFFFFFFFFFFFFFFFFFFFFFFFBF
1004
FBFFFFFFFFFFFFFFFFFFFFFFFFFFFFBFFBFFFFFFFFFFFFFFFFFFFFFFFFFFFFBFFBFFFFFFFFFFFFFFFFFFFFFFAAAAFABAFBAAFAAFAAFAAFAAFAAFAAFAFFFFFFFFFFFFFFFFFFFFFFFFFFFFFFFFFFFFFFFFFFFFFFFFFFFFFFFFFFFFFFFFFFFFFFFFFFFFFFFFFFFFFFFFFFFFFFFF
  0
BLOCK_RECORD
  5
5B9
100
AcDbSymbolTableRecord
100
AcDbBlockTableRecord
  2
GLAS11-6X5DK
  0
BLOCK_RECORD
  5
21
100
AcDbSymbolTableRecord
100
AcDbBlockTableRecord
  2
*X31
  0
BLOCK_RECORD
  5
1F
100
AcDbSymbolTableRecord
100
AcDbBlockTableRecord
  2
GLAS11-6X5
1001
CONTENTBLOCKICON
1071
        0
1004
2800000020000000200000000100040000000000000200000000000000000000000000000000000000000000000080000080000000808000800000008000800080800000C0C0C000808080000000FF0000FF000000FFFF00FF000000FF00FF00FFFF0000FFFFFF00FFFFBFBFFFFFFFFFFFFFFFFFBFFFFFFFFFFFFFFFBFFBFB
1004
FFFFFFFFBFFFFFFFFFFBFFFFBFFFFBFBFBFFBFBBFFFFFBFFFFFFFBFFFFFFFBFFFFFFFBFFBFFBFBFBFFFFFBFFFFBBBFFFFFBFFBFFFBFFFFFBFFFFFFFFFFFFFFFFFFFFFFFFFFFFFFFFFFFFFFFFBBFFBBBBBBBBBBBBBBFFFBFFFFFFBBFBBFFBFFFFFFFFFFFFFBFFBFFFFFFFBBBBBBBBFFFFFFFFFFFFFBBBBBBBFFFFBBBBBBBBFF
1004
FFFFFFFFFFFBBBBBBBFFFFBBBBBBBBFFFFFFFFFFFFFBBBBBBBFFFFFFFFFFFBFFFFFFFFFFFFFBFFFFFFFFFFBBBBBBBBFFFFFFFFFFFFFBBBBBBBFFFFBBBBBBBBFFFFFFFFFFFFFBBBBBBBFFFFBBBBBBBBFFFFFFFFFFFFFBBBBBBBFFFFBBBBBBBBFFFFFFFFFFFFFBBBBBBBFFFFFFFFFFFBFFFFFFFFFFFFFBFFFFFFFFFFBBBBBBBB
1004
FFFFFFFFFFFFFBBBBBBBFFFFBBBBBBBBFFFFFFFFFFFFFBBBBBBBFFFFBBBBBBBBFFFFFFFFFFFFFBBBBBBBFFFFFFFFFFFBFFFFFFFFFFFFFBFFFFFFFFFFBBBBBBBBFFFFFFFFFFFFFBBBBBBBFFFFFFFFBFFBFFFFFFFFFFFFFBFBBFFFFFFBFFFBFFBBFFFFFFFFFFFFFBFBFBBFFFFFBBFFFFFBFFFFFFFFFFFFFBFFFBBFFFFFFFBBFF
1004
FBFFFFFFFFFFFFFBFBBFFFFFFFFFFFBFBBFFFFFFFFFFFFFBFBFFFFFFFFFFFFFBFBFFFFFFFFFFFFFBBFFFFFFFFFFFFFFBFBFFFFFFFFFFFFFBBFFFFFFFFFFFFFFFBBFFFFFFFFFFFFFBFFFFFFFFFFFFFFFFBBFFFFFFFFFFFFFBFFFFFFFFFFFFFFFFFBFFFFFFFFFFFFFBFFFFFFFF
  0
BLOCK_RECORD
  5
5B5
100
AcDbSymbolTableRecord
100
AcDbBlockTableRecord
  2
50_SP92520-1DK
1001
CONTENTBLOCKICON
1071
        0
1004
2800000020000000200000000100040000000000000200000000000000000000000000000000000000000000000080000080000000808000800000008000800080800000C0C0C000808080000000FF0000FF000000FFFF00FF000000FF00FF00FFFF0000FFFFFF00FFFFFFFFFFFFFFFFFFFFFFFFFFFFFFFFFFFFFFFFFFFFFF
1004
FFFFFFFFFFFFFFFFFFFFFFFFFFFFFFFFFFFFFFFFFFFFFFFFFFFFFFFFFFFFFFFFFFFFFFFFFFFFFFFFFFFFFFFFFFFFFFFFFFFFFFFFFAFFFFFFFFFFFFFFFFFFFFFFFFFFFFFFFAFFFFFFFFFFFFFFFFFFFFFFFFFFFFFBBBBBFFFFFFFFFFFFFFFFFFFFFFFFFFFBFFBBFFFFFFFFFBFFFBFFFBFFFFB000FFFAFF00000FFFBFBBBFBBBF
1004
BBBB09990BBBBB09990FFFFBFBBBBFBBBBFBFFFF0FFFF0FFFF90FFBFBBBBBBBBBFFBFFF9BBBBBB0FFF90FFFBBBBFFFFFBBBBFFFFFFFAFFFFFF90FFFBBBBFFFFFBBBBFFFFFFFFFFFFFF90FFFBBBBFFFFFBBBBFFFFFFFAFFFFFF90FFFBBBBFFFFFBBBBFFFFFFFFFFFFFF90FFFBBBBFFFFFBBBBFFFFFFFFFFFFFF90FFFBBBBFFF
1004
FFBBBBFFFFFFFFFFFFFF90FFFBBBBFFFFFBBBBFFFFFFFFFFFFFF90FFBFBBBFFFFFBBBBFFFFFFFFFFFFFF90FFFBBBBFFFFFBBFF0FFFFFFFFFFFFF0FFFFFFBBFFFFFBBFFF00000000000000FFFFFFBBFFFFFBFFFFFFFFFFFFFFFFFFFFFFFFFBFFFFFBFFFFFFFFFFFFFFFFFFFFFFFFFBFFFFFBFFFFFFFFFFFFFFFFFFFFFFFFFBF
1004
FFFFBFFFFFFFFFFFFFFFFFFFFFFFFFBFFFFFBFFFFFFFFFFFFFFFFFFFFFFFFFBFFFFFBFFFFFFFFFFFFFFFFFFFAAAAFABAFAAFBAAFAAFAAFAAFAAFAAFAFFFFFFFFFFFFFFFFFFFFFFFFFFFFFFFFFFFFFFFFFFFFFFFFFFFFFFFFFFFFFFFFFFFFFFFFFFFFFFFFFFFFFFFFFFFFFFFF
  0
BLOCK_RECORD
  5
5AC
100
AcDbSymbolTableRecord
100
AcDbBlockTableRecord
  2
50_SP92520-1
1001
CONTENTBLOCKICON
1071
        0
1004
2800000020000000200000000100040000000000000200000000000000000000000000000000000000000000000080000080000000808000800000008000800080800000C0C0C000808080000000FF0000FF000000FFFF00FF000000FF00FF00FFFF0000FFFFFF00FFFFFFFFFFFFFFFFFFFFFFFFFFFFFFFFFFFFFFFFFFFFFF
1004
FFFFFFFFFFFFFFFFFFFFFFFFFFFFFFFFFFFFFFFFFFFFFFFFFFFFFFFFFFFFFFFFFFFFFFFFFFFFFFFFFFFFFFFFFFFFFFFFFFFFFFFFFAFFFFFFFFFFFFFFFFFFFFFFFFFFFFFFFAFFFFFFFFFFFFFFFFFFFFFFFFFFFFFBBBBBFFFFFFFFFFFFFFFFFFFFFFFFFFFBFFBBFFFFFFFFFBFFFFFFFFFBFFF000FFFAFF00000FFFBFBBFBBFBB
1004
BFBF09990BBBBB09990FFFFBFBBBFBBFBBBBFFFF0FFFF0FFFF90FFBFBBFBBBBBBFB0FFF9BBBBBB0FFF90FFFBBBBFFFFFBBBBFFFFFFFAFFFFFF90FFFBBBBFFFFFBBBBFFFFFFFFFFFFFF90FFFBBBBFFFFFBBBBFFFFFFFAFFFFFF90FFFBBBBFFFFFBBBBFFFFFFFFFFFFFF90FFFBBBBFFFFFBBBBFFFFFFFFFFFFFF90FFFBBBBFFF
1004
FFBBBBFFFFFFFFFFFFFF90FFFBBBBFFFFFBBBBFFFFFFFFFFFFFF90FFBFBBBFFFFFBBBBFFFFFFFFFFFFFF90FFFBBBBFFFFFBBFF0FFFFFFFFFFFFF0FFFFFFBBFFFFFBBFFF00000000000000FFFFFFBBFFFFFBFFFFFFFFFFFFFFFFFFFFFFFFFBFFFFFBFFFFFFFFFFFFFFFFFFFFFFFFFBFFFFFBFFFFFFFFFFFFFFFFFFFFFFFFFBF
1004
FFFFBFFFFFFFFFFFFFFFFFFFFFFFFFBFFFFFBFFFFFFFFFFFFFFFFFFFFFFFFFBFFFFFBFFFFFFFFFFFFFFFFFFFAAAAFABAFAAFBAAFAAFAAFAAFAAFAAFAFFFFFFFFFFFFFFFFFFFFFFFFFFFFFFFFFFFFFFFFFFFFFFFFFFFFFFFFFFFFFFFFFFFFFFFFFFFFFFFFFFFFFFFFFFFFFFFF
  0
BLOCK_RECORD
  5
3BB
100
AcDbSymbolTableRecord
100
AcDbBlockTableRecord
  2
GLAS16-6X5DK
  0
BLOCK_RECORD
  5
2CF
100
AcDbSymbolTableRecord
100
AcDbBlockTableRecord
  2
*X36
  0
BLOCK_RECORD
  5
2C1
100
AcDbSymbolTableRecord
100
AcDbBlockTableRecord
  2
GLAS16-6X5
  0
BLOCK_RECORD
  5
2BF
100
AcDbSymbolTableRecord
100
AcDbBlockTableRecord
  2
50_SP92020
1001
CONTENTBLOCKICON
1071
        0
1004
2800000020000000200000000100040000000000000200000000000000000000000000000000000000000000000080000080000000808000800000008000800080800000C0C0C000808080000000FF0000FF000000FFFF00FF000000FF00FF00FFFF0000FFFFFF00FFFFFFFFFFFFFFFFFFFFFFFFFFFFFFFFFFFFFFFFFFFFFF
1004
FFFFFFFFFFFFFFFFFFFFFFFFFFFFFFFFFFFFFFFFFFFFFFFFFFFFFFFFFFFFFFFFFFFFFFFFFFFFFFFFFFFFFFFFFFFFFFFFFFFFFFFFFFFFAFFFFFFFFFFFFFFFFFFFFFFFFFFFFFFFAFFFFFFFFFFFFFFFFFFFFFFFFFFFFFBBBBBFFFFFFFFFFFFFFFFFFFFFFFFFFFBBFFBFFFFFFBFFFFFFFFFBFFFBFF000FFFAFFF0FFFBFBBFBBFBB
1004
BFBFFBF99990BBBBB900FFFBFBBBFBBFBBBBBB9FFFF9BFFFB990FFBFBBFBBBBBBBBBBF9FFF9BBBBBBB90FFFBBBBFFFFFFFFBBB9FFFFFFFAFFF90FFFBBBBFFFFFFFFBBB9FFFFFFFFFFF90FFFBBBBFFFFFFFFBBB9FFFFFFFAFFF90FFFBBBBFFFFFFFFBBB9FFFFFFFFFFF90FFFBBBBFFFFFFFFBBB9FFFFFFFFFFF90FFFBBBBFFF
1004
FFFFFBBB9FFFFFFFFFFF90FFFBBBBFFFFFFFFBBB9FFFFFFFFFFF90FFBFBBBFFFFFFFFBBB9FFFFFFFFFFF90FFFBBBBFFFFFFFFBBFF0FFFFFFFFFF0FFFFFFBBFFFFFFFFBBFFF99999999990FFFFFFBBFFFFFFFFBFFFFFFFFFFFFFFFFFFFFFFBFFFFFFFFBFFFFFFFFFFFFFFFFFFFFFFBFFFFFFFFBFFFFFFFFFFFFFFFFFFFFFFBF
1004
FFFFFFFBFFFFFFFFFFFFFFFFFFFFFFBFFFFFFFFBFFFFFFFFFFFFFFFFFFFFFFBFFFFFFFFBFFFFFFFFFFFFFFFFAAAAFABAFAAFAAABAAFAAFAAFAAFAAFAFFFFFFFFFFFFFFFFFFFFFFFFFFFFFFFFFFFFFFFFFFFFFFFFFFFFFFFFFFFFFFFFFFFFFFFFFFFFFFFFFFFFFFFFFFFFFFFF
  0
BLOCK_RECORD
  5
3B9
100
AcDbSymbolTableRecord
100
AcDbBlockTableRecord
  2
50_SP92020DK
1001
CONTENTBLOCKICON
1071
        0
1004
2800000020000000200000000100040000000000000200000000000000000000000000000000000000000000000080000080000000808000800000008000800080800000C0C0C000808080000000FF0000FF000000FFFF00FF000000FF00FF00FFFF0000FFFFFF00FFFFFFFFFFFFFFFFFFFFFFFFFFFFFFFFFFFFFFFFFFFFFF
1004
FFFFFFFFFFFFFFFFFFFFFFFFFFFFFFFFFFFFFFFFFFFFFFFFFFFFFFFFFFFFFFFFFFFFFFFFFFFFFFFFFFFFFFFFFFFFFFFFFFFFFFFFFFFFAFFFFFFFFFFFFFFFFFFFFFFFFFFFFFFFAFFFFFFFFFFFFFFFFFFFFFFFFFFFFFBBBBBFFFFFFFFFFFFFFFFFFFFFFFFFFFBBFFBFFFFFFBFFFBFFFFFFBFFFFB000FFFAFFF0FFFBFBBBFBBBB
1004
BBFBBBB99990BBBBB900FFFBFBBFBBBBBBFBBB9FFFF9BFFFB990FFBFBBBBBBBBBBBBFF9FFF9BBBBBBB90FFFBBBBFFFFFFFFBBB9FFFFFFFAFFF90FFFBBBBFFFFFFFFBBB9FFFFFFFFFFF90FFFBBBBFFFFFFFFBBB9FFFFFFFAFFF90FFFBBBBFFFFFFFFBBB9FFFFFFFFFFF90FFFBBBBFFFFFFFFBBB9FFFFFFFFFFF90FFFBBBBFFF
1004
FFFFFBBB9FFFFFFFFFFF90FFFBBBBFFFFFFFFBBB9FFFFFFFFFFF90FFBFBBBFFFFFFFFBBB9FFFFFFFFFFF90FFFBBBBFFFFFFFFBBFF0FFFFFFFFFF0FFFFFFBBFFFFFFFFBBFFF99999999990FFFFFFBBFFFFFFFFBFFFFFFFFFFFFFFFFFFFFFFBFFFFFFFFBFFFFFFFFFFFFFFFFFFFFFFBFFFFFFFFBFFFFFFFFFFFFFFFFFFFFFFBF
1004
FFFFFFFBFFFFFFFFFFFFFFFFFFFFFFBFFFFFFFFBFFFFFFFFFFFFFFFFFFFFFFBFFFFFFFFBFFFFFFFFFFFFFFFFAAAAFABAFAAFAAABAAFAAFAAFAAFAAFAFFFFFFFFFFFFFFFFFFFFFFFFFFFFFFFFFFFFFFFFFFFFFFFFFFFFFFFFFFFFFFFFFFFFFFFFFFFFFFFFFFFFFFFFFFFFFFFF
  0
BLOCK_RECORD
  5
1E6
100
AcDbSymbolTableRecord
100
AcDbBlockTableRecord
  2
GLAS21-6X5DK
  0
BLOCK_RECORD
  5
174
100
AcDbSymbolTableRecord
100
AcDbBlockTableRecord
  2
*X41
  0
BLOCK_RECORD
  5
170
100
AcDbSymbolTableRecord
100
AcDbBlockTableRecord
  2
GLAS21-6X5
  0
BLOCK_RECORD
  5
1E4
100
AcDbSymbolTableRecord
100
AcDbBlockTableRecord
  2
50_SP91520DK
1001
CONTENTBLOCKICON
1071
        0
1004
2800000020000000200000000100040000000000000200000000000000000000000000000000000000000000000080000080000000808000800000008000800080800000C0C0C000808080000000FF0000FF000000FFFF00FF000000FF00FF00FFFF0000FFFFFF00FFFFFFFFFFFFFFFFFFFFFFFFFFFFFFFFFFFFFFFFFFFFFF
1004
FFFFFFFFFFFFFFFFFFFFFFFFFFFFFFFFFFFFFFFFFFFFFFFFFFFFFFFFFFFFFFFFFFFFFFFFFFFFFFFFFFFFFFFFFFFFFFFFFFFFFFFFFFFFAFFFFFFFFFFFFFFFFFFFFFFFFFFFFFFFAFFFFFFFFFFFFFFFFFFFFFFFFFFFFFBBBBBFFFFFFFFFFFFFFFFFFFFFFFFFFFBBFFBFFFFFFBFFFBBFFFFFFFBBFFFFB0FFAFFF0FFFBFBBBFFBBB
1004
BBBBFFBBBB000BBBB000FFFBFBBFBBBBFBBBBFBFBB00BFFFB090FFBFBBBBBBBBBBBBBBBBFB0BBBBBB090FFFBBBBFFFFFFFFFFFBBBB0FFFAFFF90FFFBBBBFFFFFFFFFFFBBBB0FFFFFFF90FFFBBBBFFFFFFFFFFFBBBB0FFFAFFF90FFFBBBBFFFFFFFFFFFBBBB0FFFFFFF90FFFBBBBFFFFFFFFFFFBBBB0FFFFFFF90FFFBBBBFFF
1004
FFFFFFFFBBBB0FFFFFFF90FFFBBBBFFFFFFFFFFFBBBB0FFFFFFF90FFBFBBBFFFFFFFFFFFBBBB0FFFFFFF90FFFBBBBFFFFFFFFFFFBBBF0FFFFFFF0FFFFFFBBFFFFFFFFFFFBBFFF00000000FFFFFFBBFFFFFFFFFFFBFFFFFFFFFFFFFFFFFFFBFFFFFFFFFFFBFFFFFFFFFFFFFFFFFFFBFFFFFFFFFFFBFFFFFFFFFFFFFFFFFFFBF
1004
FFFFFFFFFFBFFFFFFFFFFFFFFFFFFFBFFFFFFFFFFFBFFFFFFFFFFFFFFFFFFFBFFFFFFFFFFFBFFFFFFFFFFFFFAAAAFABAFAAFAAAAAABAAFAAFAAFAAFAFFFFFFFFFFFFFFFFFFFFFFFFFFFFFFFFFFFFFFFFFFFFFFFFFFFFFFFFFFFFFFFFFFFFFFFFFFFFFFFFFFFFFFFFFFFFFFFF
  0
BLOCK_RECORD
  5
16E
100
AcDbSymbolTableRecord
100
AcDbBlockTableRecord
  2
50_SP91520
1001
CONTENTBLOCKICON
1071
        0
1004
2800000020000000200000000100040000000000000200000000000000000000000000000000000000000000000080000080000000808000800000008000800080800000C0C0C000808080000000FF0000FF000000FFFF00FF000000FF00FF00FFFF0000FFFFFF00FFFFFFFFFFFFFFFFFFFFFFFFFFFFFFFFFFFFFFFFFFFFFF
1004
FFFFFFFFFFFFFFFFFFFFFFFFFFFFFFFFFFFFFFFFFFFFFFFFFFFFFFFFFFFFFFFFFFFFFFFFFFFFFFFFFFFFFFFFFFFFFFFFFFFFFFFFFFFFAFFFFFFFFFFFFFFFFFFFFFFFFFFFFFFFAFFFFFFFFFFFFFFFFFFFFFFFFFFFFFBBBBBFFFFFFFFFFFFFFFFFFFFFFFFFFFBBFFBFFFFFFBFFFFFFFFFBFFFBFFBFF0FFAFFF0FFFBFBBFBBFBB
1004
BFBFFBFFFB000BBBB000FFFBFBBBFBBFBBBBBBBFBF00BFFFB090FFBFBBFBBBBBBBBBBBBBBB0BBBBBB090FFFBBBBFFFFFFFFFFFBBBB0FFFAFFF90FFFBBBBFFFFFFFFFFFBBBB0FFFFFFF90FFFBBBBFFFFFFFFFFFBBBB0FFFAFFF90FFFBBBBFFFFFFFFFFFBBBB0FFFFFFF90FFFBBBBFFFFFFFFFFFBBBB0FFFFFFF90FFFBBBBFFF
1004
FFFFFFFFBBBB0FFFFFFF90FFFBBBBFFFFFFFFFFFBBBB0FFFFFFF90FFBFBBBFFFFFFFFFFFBBBB0FFFFFFF90FFFBBBBFFFFFFFFFFFBBBF0FFFFFFF0FFFFFFBBFFFFFFFFFFFBBFFF00000000FFFFFFBBFFFFFFFFFFFBFFFFFFFFFFFFFFFFFFFBFFFFFFFFFFFBFFFFFFFFFFFFFFFFFFFBFFFFFFFFFFFBFFFFFFFFFFFFFFFFFFFBF
1004
FFFFFFFFFFBFFFFFFFFFFFFFFFFFFFBFFFFFFFFFFFBFFFFFFFFFFFFFFFFFFFBFFFFFFFFFFFBFFFFFFFFFFFFFAAAAFABAFAAFAAAAAABAAFAAFAAFAAFAFFFFFFFFFFFFFFFFFFFFFFFFFFFFFFFFFFFFFFFFFFFFFFFFFFFFFFFFFFFFFFFFFFFFFFFFFFFFFFFFFFFFFFFFFFFFFFFF
  0
BLOCK_RECORD
  5
8E
100
AcDbSymbolTableRecord
100
AcDbBlockTableRecord
  2
SP41000
1001
CONTENTBLOCKICON
1071
        0
1004
2800000020000000200000000100040000000000000200000000000000000000000000000000000000000000000080000080000000808000800000008000800080800000C0C0C000808080000000FF0000FF000000FFFF00FF000000FF00FF00FFFF0000FFFFFF00FFFFFFFFFFFFFFFFFFFFFFFFFFFFFFFFFFFFFFFFFFFFFF
1004
FFFFFFFFFFFFFFFFFFFFFFFFFFFFFFFFFFFFFFFFFFFFFFFFFFFFFFFFFFFFFFFFFFFFFFFFFFFFFFFFFFFFFFFFFFFFFFFFFFFFFFFFFFFFFFFFFFFFFFFFFFFFFFFFFFFFFFFFFFFFFFFFFFFFFFFFFFFFFFFFFFFFFFFFFFFFFFFFFFFFFFFFFFFFAFFFFFFFFFFFFFFFFFFFFFFFFFFFFFFFAFFFFFFFFFFFFFFFFFFFFFFFFFFFFFFFAF
1004
FFFFFFFFFFFFFFFFFFFFFFFFFFFFFFAFFFFFFFFFFFFFFFFFFFFFFFFFFFFFFFFFFFFFFFFFFFFFFFFFFFFFFFFFFFFFFFAFFFFFFFFFFFFFFFFFFFFFFFFFFFFFFFFFFFFFFFFFFFFFFFFFFFFFFFFFFFFFFFFFFFFFFFFFFFFFFFFFFFFFFFFBBBBBBBBBBBBBFFFFFFFFFFFFFFFFFFBFFFFFFFAFFFFFBBFFFFFFFFFFFFFFFBFFFFFFFF
1004
AFFFFFFBFFFFFFBBBBFFFFBFFFFFFFFFFFFFFFFFBFFFBBFFFFBFFFFFFFFFFFFFFFFFFFFFBFBBFFFFFFFBFFFFFFFFFFFFFFFFFFFFFBFFFFFFFFFBFFFFFFFFFFFFFFFFFFFFFFFFFFFFFFFFBFFFFFFFFFFFFFFFFFFFFFFFFFFFFFFFBFFFFFFFFFFFFFFFFFFFFFFFFFFFFFFFFBFFFFFFFFFFFFFFFFFFFFFFFFFFFFFFFFFFFFFFFF
1004
FFFFFFFFFFFFFFFFFFFFFFFFFFFFFFFFFFFFFFFFFFFFFFFFFFFFFFFFFFFFFFFFFFFFFFFFFFFFFFFFFFFFFFFFFFFFFFFFFFFFFFFFFFFFFFFFFFFFFFFFFFFFFFFFFFFFFFFFFFFFFFFFFFFFFFFFFFFFFFFFFFFFFFFFFFFFFFFFFFFFFFFFFFFFFFFFFFFFFFFFFFFFFFFFFFFFFFFF
  0
BLOCK_RECORD
  5
581
100
AcDbSymbolTableRecord
100
AcDbBlockTableRecord
  2
GLAS26-6X5DK
1001
CONTENTBLOCKICON
1071
        0
1004
2800000020000000200000000100040000000000000200000000000000000000000000000000000000000000000080000080000000808000800000008000800080800000C0C0C000808080000000FF0000FF000000FFFF00FF000000FF00FF00FFFF0000FFFFFF00FFFFFFFFFFFFFFFFFFFFFFFFFFFFFFFFFFFFFFFFFFFFFF
1004
FFFFFFFFFFFFFFFFFFFFFFFFFFFFFFFFFFFFFFFFFFFFFFFFFFFFFFFFFFFFFFFFFFFFFFFFFFFFFFFFFFFFFFFFFFFFFFFFFFFFFFFFFFFFFFFFFFFFFFFFFFFFFFFFFFFFFFFFFFFFFFFFFFFFBBBFBBFFFFFFFFFFFFFFFFBBFFFFFBBFFBFBFFBBBBBFFFFFFBBBBBFFBBBBBFFBFFFBFFFFFFFBBBBBBFFFFFFFBFBFBFFBFFFBFFBBBB
1004
BFFFFFFBBBBBFFBFBFFFFBFBBBBBBBBBBBBBBBBBBBBBBBBFBFBFFBBBBBFFFFFFFFFFFFFFFFFFFFBBBBBFFBBBBBFFFFFFFFFFFFFFFFFFFFBBBBBFFBBBBBFFFFFFFFFFFFFFFFFFFFBBBBBFFBBBBBFFFFFFFFFFFFFFFFFFFFBBBBBFFBBBBBFFFFFFFFFFFFFFFFFFFFBBBBBFFBBBBBFFFFFFFFFFFFFFFFFFFFBBBBBFFBBBBBFFFF
1004
FFFFFFFFFFFFFFFFBBBBBFFBBBBBFFFFFFFFFFFFFFFFFFFFBBBBBFFBBBBBFFFFFFFFFFFFFFFFFFFFBBBBBFFFBBFBFFFFFFFFFFFFFFFFFFFFBBBBFFBBFFBBFFFFFFFFFFFFFFFFFFFFBFBBFFFFBBBBFFFFFFFFFFFFFFFFFFFFBBBFFFFFFFBBFFFFFFFFFFFFFFFFFFFFBBFFFFFFFFBBFFFFFFFFFFFFFFFFFFFFBFFFFFFFFFFBFF
1004
FFFFFFFFFFFFFFFFFFBFFFFFFFFFFBFFFFFFFFFFFFFFFFFFFFBFFFFFFFFFFFFFFFFFFFFFFFFFFFFFFFFFFFFFFFFFFFFFFFFFFFFFFFFFFFFFFFFFFFFFFFFFFFFFFFFFFFFFFFFFFFFFFFFFFFFFFFFFFFFFFFFFFFFFFFFFFFFFFFFFFFFFFFFFFFFFFFFFFFFFFFFFFFFFFFFFFFFF
  0
BLOCK_RECORD
  5
49E
100
AcDbSymbolTableRecord
100
AcDbBlockTableRecord
  2
*X47
  0
BLOCK_RECORD
  5
49A
100
AcDbSymbolTableRecord
100
AcDbBlockTableRecord
  2
GLAS26-6X5
1001
CONTENTBLOCKICON
1071
        0
1004
2800000020000000200000000100040000000000000200000000000000000000000000000000000000000000000080000080000000808000800000008000800080800000C0C0C000808080000000FF0000FF000000FFFF00FF000000FF00FF00FFFF0000FFFFFF00FFFFFFFFFFFFFFFFFFFFFFFFFFFFFFFFFFFFFFFFFFFFFF
1004
FFFFFFFFFFFFFFFFFFFFFFFFFFFFFFFFFFFFFFFFFFFFFFFFFFFFFFFFFFFFFFFFFFFFFFFFFFFFFFFFFFFFFFFFFFFFFFFFFFFFFFFFFFFFFFFFFFFFFFFFFFFFFFFFFFFFFFFFFFFFFFFFFFFFBBBFFFFFFFFFFBFFFFBFFFFBFFFFFBBFFBFFFBBBFBBBBFFBFFBBFFFBFBFFFFFBFFFBBFFFFFBBFFBBBBFFBFFBFBFFBFFBFFFBBFFFBF
1004
BFBFFFBBBBBBFBBBFFFFFBBBBFBBBBBBBBBBBBBBBBBBBBBBFBBFFBBBBBFFFFFFFFFFFFFFFFFFFFFBBBBBFBBBBBFFFFFFFFFFFFFFFFFFFFFBBBBBFBBBBBFFFFFFFFFFFFFFFFFFFFFBBBBBFBBBBBFFFFFFFFFFFFFFFFFFFFFBBBBBFBBBBBFFFFFFFFFFFFFFFFFFFFFBBBBBFBBBBBFFFFFFFFFFFFFFFFFFFFFBBBBBFBBBBBFFFF
1004
FFFFFFFFFFFFFFFFFBBBBBFBBBBBFFFFFFFFFFFFFFFFFFFFFBBBBBFBBBBBFFFFFFFFFFFFFFFFFFFFFBBBBBFFFBFBFFFFFFFFFFFFFFFFFFFFFBBBFFBBBFFBFFFFFFFFFFFFFFFFFFFFFBBBBFFFBBFBFFFFFFFFFFFFFFFFFFFFFBBBFFFFFFBBFFFFFFFFFFFFFFFFFFFFFBBFFFFFFFBBFFFFFFFFFFFFFFFFFFFFFBFFFFFFFFFBFF
1004
FFFFFFFFFFFFFFFFFFFBFFFFFFFFFBFFFFFFFFFFFFFFFFFFFFFBFFFFFFFFFFFFFFFFFFFFFFFFFFFFFFFFFFFFFFFFFFFFFFFFFFFFFFFFFFFFFFFFFFFFFFFFFFFFFFFFFFFFFFFFFFFFFFFFFFFFFFFFFFFFFFFFFFFFFFFFFFFFFFFFFFFFFFFFFFFFFFFFFFFFFFFFFFFFFFFFFFFF
  0
BLOCK_RECORD
  5
57D
100
AcDbSymbolTableRecord
100
AcDbBlockTableRecord
  2
50_SP91020DK
1001
CONTENTBLOCKICON
1071
        0
1004
2800000020000000200000000100040000000000000200000000000000000000000000000000000000000000000080000080000000808000800000008000800080800000C0C0C000808080000000FF0000FF000000FFFF00FF000000FF00FF00FFFF0000FFFFFF00FFFFFFFFFFFFFFFFFFFFFFFFFFFFFFFFFFFFFFFFFFFFFF
1004
FFFFFFFFFFFFFFFFFFFFFFFFFFFFFFFFFFFFFFFFFFFFFFFFFFFFFFFFFFFFFFFFFFFFFFFFFFFFFFFFFFFFFFFFFFFFFFFFFFFFFFFAFFFFFFFFFFFFFFFFFFFFFFFFFFFFFFFAFFFFFFFFFFFFFFFFFFFFFFFFFFFFFFFAFFFFFFFFFFFFFBBBFBBFFFFFFFFFBBBBBBBB00000FFFBFBFBFFBBBBBBBBBBBFABBB0BBB990FFFBFBBFFBBB
1004
BBFBBBBBFFBBBBFFFB90FFBBBBBBBBBBBBBBBBBBBBBBBFFFFF90FFFBBBBFFFFFFFFFFFFFFFBBBBFFFF90FFFBBBBFFFFFFFFFFFFFFFBBBBFFFF90FFFBBBBFFFFFFFFFFFFFFFBBBBFFFF90FFFBBBBFFFFFFFFFFFFFFFBBBBFFFF90FFFBBBBFFFFFFFFFFFFFFFBBBBFFFF90FFFBBBBFFFFFFFFFFFFFFFBBBBFFFF90FFFBBBBFFF
1004
FFFFFFFFFFFFBBBBFFFF90FFBFBBBFFFFFFFFFFFFFFFBBB0FFFF90FFFBBBBFFFFFFFFFFFFFFFBBF000000FFFFFFBBFFFFFFFFFFFFFFFBFFFFFFFFFFFFFFBBFFFFFFFFFFFFFFFBFFFFFFFFFFFFFFFBFFFFFFFFFFFFFFFBFFFFFFFFFFFFFFFBFFFFFFFFFFFFFFFBFFFFFFFFFFFFFFFBFFFFFFFFFFFFFFFBFFFFFFFFFFFFFFFBF
1004
FFFFFFFFFFFFFFBFFFFFFFFFFFFFFFBFFFFFFFFFFFFFFFBFFFFFFFFFAAAAFABAFAAFAAAAAAAAAABAFAAFAAFAFFFFFFFFFFFFFFFFFFFFFFFFFFFFFFFFFFFFFFFFFFFFFFFFFFFFFFFFFFFFFFFFFFFFFFFFFFFFFFFFFFFFFFFFFFFFFFFFFFFFFFFFFFFFFFFFFFFFFFFFFFFFFFFF
  0
BLOCK_RECORD
  5
498
100
AcDbSymbolTableRecord
100
AcDbBlockTableRecord
  2
50_SP91020
1001
CONTENTBLOCKICON
1071
        0
1004
2800000020000000200000000100040000000000000200000000000000000000000000000000000000000000000080000080000000808000800000008000800080800000C0C0C000808080000000FF0000FF000000FFFF00FF000000FF00FF00FFFF0000FFFFFF00FFFFFFFFFFFFFFFFFFFFFFFFFFFFFFFFFFFFFFFFFFFFFF
1004
FFFFFFFFFFFFFFFFFFFFFFFFFFFFFFFFFFFFFFFFFFFFFFFFFFFFFFFFFFFFFFFFFFFFFFFFFFFFFFFFFFFFFFFFFFFFFFFFFFFFFFFAFFFFFFFFFFFFFFFFFFFFFFFFFFFFFFFAFFFFFFFFFFFFFFFFFFFFFFFFFFFFFFFAFFFFFFFFFFFFFBBBFFFFFFFBFFFBBBBBBBB000000FFFBFBFFBBFBBBBBFFBFFFABFB09BB990FFFBFBBBFBBF
1004
BFBBBBBBBBBFBBBFFB90FFBBBBFBBBBBBBBBBBBBBBBBBFFFFF90FFFBBBBFFFFFFFFFFFFFFFBBB0FFFF90FFFBBBBFFFFFFFFFFFFFFFBBB0FFFF90FFFBBBBFFFFFFFFFFFFFFFBBB0FFFF90FFFBBBBFFFFFFFFFFFFFFFBBB0FFFF90FFFBBBBFFFFFFFFFFFFFFFBBB0FFFF90FFFBBBBFFFFFFFFFFFFFFFBBB0FFFF90FFFBBBBFFF
1004
FFFFFFFFFFFFBBB0FFFF90FFBFBBBFFFFFFFFFFFFFFFBBB0FFFF90FFFBBBBFFFFFFFFFFFFFFFBBF000000FFFFFFBBFFFFFFFFFFFFFFFBFFFFFFFFFFFFFFBBFFFFFFFFFFFFFFFBFFFFFFFFFFFFFFFBFFFFFFFFFFFFFFFBFFFFFFFFFFFFFFFBFFFFFFFFFFFFFFFBFFFFFFFFFFFFFFFBFFFFFFFFFFFFFFFBFFFFFFFFFFFFFFFBF
1004
FFFFFFFFFFFFFFBFFFFFFFFFFFFFFFBFFFFFFFFFFFFFFFBFFFFFFFFFAAAAFABAFAAFAAAAAAAAAABAFAAFAAFAFFFFFFFFFFFFFFFFFFFFFFFFFFFFFFFFFFFFFFFFFFFFFFFFFFFFFFFFFFFFFFFFFFFFFFFFFFFFFFFFFFFFFFFFFFFFFFFFFFFFFFFFFFFFFFFFFFFFFFFFFFFFFFFF
  0
BLOCK_RECORD
  5
CD
100
AcDbSymbolTableRecord
100
AcDbBlockTableRecord
  2
*X51
  0
BLOCK_RECORD
  5
D8
100
AcDbSymbolTableRecord
100
AcDbBlockTableRecord
  2
*X52
  0
BLOCK_RECORD
  5
A5
100
AcDbSymbolTableRecord
100
AcDbBlockTableRecord
  2
*X53
  0
BLOCK_RECORD
  5
BF
100
AcDbSymbolTableRecord
100
AcDbBlockTableRecord
  2
*X54
  0
BLOCK_RECORD
  5
266
100
AcDbSymbolTableRecord
100
AcDbBlockTableRecord
  2
50_SP90520FYLLN
1001
CONTENTBLOCKICON
1071
        0
1004
2800000020000000200000000100040000000000000200000000000000000000000000000000000000000000000080000080000000808000800000008000800080800000C0C0C000808080000000FF0000FF000000FFFF00FF000000FF00FF00FFFF0000FFFFFF00FFFFFFFFFFFFFFFFFFFFFFFFFFFFFFFFFFFFFFFFFFFFFF
1004
FFFFFFFFFFFFFFFFFFFFFFFFFFFFFFFFFFFFFFFFFFFFFFFFFFFFFFFFFFFFFFFFFFFFFFFFFFFFFFFFFFFFFFFFFFFFFFFFFFFFAFFFFFFFFFFFFFFFFFFFFFFFFFFFFFFFAFFFFFFFFFFFFFFFFFFFFFFFFFFFFFFFAFFFFFFFFFFFFFFFFBBFFFFFFFFFFBBBBBBF000000000FFFBFFBFFFFFFFFBFFFAFFB9BBB999990FFFBBFAAFAAA
1004
AFFFFFFFFBBFFFBF0B90FFBB9FAFFFFFFAAAAAAAAFFFFFF9BB90FFBB9AFFFFFFFFFFFFFFFAAAAAF90B90FFBB9AFFFFFFFFFFFFFFAAAAAFF90B90FFBB9FAAFFFFAAAAAAAAFFFFFAA90B90FFBB9FFFAAAAFFFFFFFFFFFFFFFA0B90FFBB9FFAFAAAAFFFFFFFFFFFFFA90B90FFBB9FAFFFFFFAAAAAAAAFFFFFA90B90FFFB9AFFFF
1004
FFFFFFFFFFFAAAAAF9B990FFBFBAFFFFFFFFFFFFFFAAAAAFF90990FFFB9FAAFFFFAAAAAAAAFFFFFAA9B990FFFF0FFFAAAAFFFFFFFFFFFFFFFA0FFFFFFF9FFAFAAAAFFFFFFFFFFFFFF90FFFFFFF9FAFFFFFFAAAAAAAAFFFFFA90FFFFFFF9FAFFFFFFFFFFFFFFAAAAAF90FFFFFFF9AFFFFFFFFFFFFFFAAAAAFF90FFFFFFF9FAA
1004
FFFFAAAAAAAAFFFFFAA90FFFFFFF9FFFAAAAFFFFFFFFFFFFFFF90FFFAAAF9AAAAAAFAAFAAFAAFAAFAAF9AAAAFFFFFFFFFFFFFFFFFFFFFFFFFFFFFFFFFFFFFFFFFFFFFFFFFFFFFFFFFFFFFFFFFFFFFFFFFFFFFFFFFFFFFFFFFFFFFFFFFFFFFFFFFFFFFFFFFFFFFFFFFFFFFFFF
  0
BLOCK_RECORD
  5
98
100
AcDbSymbolTableRecord
100
AcDbBlockTableRecord
  2
GLAS30-4X3DK
  0
BLOCK_RECORD
  5
34F
100
AcDbSymbolTableRecord
100
AcDbBlockTableRecord
  2
*X57
  0
BLOCK_RECORD
  5
341
100
AcDbSymbolTableRecord
100
AcDbBlockTableRecord
  2
GLAS30-4X3
  0
BLOCK_RECORD
  5
330
100
AcDbSymbolTableRecord
100
AcDbBlockTableRecord
  2
50_30SP91020DK
1001
CONTENTBLOCKICON
1071
        0
1004
2800000020000000200000000100040000000000000200000000000000000000000000000000000000000000000080000080000000808000800000008000800080800000C0C0C000808080000000FF0000FF000000FFFF00FF000000FF00FF00FFFF0000FFFFFF00FFFFFFFFFFFFFFFFFFFFFFFFFFFFFFFFFFFFFFFFFFFFFF
1004
FFFFFFFFFFFFFFFFFFFFFFFFFFFFFFFFFFFFFFFFFFFFFFFFFFFFFFFFFFFFFFFFFFFFFFFFFFFFFFFFFFFFFFFFFFFFFFFFFFFFFFFAFFFFFFFFFFFFFFFFFFFFFFFFFFFFFFFAFFFFFFFFFFFFFFFFFFFFFFFFFFFFFFFAFFFFFFFFFFFFFFFBBBFFFFFFFFFFBBBBBBB000000FFFFFBFFFBBBBBBBBBBBBFAFBB0BBB990FFBBBFFFBBBB
1004
BBBBBBBBFFFBBBFFFB90FFBBBBBBBBBBBBBBBBBBBBBBBFFFFF90FFFBBFFFFFFFFFFFFFFFFFFBB0FFFF90FFFBBFFFFFFFFFFFFFFFFFFBB0FFFF90FFFBBFFFFFFFFFFFFFFFFFFBB0FFFF90FFFBBFFFFFFFFFFFFFFFFFFBB0FFFF90FFFBBFFFFFFFFFFFFFFFFFFBB0FFFF90FFFBBFFFFFFFFFFFFFFFFFFBB0FFFF90FFFBBFFFFF
1004
FFFFFFFFFFFFFBB0FFFF90FFBFBFFFFFFFFFFFFFFFFFFBB0FFFF90FFFBBFFFFFFFFFFFFFFFFFFBF000000FFFFFBFFFFFFFFFFFFFFFFFFBFFFFFFFFFFFFBFFFFFFFFFFFFFFFFFFBFFFFFFFFFFFFBFFFFFFFFFFFFFFFFFFBFFFFFFFFFFFFBFFFFFFFFFFFFFFFFFFBFFFFFFFFFFFFBFFFFFFFFFFFFFFFFFFBFFFFFFFFFFFFBFFF
1004
FFFFFFFFFFFFFFFBFFFFFFFFFFFFBFFFFFFFFFFFFFFFFFFBFFFFFFFFAAAFBAAFAAFAAFAAFAAFAAFBAAFAAFAAFFFFFFFFFFFFFFFFFFFFFFFFFFFFFFFFFFFFFFFFFFFFFFFFFFFFFFFFFFFFFFFFFFFFFFFFFFFFFFFFFFFFFFFFFFFFFFFFFFFFFFFFFFFFFFFFFFFFFFFFFFFFFFFF
  0
BLOCK_RECORD
  5
33F
100
AcDbSymbolTableRecord
100
AcDbBlockTableRecord
  2
50_30SP91020
1001
CONTENTBLOCKICON
1071
        0
1004
2800000020000000200000000100040000000000000200000000000000000000000000000000000000000000000080000080000000808000800000008000800080800000C0C0C000808080000000FF0000FF000000FFFF00FF000000FF00FF00FFFF0000FFFFFF00FFFFFFFFFFFFFFFFFFFFFFFFFFFFFFFFFFFFFFFFFFFFFF
1004
FFFFFFFFFFFFFFFFFFFFFFFFFFFFFFFFFFFFFFFFFFFFFFFFFFFFFFFFFFFFFFFFFFFFFFFFFFFFFFFFFFFFFFFFFFFFFFFFFFFFFFFAFFFFFFFFFFFFFFFFFFFFFFFFFFFFFFFAFFFFFFFFFFFFFFFFFFFFFFFFFFFFFFFAFFFFFFFFFFFFFBBBFFFFFFFBFFFBBBBBBBB000000FFFBFBFFBBFBBBBBFFBFFFABFB0BBB990FFFBFBBBFBBF
1004
BFBBBBBBBBBFBBFFFB90FFBBBBBBBBBBBBBBBBBBBBBBBFFFFF90FFFBBFFFFFFFFFFFFFFFFFFBB0FFFF90FFFBBFFFFFFFFFFFFFFFFFFBB0FFFF90FFFBBFFFFFFFFFFFFFFFFFFBB0FFFF90FFFBBFFFFFFFFFFFFFFFFFFBB0FFFF90FFFBBFFFFFFFFFFFFFFFFFFBB0FFFF90FFFBBFFFFFFFFFFFFFFFFFFBB0FFFF90FFFBBFFFFF
1004
FFFFFFFFFFFFFBB0FFFF90FFBFBFFFFFFFFFFFFFFFFFFBB0FFFF90FFFBBFFFFFFFFFFFFFFFFFFBF000000FFFFFBFFFFFFFFFFFFFFFFFFBFFFFFFFFFFFFBFFFFFFFFFFFFFFFFFFBFFFFFFFFFFFFBFFFFFFFFFFFFFFFFFFBFFFFFFFFFFFFBFFFFFFFFFFFFFFFFFFBFFFFFFFFFFFFBFFFFFFFFFFFFFFFFFFBFFFFFFFFFFFFBFFF
1004
FFFFFFFFFFFFFFFBFFFFFFFFFFFFBFFFFFFFFFFFFFFFFFFBFFFFFFFFAAAFBAAFAAFAAFAAFAAFAAFBAAFAAFAAFFFFFFFFFFFFFFFFFFFFFFFFFFFFFFFFFFFFFFFFFFFFFFFFFFFFFFFFFFFFFFFFFFFFFFFFFFFFFFFFFFFFFFFFFFFFFFFFFFFFFFFFFFFFFFFFFFFFFFFFFFFFFFFF
  0
BLOCK_RECORD
  5
26C
100
AcDbSymbolTableRecord
100
AcDbBlockTableRecord
  2
*X61
  0
BLOCK_RECORD
  5
268
100
AcDbSymbolTableRecord
100
AcDbBlockTableRecord
  2
FYLLNV
  0
BLOCK_RECORD
  5
28A
100
AcDbSymbolTableRecord
100
AcDbBlockTableRecord
  2
FYLLNH
  0
BLOCK_RECORD
  5
54E
100
AcDbSymbolTableRecord
100
AcDbBlockTableRecord
  2
50_SP40052
1001
CONTENTBLOCKICON
1071
        0
1004
2800000020000000200000000100040000000000000200000000000000000000000000000000000000000000000080000080000000808000800000008000800080800000C0C0C000808080000000FF0000FF000000FFFF00FF000000FF00FF00FFFF0000FFFFFF00FFFFFFFFFFFFFFFF99999FFFFFFFFFFFFFFFFFF9999999
1004
99999BB99BFFFFFFFFFFFFFFFB9BB999FFFFF99999FFFFFFFFFFFFFFFF9BF9FFFFFFFF99F99FFFFFFFFFFFFFFF9FB9FFFFFFFF99FB9FFFFFFFFFFFFFFF9BB9FFFFFFFF99FFFFFFFFFFFFFFFFFF9BBBFFFFFFFF99FFFFFFFFFFFFFFFFFF9BB9FFFFFFFF999FFFFFFFFFFFFFFFFF9BBB9FFFFFFFB99FFFFFFFFFFFFFFFFF9F99
1004
BF9FFFFF9BFFFFFFFFFFFFFFFFFF99EEBBF99FF99FFFFFFFFFFFFFFFFFFF99EEF99FB999FFFFFFFFFFFFFFFFFFFF99EEFFB99BFFFFFFFFFFFFFFFFFFFFFF99EEFFFFFFFFFFFFFFFFFFFFFFFFFFFF99EEFFFFFFFFFFFFFFFFFFFFFFFFFFFF99EEFFFFFFFFFFFFFFFFFFFFFFFFFFFF99EEFFFFFFFFFFFFFFFFFFFFFFFFFFFF99
1004
EEFFFFFFFFFFFFFFFFFFFFFFFFFFFF99EEFFFFFFFFFFFFFFFFFFFFFFFFFFFF99EEFFF999FFFFFFFFFFFFFFFFFFFFFF99EEF99BB999FFFFFFFFFFFFFFFFFFFF99EE9B999FB99FFFFFFFFFFFFFFFFFFF9999B9FFFFFF9BFFFFFFFFFFFFFFFFFF9BFBFFFFFFFF999FFFFFFFFFFFFFFFFF9FB9FFFFFFFF99BFFFFFFFFFFFFFFFFF
1004
9BF9FFFFFFFF99FFFFFFFFFFFFFFFFFF9BB9FFFFFFFF99FFFFFFFFFFFFFFFFFF9BB9FFFFFFFF99F99FFFFFFFFFFFFFFF9BB9FFFFFFFF99F99FFFFFFFFFFFFFFB9BB999FFFF999999FFFFFFFFFFFFFFF9999B999999FFB999FFFFFFFFFFFFFFFFFFFFBBBBB99999FFFFFFFFFF
  0
BLOCK_RECORD
  5
513
100
AcDbSymbolTableRecord
100
AcDbBlockTableRecord
  2
*X65
  0
BLOCK_RECORD
  5
511
100
AcDbSymbolTableRecord
100
AcDbBlockTableRecord
  2
50_SP40052-INTUMEX
1001
CONTENTBLOCKICON
1071
        0
1004
2800000020000000200000000100040000000000000200000000000000000000000000000000000000000000000080000080000000808000800000008000800080800000C0C0C000808080000000FF0000FF000000FFFF00FF000000FF00FF00FFFF0000FFFFFF00FFFFFFFFFFFFFFFF99999FFFFFFFFFFFFFFFFFF9999999
1004
99999BB99BFFFFFFFFFFFFFFFB9BB999FFFFF99999FFFFFFFFFFFFFFFF9BF9FFFFFFFF99F99FFFFFFFFFFFFFFF9FB9FFFFFFFF99FB9FFFFFFFFFFFFFFF9BB9FFFFFFFF99FFFFFFFFFFFFFFFFFF9BBBFFFFFFFF99FFFFFFFFFFFFFFFFFF9BB9FFFFFFFF999FFFFFFFFFFFFFFFFF9BBB9FFFFFFFB99FFFFFFFFFFFFFFFFF9F99
1004
BF9FFFFF9BFFFFFFFFFFFFFFFFFF99EEBBF99FF99FFFFFFFFFFFFFFFFFFF99EEF99FB999FFFFFFFFFFFFFFFFFFFF99EEBBB99BFFFFFFFFFFFFFFFFFFFFFF99EEBBFFFFFFFFFFFFFFFFFFFFFFFFFF99EEBBFFFFFFFFFFFFFFFFFFFFFFFFFF99EEBBFFFFFFFFFFFFFFFFFFFFFFFFFF99EEBBFFFFFFFFFFFFFFFFFFFFFFFFFF99
1004
EEBBFFFFFFFFFFFFFFFFFFFFFFFFFF99EEBBFFFFFFFFFFFFFFFFFFFFFFFFFF99EEBBF999FFFFFFFFFFFFFFFFFFFFFF99EEF99BB999FFFFFFFFFFFFFFFFFFFF99EE9B999FB99FFFFFFFFFFFFFFFFFFF9999B9FFFFFF9BFFFFFFFFFFFFFFFFFF9BFBFFFFFFFF999FFFFFFFFFFFFFFFFF9FB9FFFFFFFF99BFFFFFFFFFFFFFFFFF
1004
9BF9FFFFFFFF99FFFFFFFFFFFFFFFFFF9BB9FFFFFFFF99FFFFFFFFFFFFFFFFFF9BB9FFFFFFFF99F99FFFFFFFFFFFFFFF9BB9FFFFFFFF99F99FFFFFFFFFFFFFFB9BB999FFFF999999FFFFFFFFFFFFFFF9999B999999FFB999FFFFFFFFFFFFFFFFFFFFBBBBB99999FFFFFFFFFF
  0
BLOCK_RECORD
  5
612
100
AcDbSymbolTableRecord
100
AcDbBlockTableRecord
  2
50_SP92520-2
1001
CONTENTBLOCKICON
1071
        0
1004
2800000020000000200000000100040000000000000200000000000000000000000000000000000000000000000080000080000000808000800000008000800080800000C0C0C000808080000000FF0000FF000000FFFF00FF000000FF00FF00FFFF0000FFFFFF00FFFFFFFFFFFFFFFFFFFFFFFFFFFFFFFFFFFFFFFFFFFFFF
1004
FFFFFFFFFFFFFFFFFFFFFFFFFFFFFFFFFFFFFFFFFFFFFFFFFFFFFFFFFFFFFFFFFFFFFFFFFFFFFFFFFFFFFFFFFFFFFFFFFFFFFFFFFFFFAFFFFFFFFFFFFFFFFFFFFFFFFFFFFFFFAFFFFFFFFFFFFFFFFFFFFFFFFFFFFFBBBBBFFFFFFFFFFFFFFFFFFFFFFFFFFFBFFBBFFFFFFBFFFFFFFFFBFFF000000FFFAFFF0FFFBFBBFBBFBB
1004
BFBF99999990BBBBB99FFFFBFBBBFBBFBBBBFFFFFFF0BFFF0F90FFBFBBFBBBBBBFB9FFFFFF9BBBBBB990FFFBBBBFFFFFBBBBFFFFFFFFFFAFFF90FFFBBBBFFFFFBBBBFFFFFFFFFFFFFF90FFFBBBBFFFFFBBBBFFFFFFFFFFAFFF90FFFBBBBFFFFFBBBBFFFFFFFFFFFFFF90FFFBBBBFFFFFBBBBFFFFFFFFFFFFFF90FFFBBBBFFF
1004
FFBBBBFFFFFFFFFFFFFF90FFFBBBBFFFFFBBBBFFFFFFFFFFFFFF90FFBFBBBFFFFFBBBBFFFFFFFFFFFFFF90FFFBBBBFFFFFBBFF0FFFFFFFFFFFFF0FFFFFFBBFFFFFBBFFF99999999999990FFFFFFBBFFFFFBFFFFFFFFFFFFFFFFFFFFFFFFFBFFFFFBFFFFFFFFFFFFFFFFFFFFFFFFFBFFFFFBFFFFFFFFFFFFFFFFFFFFFFFFFBF
1004
FFFFBFFFFFFFFFFFFFFFFFFFFFFFFFBFFFFFBFFFFFFFFFFFFFFFFFFFFFFFFFBFFFFFBFFFFFFFFFFFFFFFFFFFAAAAFABAFAAFBAAFAAFAAFAAFAAFAAFAFFFFFFFFFFFFFFFFFFFFFFFFFFFFFFFFFFFFFFFFFFFFFFFFFFFFFFFFFFFFFFFFFFFFFFFFFFFFFFFFFFFFFFFFFFFFFFFF1B013A021B013602F475CB00
  0
BLOCK_RECORD
  5
626
100
AcDbSymbolTableRecord
100
AcDbBlockTableRecord
  2
50_SP92520-2DK
1001
CONTENTBLOCKICON
1071
        0
1004
2800000020000000200000000100040000000000000200000000000000000000000000000000000000000000000080000080000000808000800000008000800080800000C0C0C000808080000000FF0000FF000000FFFF00FF000000FF00FF00FFFF0000FFFFFF00FFFFFFFFFFFFFFFFFFFFFFFFFFFFFFFFFFFFFFFFFFFFFF
1004
FFFFFFFFFFFFFFFFFFFFFFFFFFFFFFFFFFFFFFFFFFFFFFFFFFFFFFFFFFFFFFFFFFFFFFFFFFFFFFFFFFFFFFFFFFFFFFFFFFFFFFFFFFFFAFFFFFFFFFFFFFFFFFFFFFFFFFFFFFFFAFFFFFFFFFFFFFFFFFFFFFFFFFFFFFBBBBBFFFFFFFFFFFFFFFFFFFFFFFFFFFBFFBBFFFFFFBFFFBFFFBFFFFB000000FFFAFFF0FFFBFBBBFBBBF
1004
BBBB99999990BBBBB99FFFFBFBBBBFBBBBFBFFFFFFF0BFFF0F90FFBFBBBBBBBBBFFBFFFFFF9BBBBBB990FFFBBBBFFFFFBBBBFFFFFFFFFFAFFF90FFFBBBBFFFFFBBBBFFFFFFFFFFFFFF90FFFBBBBFFFFFBBBBFFFFFFFFFFAFFF90FFFBBBBFFFFFBBBBFFFFFFFFFFFFFF90FFFBBBBFFFFFBBBBFFFFFFFFFFFFFF90FFFBBBBFFF
1004
FFBBBBFFFFFFFFFFFFFF90FFFBBBBFFFFFBBBBFFFFFFFFFFFFFF90FFBFBBBFFFFFBBBBFFFFFFFFFFFFFF90FFFBBBBFFFFFBBFF0FFFFFFFFFFFFF0FFFFFFBBFFFFFBBFFF99999999999990FFFFFFBBFFFFFBFFFFFFFFFFFFFFFFFFFFFFFFFBFFFFFBFFFFFFFFFFFFFFFFFFFFFFFFFBFFFFFBFFFFFFFFFFFFFFFFFFFFFFFFFBF
1004
FFFFBFFFFFFFFFFFFFFFFFFFFFFFFFBFFFFFBFFFFFFFFFFFFFFFFFFFFFFFFFBFFFFFBFFFFFFFFFFFFFFFFFFFAAAAFABAFAAFBAAFAAFAAFAAFAAFAAFAFFFFFFFFFFFFFFFFFFFFFFFFFFFFFFFFFFFFFFFFFFFFFFFFFFFFFFFFFFFFFFFFFFFFFFFFFFFFFFFFFFFFFFFFFFFFFFFF1B013A021B013602F475CB00
  0
ENDTAB
  0
ENDSEC
  0
SECTION
  2
BLOCKS
  0
BLOCK
  5
3
100
AcDbEntity
  8
0
100
AcDbBlockBegin
  2
*MODEL_SPACE
 70
     0
 10
0.0
 20
0.0
 30
0.0
  3
*MODEL_SPACE
  1

  0
ENDBLK
  5
6
100
AcDbEntity
  8
0
100
AcDbBlockEnd
  0
BLOCK
  5
8
100
AcDbEntity
 67
     1
  8
0
100
AcDbBlockBegin
  2
*PAPER_SPACE
 70
     0
 10
0.0
 20
0.0
 30
0.0
  3
*PAPER_SPACE
  1

  0
ENDBLK
  5
9
100
AcDbEntity
 67
     1
  8
0
100
AcDbBlockEnd
  0
BLOCK
  5
F4
100
AcDbEntity
  8
0
100
AcDbBlockBegin
  2
SP40020
 70
     0
 10
0.0
 20
0.0
 30
0.0
  3
SP40020
  1

  0
LINE
  5
E4
100
AcDbEntity
  8
CENTRUM
100
AcDbLine
 10
-13.0
 20
34.06657
 30
0.0
 11
-13.0
 21
18.0
 31
0.0
  0
LINE
  5
E5
100
AcDbEntity
  8
GLAS_MED_FOGNING
100
AcDbLine
 10
-16.0
 20
23.5
 30
0.0
 11
-16.0
 21
22.0
 31
0.0
  0
LINE
  5
E6
100
AcDbEntity
  8
GLAS_MED_FOGNING
100
AcDbLine
 10
-15.5
 20
23.5
 30
0.0
 11
-15.5
 21
21.0
 31
0.0
  0
LINE
  5
E7
100
AcDbEntity
  8
GLAS_MED_FOGNING
100
AcDbLine
 10
-10.5
 20
23.5
 30
0.0
 11
-10.5
 21
21.0
 31
0.0
  0
LINE
  5
E8
100
AcDbEntity
  8
GLAS_MED_FOGNING
100
AcDbLine
 10
-10.0
 20
23.5
 30
0.0
 11
-10.0
 21
22.0
 31
0.0
  0
LINE
  5
E9
100
AcDbEntity
  8
GLAS_MED_FOGNING
100
AcDbLine
 10
-10.5
 20
21.0
 30
0.0
 11
-15.5
 21
21.0
 31
0.0
  0
LINE
  5
EA
100
AcDbEntity
  8
GLAS_MED_FOGNING
100
AcDbLine
 10
-10.0
 20
22.0
 30
0.0
 11
-16.0
 21
22.0
 31
0.0
  0
LINE
  5
EB
100
AcDbEntity
  8
GLAS_MED_FOGNING
100
AcDbLine
 10
-16.0
 20
22.0
 30
0.0
 11
-15.5
 21
21.0
 31
0.0
  0
LINE
  5
EC
100
AcDbEntity
  8
GLAS_MED_FOGNING
100
AcDbLine
 10
-10.0
 20
22.0
 30
0.0
 11
-10.5
 21
21.0
 31
0.0
  0
LINE
  5
ED
100
AcDbEntity
  8
GLAS_MED_FOGNING
100
AcDbLine
 10
-9.267949
 20
26.0
 30
0.0
 11
-16.73205
 21
26.0
 31
0.0
  0
LINE
  5
EE
100
AcDbEntity
  8
GLAS_MED_FOGNING
100
AcDbLine
 10
-8.196152
 20
30.0
 30
0.0
 11
-17.803848
 21
30.0
 31
0.0
  0
ARC
  5
EF
100
AcDbEntity
  8
GLAS_MED_FOGNING
100
AcDbCircle
 10
-13.0
 20
18.928391
 30
0.0
 40
12.068864
100
AcDbArc
 50
66.544514
 51
113.455486
  0
LINE
  5
F0
100
AcDbEntity
  8
GLAS_MED_FOGNING
100
AcDbLine
 10
-17.803848
 20
30.0
 30
0.0
 11
-16.73205
 21
26.0
 31
0.0
  0
LINE
  5
F1
100
AcDbEntity
  8
GLAS_MED_FOGNING
100
AcDbLine
 10
-16.73205
 20
26.0
 30
0.0
 11
-16.73205
 21
25.0
 31
0.0
  0
LINE
  5
F2
100
AcDbEntity
  8
GLAS_MED_FOGNING
100
AcDbLine
 10
-8.196152
 20
30.0
 30
0.0
 11
-9.267949
 21
26.0
 31
0.0
  0
LINE
  5
F3
100
AcDbEntity
  8
GLAS_MED_FOGNING
100
AcDbLine
 10
-9.267949
 20
26.0
 30
0.0
 11
-9.267949
 21
25.0
 31
0.0
  0
ENDBLK
  5
F5
100
AcDbEntity
  8
0
100
AcDbBlockEnd
  0
BLOCK
  5
43D
100
AcDbEntity
  8
0
100
AcDbBlockBegin
  2
SP93520
 70
     0
 10
0.0
 20
0.0
 30
0.0
  3
SP93520
  1

  0
LWPOLYLINE
  5
43A
100
AcDbEntity
  8
SPKONTUR
100
AcDbPolyline
 90
       14
 70
     0
 43
0.0
 10
-8.196152
 20
30.0
 10
-9.0
 20
27.0
 42
0.414214
 10
-7.0
 20
25.0
 10
-2.0
 20
25.0
 42
0.414214
 10
0.0
 20
27.0
 10
0.0
 20
43.0
 42
0.414214
 10
-2.0
 20
45.0
 10
-33.0
 20
45.0
 42
0.414214
 10
-35.0
 20
43.0
 10
-35.0
 20
27.0
 42
0.414214
 10
-33.0
 20
25.0
 10
-19.0
 20
25.0
 42
0.414214
 10
-17.0
 20
27.0
 10
-17.803848
 20
30.0
  0
LWPOLYLINE
  5
43B
100
AcDbEntity
  8
STALPROFIL
100
AcDbPolyline
 90
       14
 70
     0
 43
1.25
 10
-7.592449
 20
29.838238
 10
-8.372969
 20
26.925296
 42
0.398381
 10
-7.0
 20
25.625
 10
-2.0
 20
25.625
 42
0.414214
 10
-0.625
 20
27.0
 10
-0.625
 20
43.0
 42
0.414214
 10
-2.0
 20
44.375
 10
-33.0
 20
44.375
 42
0.414214
 10
-34.375
 20
43.0
 10
-34.375
 20
27.0
 42
0.414214
 10
-33.0
 20
25.625
 10
-19.0
 20
25.625
 42
0.398381
 10
-17.627031
 20
26.925296
 10
-18.407551
 20
29.838238
  0
INSERT
  5
43C
100
AcDbEntity
  8
GLAS_MED_FOGNING
100
AcDbBlockReference
  2
SP40020
 10
0.0
 20
0.0
 30
0.0
  0
ENDBLK
  5
43E
100
AcDbEntity
  8
0
100
AcDbBlockEnd
  0
BLOCK
  5
431
100
AcDbEntity
  8
0
100
AcDbBlockBegin
  2
*X2
 70
     1
 10
0.0
 20
0.0
 30
0.0
  3
*X2
  1

  0
LINE
  5
42E
100
AcDbEntity
  8
0
 62
     0
100
AcDbLine
 10
-43.410115
 20
41.746337
 30
0.0
 11
-43.410115
 21
41.746337
 31
0.0
  0
LINE
  5
42F
100
AcDbEntity
  8
0
 62
     0
100
AcDbLine
 10
-44.259128
 20
42.545671
 30
0.0
 11
-44.259128
 21
42.545671
 31
0.0
  0
LINE
  5
430
100
AcDbEntity
  8
0
 62
     0
100
AcDbLine
 10
-43.530278
 20
44.898542
 30
0.0
 11
-43.530278
 21
44.898542
 31
0.0
  0
ENDBLK
  5
432
100
AcDbEntity
  8
0
100
AcDbBlockEnd
  0
BLOCK
  5
42A
100
AcDbEntity
  8
0
100
AcDbBlockBegin
  2
*X3
 70
     1
 10
0.0
 20
0.0
 30
0.0
  3
*X3
  1

  0
LINE
  5
429
100
AcDbEntity
  8
0
 62
     0
100
AcDbLine
 10
-36.504142
 20
41.798848
 30
0.0
 11
-36.504142
 21
41.798848
 31
0.0
  0
ENDBLK
  5
42B
100
AcDbEntity
  8
0
100
AcDbBlockEnd
  0
BLOCK
  5
415
100
AcDbEntity
  8
0
100
AcDbBlockBegin
  2
*X4
 70
     1
 10
0.0
 20
0.0
 30
0.0
  3
*X4
  1

  0
LINE
  5
3F9
100
AcDbEntity
  8
0
 62
     0
100
AcDbLine
 10
-37.789989
 20
26.307209
 30
0.0
 11
-37.789989
 21
26.307209
 31
0.0
  0
LINE
  5
3FA
100
AcDbEntity
  8
0
 62
     0
100
AcDbLine
 10
-35.092588
 20
28.376998
 30
0.0
 11
-35.092588
 21
28.376998
 31
0.0
  0
LINE
  5
3FB
100
AcDbEntity
  8
0
 62
     0
100
AcDbLine
 10
-42.906168
 20
26.331747
 30
0.0
 11
-42.906168
 21
26.331747
 31
0.0
  0
LINE
  5
3FC
100
AcDbEntity
  8
0
 62
     0
100
AcDbLine
 10
-40.32777
 20
28.310222
 30
0.0
 11
-40.32777
 21
28.310222
 31
0.0
  0
LINE
  5
3FD
100
AcDbEntity
  8
0
 62
     0
100
AcDbLine
 10
-37.915976
 20
30.160857
 30
0.0
 11
-37.915976
 21
30.160857
 31
0.0
  0
LINE
  5
3FE
100
AcDbEntity
  8
0
 62
     0
100
AcDbLine
 10
-45.729557
 20
28.115606
 30
0.0
 11
-45.729557
 21
28.115606
 31
0.0
  0
LINE
  5
3FF
100
AcDbEntity
  8
0
 62
     0
100
AcDbLine
 10
-43.032155
 20
30.185395
 30
0.0
 11
-43.032155
 21
30.185395
 31
0.0
  0
LINE
  5
400
100
AcDbEntity
  8
0
 62
     0
100
AcDbLine
 10
-44.406244
 20
25.223614
 30
0.0
 11
-44.406244
 21
25.223614
 31
0.0
  0
LINE
  5
401
100
AcDbEntity
  8
0
 62
     0
100
AcDbLine
 10
-43.365227
 20
25.360666
 30
0.0
 11
-43.365227
 21
25.360666
 31
0.0
  0
LINE
  5
402
100
AcDbEntity
  8
0
 62
     0
100
AcDbLine
 10
-41.739257
 20
25.574729
 30
0.0
 11
-41.739257
 21
25.574729
 31
0.0
  0
LINE
  5
403
100
AcDbEntity
  8
0
 62
     0
100
AcDbLine
 10
-39.022698
 20
25.932371
 30
0.0
 11
-39.022698
 21
25.932371
 31
0.0
  0
LINE
  5
404
100
AcDbEntity
  8
0
 62
     0
100
AcDbLine
 10
-37.981681
 20
26.069423
 30
0.0
 11
-37.981681
 21
26.069423
 31
0.0
  0
LINE
  5
405
100
AcDbEntity
  8
0
 62
     0
100
AcDbLine
 10
-36.355712
 20
26.283486
 30
0.0
 11
-36.355712
 21
26.283486
 31
0.0
  0
LINE
  5
406
100
AcDbEntity
  8
0
 62
     0
100
AcDbLine
 10
-46.250236
 20
30.159149
 30
0.0
 11
-46.250236
 21
30.159149
 31
0.0
  0
LINE
  5
407
100
AcDbEntity
  8
0
 62
     0
100
AcDbLine
 10
-45.209219
 20
30.296201
 30
0.0
 11
-45.209219
 21
30.296201
 31
0.0
  0
LINE
  5
408
100
AcDbEntity
  8
0
 62
     0
100
AcDbLine
 10
-43.583249
 20
30.510264
 30
0.0
 11
-43.583249
 21
30.510264
 31
0.0
  0
LINE
  5
409
100
AcDbEntity
  8
0
 62
     0
100
AcDbLine
 10
-43.292959
 20
29.992636
 30
0.0
 11
-43.292959
 21
29.992636
 31
0.0
  0
LINE
  5
40A
100
AcDbEntity
  8
0
 62
     0
100
AcDbLine
 10
-42.449568
 20
29.455337
 30
0.0
 11
-42.449568
 21
29.455337
 31
0.0
  0
LINE
  5
40B
100
AcDbEntity
  8
0
 62
     0
100
AcDbLine
 10
-39.413358
 20
27.521058
 30
0.0
 11
-39.413358
 21
27.521058
 31
0.0
  0
LINE
  5
40C
100
AcDbEntity
  8
0
 62
     0
100
AcDbLine
 10
-37.064675
 20
30.003954
 30
0.0
 11
-37.064675
 21
30.003954
 31
0.0
  0
LINE
  5
40D
100
AcDbEntity
  8
0
 62
     0
100
AcDbLine
 10
-36.221284
 20
29.466655
 30
0.0
 11
-36.221284
 21
29.466655
 31
0.0
  0
LINE
  5
40E
100
AcDbEntity
  8
0
 62
     0
100
AcDbLine
 10
-45.641642
 20
27.50974
 30
0.0
 11
-45.641642
 21
27.50974
 31
0.0
  0
LINE
  5
40F
100
AcDbEntity
  8
0
 62
     0
100
AcDbLine
 10
-35.254096
 20
30.050252
 30
0.0
 11
-35.254096
 21
30.050252
 31
0.0
  0
LINE
  5
410
100
AcDbEntity
  8
0
 62
     0
100
AcDbLine
 10
-43.256998
 20
30.118995
 30
0.0
 11
-43.256998
 21
30.118995
 31
0.0
  0
LINE
  5
411
100
AcDbEntity
  8
0
 62
     0
100
AcDbLine
 10
-41.266349
 20
28.294901
 30
0.0
 11
-41.266349
 21
28.294901
 31
0.0
  0
LINE
  5
412
100
AcDbEntity
  8
0
 62
     0
100
AcDbLine
 10
-40.89771
 20
27.957106
 30
0.0
 11
-40.89771
 21
27.957106
 31
0.0
  0
LINE
  5
413
100
AcDbEntity
  8
0
 62
     0
100
AcDbLine
 10
-39.157736
 20
26.362713
 30
0.0
 11
-39.157736
 21
26.362713
 31
0.0
  0
LINE
  5
414
100
AcDbEntity
  8
0
 62
     0
100
AcDbLine
 10
-46.909964
 20
26.201755
 30
0.0
 11
-46.909964
 21
26.201755
 31
0.0
  0
ENDBLK
  5
416
100
AcDbEntity
  8
0
100
AcDbBlockEnd
  0
BLOCK
  5
433
100
AcDbEntity
  8
0
100
AcDbBlockBegin
  2
GLAS5-4X3
 70
     0
 10
0.0
 20
0.0
 30
0.0
  3
GLAS5-4X3
  1

  0
LINE
  5
3EC
100
AcDbEntity
  8
GLAS_MED_FOGNING
100
AcDbLine
 10
7.0
 20
35.0
 30
0.0
 11
3.0
 21
35.0
 31
0.0
  0
LINE
  5
3ED
100
AcDbEntity
  8
GLAS_MED_FOGNING
100
AcDbLine
 10
7.0
 20
32.0
 30
0.0
 11
3.0
 21
32.0
 31
0.0
  0
LINE
  5
3EE
100
AcDbEntity
  8
GLAS_MED_FOGNING
100
AcDbLine
 10
7.0
 20
34.0
 30
0.0
 11
3.0
 21
34.0
 31
0.0
  0
LINE
  5
3EF
100
AcDbEntity
  8
GLAS_MED_FOGNING
100
AcDbLine
 10
7.0
 20
33.0
 30
0.0
 11
3.0
 21
33.0
 31
0.0
  0
LINE
  5
3F0
100
AcDbEntity
  8
GLAS_MED_FOGNING
100
AcDbLine
 10
7.0
 20
36.0
 30
0.0
 11
3.0
 21
36.0
 31
0.0
  0
LINE
  5
3F1
100
AcDbEntity
  8
GLAS_MED_FOGNING
100
AcDbLine
 10
7.0
 20
38.0
 30
0.0
 11
3.0
 21
38.0
 31
0.0
  0
LINE
  5
3F2
100
AcDbEntity
  8
GLAS_MED_FOGNING
100
AcDbLine
 10
7.0
 20
37.0
 30
0.0
 11
3.0
 21
37.0
 31
0.0
  0
LINE
  5
3F3
100
AcDbEntity
  8
GLAS_MED_FOGNING
100
AcDbLine
 10
7.0
 20
40.0
 30
0.0
 11
3.0
 21
40.0
 31
0.0
  0
LINE
  5
3F4
100
AcDbEntity
  8
GLAS_MED_FOGNING
100
AcDbLine
 10
7.0
 20
39.0
 30
0.0
 11
3.0
 21
39.0
 31
0.0
  0
LINE
  5
3F5
100
AcDbEntity
  8
GLAS_MED_FOGNING
100
AcDbLine
 10
7.0
 20
41.0
 30
0.0
 11
3.0
 21
41.0
 31
0.0
  0
LINE
  5
3F6
100
AcDbEntity
  8
GLAS_MED_FOGNING
100
AcDbLine
 10
7.0
 20
31.0
 30
0.0
 11
3.0
 21
31.0
 31
0.0
  0
INSERT
  5
3F7
100
AcDbEntity
  8
GLAS_MED_FOGNING
100
AcDbBlockReference
  2
*X4
 10
50.0
 20
0.0
 30
0.0
1001
ACAD
1000
HATCH
1002
{
1070
    16
1000
AR-SAND
1040
2.0
1040
0.0
1002
}
  0
ARC
  5
417
100
AcDbEntity
  8
GLAS_MED_FOGNING
100
AcDbCircle
 10
3.0
 20
47.0
 30
0.0
 40
4.0
100
AcDbArc
 50
270.0
 51
0.0
  0
LINE
  5
418
100
AcDbEntity
  8
GLAS_MED_FOGNING
100
AcDbLine
 10
7.0
 20
47.0
 30
0.0
 11
7.0
 21
30.0
 31
0.0
  0
LINE
  5
419
100
AcDbEntity
  8
GLAS_MED_FOGNING
100
AcDbLine
 10
12.0
 20
47.0
 30
0.0
 11
12.0
 21
30.0
 31
0.0
  0
LINE
  5
41A
100
AcDbEntity
  8
GLAS_MED_FOGNING
100
AcDbLine
 10
15.0
 20
37.0
 30
0.0
 11
12.0
 21
37.0
 31
0.0
  0
LINE
  5
41B
100
AcDbEntity
  8
GLAS_MED_FOGNING
100
AcDbLine
 10
15.0
 20
36.0
 30
0.0
 11
12.0
 21
36.0
 31
0.0
  0
LINE
  5
41C
100
AcDbEntity
  8
GLAS_MED_FOGNING
100
AcDbLine
 10
15.0
 20
35.0
 30
0.0
 11
12.0
 21
35.0
 31
0.0
  0
LINE
  5
41D
100
AcDbEntity
  8
GLAS_MED_FOGNING
100
AcDbLine
 10
15.0
 20
34.0
 30
0.0
 11
12.0
 21
34.0
 31
0.0
  0
LINE
  5
41E
100
AcDbEntity
  8
GLAS_MED_FOGNING
100
AcDbLine
 10
15.0
 20
33.0
 30
0.0
 11
12.0
 21
33.0
 31
0.0
  0
LINE
  5
41F
100
AcDbEntity
  8
GLAS_MED_FOGNING
100
AcDbLine
 10
15.0
 20
32.0
 30
0.0
 11
12.0
 21
32.0
 31
0.0
  0
LINE
  5
420
100
AcDbEntity
  8
GLAS_MED_FOGNING
100
AcDbLine
 10
15.0
 20
31.0
 30
0.0
 11
12.0
 21
31.0
 31
0.0
  0
LINE
  5
421
100
AcDbEntity
  8
GLAS_MED_FOGNING
100
AcDbLine
 10
12.0
 20
30.0
 30
0.0
 11
7.0
 21
30.0
 31
0.0
  0
ARC
  5
422
100
AcDbEntity
  8
GLAS_MED_FOGNING
100
AcDbCircle
 10
15.0
 20
46.0
 30
0.0
 40
3.0
100
AcDbArc
 50
180.0
 51
270.0
  0
LINE
  5
423
100
AcDbEntity
  8
GLAS_MED_FOGNING
100
AcDbLine
 10
15.0
 20
40.0
 30
0.0
 11
12.0
 21
40.0
 31
0.0
  0
LINE
  5
424
100
AcDbEntity
  8
GLAS_MED_FOGNING
100
AcDbLine
 10
15.0
 20
39.0
 30
0.0
 11
12.0
 21
39.0
 31
0.0
  0
LINE
  5
425
100
AcDbEntity
  8
GLAS_MED_FOGNING
100
AcDbLine
 10
15.0
 20
38.0
 30
0.0
 11
12.0
 21
38.0
 31
0.0
  0
LINE
  5
426
100
AcDbEntity
  8
GLAS_MED_FOGNING
100
AcDbLine
 10
15.0
 20
41.0
 30
0.0
 11
12.0
 21
41.0
 31
0.0
  0
INSERT
  5
427
100
AcDbEntity
  8
GLAS_MED_FOGNING
100
AcDbBlockReference
  2
*X3
 10
50.0
 20
0.0
 30
0.0
1001
ACAD
1000
HATCH
1002
{
1070
    16
1000
AR-SAND
1040
2.0
1040
0.0
1002
}
  0
INSERT
  5
42C
100
AcDbEntity
  8
GLAS_MED_FOGNING
100
AcDbBlockReference
  2
*X2
 10
50.0
 20
0.0
 30
0.0
1001
ACAD
1000
HATCH
1002
{
1070
    16
1000
AR-SAND
1040
2.0
1040
0.0
1002
}
  0
ENDBLK
  5
434
100
AcDbEntity
  8
0
100
AcDbBlockEnd
  0
BLOCK
  5
10A
100
AcDbEntity
  8
0
100
AcDbBlockBegin
  2
SIDA
 70
     0
 10
0.0
 20
0.0
 30
0.0
  3
SIDA
  1

  0
LWPOLYLINE
  5
FC
100
AcDbEntity
  8
RAM
 62
     5
100
AcDbPolyline
 90
        4
 70
     1
 43
0.0
 10
-20.0
 20
35.0
 10
-20.0
 20
560.0
 10
-380.0
 20
560.0
 10
-380.0
 20
35.0
  0
LINE
  5
FE
100
AcDbEntity
  8
RAM
  6
DASHDOT
 62
     6
100
AcDbLine
 10
-260.0
 20
307.5
 30
0.0
 11
-260.0
 21
287.5
 31
0.0
  0
LINE
  5
FF
100
AcDbEntity
  8
RAM
  6
DASHDOT
 62
     6
100
AcDbLine
 10
-270.0
 20
167.5
 30
0.0
 11
-250.0
 21
167.5
 31
0.0
  0
LINE
  5
100
100
AcDbEntity
  8
RAM
  6
DASHDOT
 62
     6
100
AcDbLine
 10
-260.0
 20
177.5
 30
0.0
 11
-260.0
 21
157.5
 31
0.0
  0
LINE
  5
101
100
AcDbEntity
  8
RAM
  6
DASHDOT
 62
     6
100
AcDbLine
 10
-270.0
 20
297.5
 30
0.0
 11
-250.0
 21
297.5
 31
0.0
  0
LINE
  5
102
100
AcDbEntity
  8
RAM
  6
DASHDOT
 62
     6
100
AcDbLine
 10
-270.0
 20
427.5
 30
0.0
 11
-250.0
 21
427.5
 31
0.0
  0
LINE
  5
103
100
AcDbEntity
  8
RAM
  6
DASHDOT
 62
     6
100
AcDbLine
 10
-260.0
 20
437.5
 30
0.0
 11
-260.0
 21
417.5
 31
0.0
  0
LINE
  5
104
100
AcDbEntity
  8
RAM
  6
DASHDOT
 62
     6
100
AcDbLine
 10
-140.0
 20
307.5
 30
0.0
 11
-140.0
 21
287.5
 31
0.0
  0
LINE
  5
105
100
AcDbEntity
  8
RAM
  6
DASHDOT
 62
     6
100
AcDbLine
 10
-140.0
 20
177.5
 30
0.0
 11
-140.0
 21
157.5
 31
0.0
  0
LINE
  5
106
100
AcDbEntity
  8
RAM
  6
DASHDOT
 62
     6
100
AcDbLine
 10
-150.0
 20
167.5
 30
0.0
 11
-130.0
 21
167.5
 31
0.0
  0
LINE
  5
107
100
AcDbEntity
  8
RAM
  6
DASHDOT
 62
     6
100
AcDbLine
 10
-150.0
 20
297.5
 30
0.0
 11
-130.0
 21
297.5
 31
0.0
  0
LINE
  5
108
100
AcDbEntity
  8
RAM
  6
DASHDOT
 62
     6
100
AcDbLine
 10
-150.0
 20
427.5
 30
0.0
 11
-130.0
 21
427.5
 31
0.0
  0
LINE
  5
109
100
AcDbEntity
  8
RAM
  6
DASHDOT
 62
     6
100
AcDbLine
 10
-140.0
 20
437.5
 30
0.0
 11
-140.0
 21
417.5
 31
0.0
  0
ENDBLK
  5
10B
100
AcDbEntity
  8
0
100
AcDbBlockEnd
  0
BLOCK
  5
2AE
100
AcDbEntity
  8
0
100
AcDbBlockBegin
  2
SP90520
 70
     0
 10
0.0
 20
0.0
 30
0.0
  3
SP90520
  1

  0
LWPOLYLINE
  5
2AA
100
AcDbEntity
  8
SPKONTUR
100
AcDbPolyline
 90
       10
 70
     0
 43
0.0
 10
-15.0
 20
27.5
 10
-15.0
 20
26.75
 42
0.414214
 10
-13.25
 20
25.0
 10
-1.75
 20
25.0
 42
0.414214
 10
0.0
 20
26.75
 10
0.0
 20
43.75
 42
0.414214
 10
-1.25
 20
45.0
 10
-1.2501
 20
45.0
 42
0.414214
 10
-2.5
 20
43.7501
 10
-2.5
 20
39.0
  0
LWPOLYLINE
  5
2AB
100
AcDbEntity
  8
STALPROFIL
100
AcDbPolyline
 90
        9
 70
     0
 43
1.25
 10
-14.375
 20
27.5
 10
-14.375
 20
26.75
 42
0.414214
 10
-13.25
 20
25.625
 10
-1.75
 20
25.625
 42
0.414214
 10
-0.625
 20
26.75
 10
-0.625
 20
43.75
 42
0.414214
 10
-1.2501
 20
44.375
 42
0.414214
 10
-1.875
 20
43.7501
 10
-1.875
 20
39.0
  0
LWPOLYLINE
  5
2AC
100
AcDbEntity
  8
GLAS_MED_FOGNING
100
AcDbPolyline
 90
        9
 70
     0
 43
0.0
 10
-26.895347
 20
26.821776
 10
-25.0
 20
25.1
 10
-17.5
 20
25.099814
 42
0.315299
 10
-16.278378
 20
25.955158
 10
-15.496797
 20
28.102371
 42
-0.419684
 10
-15.107042
 20
28.279701
 10
-11.40871
 20
26.461158
 42
0.414233
 10
-9.670299
 20
27.059616
 10
-7.916703
 20
30.654738
  0
LINE
  5
2AD
100
AcDbEntity
  8
CENTRUM
100
AcDbLine
 10
-20.999975
 20
26.099901
 30
0.0
 11
-21.000124
 21
20.099901
 31
0.0
  0
ENDBLK
  5
2AF
100
AcDbEntity
  8
0
100
AcDbBlockEnd
  0
BLOCK
  5
1DC
100
AcDbEntity
  8
0
100
AcDbBlockBegin
  2
SP91520
 70
     0
 10
0.0
 20
0.0
 30
0.0
  3
SP91520
  1

  0
INSERT
  5
1D9
100
AcDbEntity
  8
GLAS_MED_FOGNING
100
AcDbBlockReference
  2
SP40020
 10
5.5
 20
0.0
 30
0.0
  0
LWPOLYLINE
  5
1DA
100
AcDbEntity
  8
STALPROFIL
100
AcDbPolyline
 90
       12
 70
     0
 43
1.25
 10
-2.02546
 20
29.838243
 10
-2.872606
 20
26.676553
 42
0.395246
 10
-1.75
 20
25.625
 42
0.414213
 10
-0.625
 20
26.749998
 10
-0.625
 20
43.0
 42
0.414214
 10
-2.0
 20
44.375
 10
-13.0
 20
44.375
 42
0.414214
 10
-14.375
 20
43.0
 10
-14.375
 20
26.749999
 42
0.414213
 10
-13.249964
 20
25.625
 42
0.395246
 10
-12.127394
 20
26.676553
 10
-12.97454
 20
29.838243
  0
LWPOLYLINE
  5
1DB
100
AcDbEntity
  8
SPKONTUR
100
AcDbPolyline
 90
       13
 70
     0
 43
0.0
 10
-2.629165
 20
30.0
 10
-3.5
 20
26.7499
 42
0.41423
 10
-1.75
 20
25.0
 42
0.414213
 10
0.0
 20
26.749998
 10
0.0
 20
43.0
 42
0.414214
 10
-2.0
 20
45.0
 10
-7.5
 20
45.0
 10
-13.0
 20
45.0
 42
0.414214
 10
-15.0
 20
43.0
 10
-15.0
 20
26.749998
 42
0.414213
 10
-13.25
 20
25.0
 42
0.41423
 10
-11.5
 20
26.7499
 10
-12.370835
 20
30.0
  0
ENDBLK
  5
1DD
100
AcDbEntity
  8
0
100
AcDbBlockEnd
  0
BLOCK
  5
F8
100
AcDbEntity
  8
0
100
AcDbBlockBegin
  2
SP92520
 70
     0
 10
0.0
 20
0.0
 30
0.0
  3
SP92520
  1

  0
INSERT
  5
E2
100
AcDbEntity
  8
0
100
AcDbBlockReference
  2
SP40020
 10
0.0
 20
0.0
 30
0.0
  0
LWPOLYLINE
  5
F6
100
AcDbEntity
  8
STALPROFIL
100
AcDbPolyline
 90
       14
 70
     0
 43
1.25
 10
-7.592449
 20
29.838238
 10
-8.372969
 20
26.925296
 42
0.398381
 10
-7.0
 20
25.625
 10
-2.0
 20
25.625
 42
0.414214
 10
-0.625
 20
27.0
 10
-0.625
 20
43.0
 42
0.414214
 10
-2.0
 20
44.375
 10
-23.0
 20
44.375
 42
0.414214
 10
-24.375
 20
43.0
 10
-24.375
 20
27.0
 42
0.414214
 10
-23.0
 20
25.625
 10
-19.0
 20
25.625
 42
0.398381
 10
-17.627031
 20
26.925296
 10
-18.407551
 20
29.838238
  0
LWPOLYLINE
  5
F7
100
AcDbEntity
  8
SPKONTUR
100
AcDbPolyline
 90
       14
 70
     0
 43
0.0
 10
-8.196152
 20
30.0
 10
-9.0
 20
27.0
 42
0.414214
 10
-7.0
 20
25.0
 10
-2.0
 20
25.0
 42
0.414214
 10
0.0
 20
27.0
 10
0.0
 20
43.0
 42
0.414214
 10
-2.0
 20
45.0
 10
-23.0
 20
45.0
 42
0.414214
 10
-25.0
 20
43.0
 10
-25.0
 20
27.0
 42
0.414214
 10
-23.0
 20
25.0
 10
-19.0
 20
25.0
 42
0.414214
 10
-17.0
 20
27.0
 10
-17.803848
 20
30.0
  0
ENDBLK
  5
F9
100
AcDbEntity
  8
0
100
AcDbBlockEnd
  0
BLOCK
  5
11E
100
AcDbEntity
  8
0
100
AcDbBlockBegin
  2
SP93020
 70
     0
 10
0.0
 20
0.0
 30
0.0
  3
SP93020
  1

  0
LWPOLYLINE
  5
11B
100
AcDbEntity
  8
SPKONTUR
100
AcDbPolyline
 90
       14
 70
     0
 43
0.0
 10
-8.196152
 20
30.0
 10
-9.0
 20
27.0
 42
0.414214
 10
-7.0
 20
25.0
 10
-2.0
 20
25.0
 42
0.414214
 10
0.0
 20
27.0
 10
0.0
 20
43.0
 42
0.414214
 10
-2.0
 20
45.0
 10
-28.0
 20
45.0
 42
0.414214
 10
-30.0
 20
43.0
 10
-30.0
 20
27.0
 42
0.414214
 10
-28.0
 20
25.0
 10
-19.0
 20
25.0
 42
0.414214
 10
-17.0
 20
27.0
 10
-17.803848
 20
30.0
  0
LWPOLYLINE
  5
11C
100
AcDbEntity
  8
STALPROFIL
100
AcDbPolyline
 90
       14
 70
     0
 43
1.25
 10
-7.592449
 20
29.838238
 10
-8.372969
 20
26.925296
 42
0.398381
 10
-7.0
 20
25.625
 10
-2.0
 20
25.625
 42
0.414214
 10
-0.625
 20
27.0
 10
-0.625
 20
43.0
 42
0.414214
 10
-2.0
 20
44.375
 10
-28.0
 20
44.375
 42
0.414214
 10
-29.375
 20
43.0
 10
-29.375
 20
27.0
 42
0.414214
 10
-28.0
 20
25.625
 10
-19.0
 20
25.625
 42
0.398381
 10
-17.627031
 20
26.925296
 10
-18.407551
 20
29.838238
  0
INSERT
  5
11D
100
AcDbEntity
  8
GLAS_MED_FOGNING
100
AcDbBlockReference
  2
SP40020
 10
0.0
 20
0.0
 30
0.0
  0
ENDBLK
  5
11F
100
AcDbEntity
  8
0
100
AcDbBlockEnd
  0
BLOCK
  5
323
100
AcDbEntity
  8
0
100
AcDbBlockBegin
  2
SP92020
 70
     0
 10
0.0
 20
0.0
 30
0.0
  3
SP92020
  1

  0
LWPOLYLINE
  5
320
100
AcDbEntity
  8
SPKONTUR
100
AcDbPolyline
 90
       14
 70
     0
 43
0.0
 10
-2.629165
 20
30.000002
 10
-3.5
 20
26.749902
 42
0.41423
 10
-1.75
 20
25.000002
 42
0.414213
 10
0.0
 20
26.75
 10
0.0
 20
43.000002
 42
0.414214
 10
-2.0
 20
45.000002
 10
-7.5
 20
45.000002
 10
-18.0
 20
45.000002
 42
0.414214
 10
-20.0
 20
43.000002
 10
-20.0
 20
27.000002
 42
0.414214
 10
-18.0
 20
25.000002
 10
-13.5
 20
25.000002
 42
0.414214
 10
-11.5
 20
27.000002
 10
-12.303848
 20
30.000002
  0
LWPOLYLINE
  5
321
100
AcDbEntity
  8
STALPROFIL
100
AcDbPolyline
 90
       13
 70
     0
 43
1.25
 10
-2.02546
 20
29.838245
 10
-2.872606
 20
26.676555
 42
0.395246
 10
-1.75
 20
25.625002
 42
0.414213
 10
-0.625
 20
26.75
 10
-0.625
 20
43.000002
 42
0.414214
 10
-2.0
 20
44.375002
 10
-18.0
 20
44.375002
 42
0.414214
 10
-19.375
 20
43.000002
 10
-19.375
 20
27.000002
 42
0.414214
 10
-18.0
 20
25.625002
 10
-13.5
 20
25.625002
 42
0.398381
 10
-12.127031
 20
26.925298
 10
-12.907551
 20
29.83824
  0
INSERT
  5
322
100
AcDbEntity
  8
0
100
AcDbBlockReference
  2
SP40020
 10
5.5
 20
0.0
 30
0.0
  0
ENDBLK
  5
324
100
AcDbEntity
  8
0
100
AcDbBlockEnd
  0
BLOCK
  5
95
100
AcDbEntity
  8
0
100
AcDbBlockBegin
  2
SP91020
 70
     0
 10
0.0
 20
0.0
 30
0.0
  3
SP91020
  1

  0
LWPOLYLINE
  5
89
100
AcDbEntity
  8
STALPROFIL
100
AcDbPolyline
 90
       10
 70
     0
 43
1.25
 10
-9.375
 20
27.5
 10
-9.375
 20
26.75
 42
0.414214
 10
-8.25
 20
25.625
 10
-1.75
 20
25.625
 42
0.414214
 10
-0.625
 20
26.75
 10
-0.625
 20
43.25
 42
0.414214
 10
-1.75
 20
44.375
 10
-8.25
 20
44.375
 42
0.414214
 10
-9.375
 20
43.25
 10
-9.375
 20
29.5
  0
LWPOLYLINE
  5
8B
100
AcDbEntity
  8
SPKONTUR
100
AcDbPolyline
 90
       10
 70
     0
 43
0.0
 10
-10.0
 20
27.5
 10
-10.0
 20
26.75
 42
0.414214
 10
-8.25
 20
25.0
 10
-1.75
 20
25.0
 42
0.414214
 10
0.0
 20
26.75
 10
0.0
 20
43.25
 42
0.414214
 10
-1.75
 20
45.0
 10
-8.25
 20
45.0
 42
0.414214
 10
-10.0
 20
43.25
 10
-10.0
 20
29.5
  0
INSERT
  5
8D
100
AcDbEntity
  8
GLAS_MED_FOGNING
100
AcDbBlockReference
  2
SP41000
 10
0.0
 20
0.0
 30
0.0
  0
ENDBLK
  5
96
100
AcDbEntity
  8
0
100
AcDbBlockEnd
  0
BLOCK
  5
299
100
AcDbEntity
  8
0
100
AcDbBlockBegin
  2
*X13
 70
     1
 10
0.0
 20
0.0
 30
0.0
  3
*X13
  1

  0
LINE
  5
28F
100
AcDbEntity
  8
0
 62
     0
100
AcDbLine
 10
-3.964252
 20
40.411648
 30
0.0
 11
-3.964252
 21
40.411648
 31
0.0
  0
LINE
  5
290
100
AcDbEntity
  8
0
 62
     0
100
AcDbLine
 10
-4.090239
 20
44.265296
 30
0.0
 11
-4.090239
 21
44.265296
 31
0.0
  0
LINE
  5
291
100
AcDbEntity
  8
0
 62
     0
100
AcDbLine
 10
-3.586292
 20
28.850706
 30
0.0
 11
-3.586292
 21
28.850706
 31
0.0
  0
LINE
  5
292
100
AcDbEntity
  8
0
 62
     0
100
AcDbLine
 10
-3.984846
 20
40.901794
 30
0.0
 11
-3.984846
 21
40.901794
 31
0.0
  0
LINE
  5
293
100
AcDbEntity
  8
0
 62
     0
100
AcDbLine
 10
-4.054438
 20
30.53603
 30
0.0
 11
-4.054438
 21
30.53603
 31
0.0
  0
LINE
  5
294
100
AcDbEntity
  8
0
 62
     0
100
AcDbLine
 10
-1.337879
 20
30.893671
 30
0.0
 11
-1.337879
 21
30.893671
 31
0.0
  0
LINE
  5
295
100
AcDbEntity
  8
0
 62
     0
100
AcDbLine
 10
-2.925486
 20
40.088272
 30
0.0
 11
-2.925486
 21
40.088272
 31
0.0
  0
LINE
  5
296
100
AcDbEntity
  8
0
 62
     0
100
AcDbLine
 10
-2.043656
 20
27.588967
 30
0.0
 11
-2.043656
 21
27.588967
 31
0.0
  0
LINE
  5
297
100
AcDbEntity
  8
0
 62
     0
100
AcDbLine
 10
-3.006559
 20
29.559094
 30
0.0
 11
-3.006559
 21
29.559094
 31
0.0
  0
LINE
  5
298
100
AcDbEntity
  8
0
 62
     0
100
AcDbLine
 10
-2.63792
 20
29.221299
 30
0.0
 11
-2.63792
 21
29.221299
 31
0.0
  0
ENDBLK
  5
29A
100
AcDbEntity
  8
0
100
AcDbBlockEnd
  0
BLOCK
  5
489
100
AcDbEntity
  8
0
100
AcDbBlockBegin
  2
*X14
 70
     1
 10
0.0
 20
0.0
 30
0.0
  3
*X14
  1

  0
LINE
  5
486
100
AcDbEntity
  8
0
 62
     0
100
AcDbLine
 10
-43.410115
 20
41.746337
 30
0.0
 11
-43.410115
 21
41.746337
 31
0.0
  0
LINE
  5
487
100
AcDbEntity
  8
0
 62
     0
100
AcDbLine
 10
-44.259128
 20
42.545671
 30
0.0
 11
-44.259128
 21
42.545671
 31
0.0
  0
LINE
  5
488
100
AcDbEntity
  8
0
 62
     0
100
AcDbLine
 10
-43.530278
 20
44.898542
 30
0.0
 11
-43.530278
 21
44.898542
 31
0.0
  0
ENDBLK
  5
48A
100
AcDbEntity
  8
0
100
AcDbBlockEnd
  0
BLOCK
  5
482
100
AcDbEntity
  8
0
100
AcDbBlockBegin
  2
*X15
 70
     1
 10
0.0
 20
0.0
 30
0.0
  3
*X15
  1

  0
LINE
  5
481
100
AcDbEntity
  8
0
 62
     0
100
AcDbLine
 10
-36.504142
 20
41.798848
 30
0.0
 11
-36.504142
 21
41.798848
 31
0.0
  0
ENDBLK
  5
483
100
AcDbEntity
  8
0
100
AcDbBlockEnd
  0
BLOCK
  5
45D
100
AcDbEntity
  8
0
100
AcDbBlockBegin
  2
*X16
 70
     1
 10
0.0
 20
0.0
 30
0.0
  3
*X16
  1

  0
LINE
  5
452
100
AcDbEntity
  8
0
 62
     0
100
AcDbLine
 10
-45.729557
 20
28.115606
 30
0.0
 11
-45.729557
 21
28.115606
 31
0.0
  0
LINE
  5
453
100
AcDbEntity
  8
0
 62
     0
100
AcDbLine
 10
-43.032155
 20
30.185395
 30
0.0
 11
-43.032155
 21
30.185395
 31
0.0
  0
LINE
  5
454
100
AcDbEntity
  8
0
 62
     0
100
AcDbLine
 10
-44.406244
 20
25.223614
 30
0.0
 11
-44.406244
 21
25.223614
 31
0.0
  0
LINE
  5
455
100
AcDbEntity
  8
0
 62
     0
100
AcDbLine
 10
-43.365227
 20
25.360666
 30
0.0
 11
-43.365227
 21
25.360666
 31
0.0
  0
LINE
  5
456
100
AcDbEntity
  8
0
 62
     0
100
AcDbLine
 10
-46.250236
 20
30.159149
 30
0.0
 11
-46.250236
 21
30.159149
 31
0.0
  0
LINE
  5
457
100
AcDbEntity
  8
0
 62
     0
100
AcDbLine
 10
-45.209219
 20
30.296201
 30
0.0
 11
-45.209219
 21
30.296201
 31
0.0
  0
LINE
  5
458
100
AcDbEntity
  8
0
 62
     0
100
AcDbLine
 10
-43.583249
 20
30.510264
 30
0.0
 11
-43.583249
 21
30.510264
 31
0.0
  0
LINE
  5
459
100
AcDbEntity
  8
0
 62
     0
100
AcDbLine
 10
-45.641642
 20
27.50974
 30
0.0
 11
-45.641642
 21
27.50974
 31
0.0
  0
LINE
  5
45A
100
AcDbEntity
  8
0
 62
     0
100
AcDbLine
 10
-43.292959
 20
29.992636
 30
0.0
 11
-43.292959
 21
29.992636
 31
0.0
  0
LINE
  5
45B
100
AcDbEntity
  8
0
 62
     0
100
AcDbLine
 10
-43.256998
 20
30.118995
 30
0.0
 11
-43.256998
 21
30.118995
 31
0.0
  0
LINE
  5
45C
100
AcDbEntity
  8
0
 62
     0
100
AcDbLine
 10
-46.909964
 20
26.201755
 30
0.0
 11
-46.909964
 21
26.201755
 31
0.0
  0
ENDBLK
  5
45E
100
AcDbEntity
  8
0
100
AcDbBlockEnd
  0
BLOCK
  5
475
100
AcDbEntity
  8
0
100
AcDbBlockBegin
  2
*X17
 70
     1
 10
0.0
 20
0.0
 30
0.0
  3
*X17
  1

  0
LINE
  5
46D
100
AcDbEntity
  8
0
 62
     0
100
AcDbLine
 10
-37.789989
 20
26.307209
 30
0.0
 11
-37.789989
 21
26.307209
 31
0.0
  0
LINE
  5
46E
100
AcDbEntity
  8
0
 62
     0
100
AcDbLine
 10
-35.092588
 20
28.376998
 30
0.0
 11
-35.092588
 21
28.376998
 31
0.0
  0
LINE
  5
46F
100
AcDbEntity
  8
0
 62
     0
100
AcDbLine
 10
-37.915976
 20
30.160857
 30
0.0
 11
-37.915976
 21
30.160857
 31
0.0
  0
LINE
  5
470
100
AcDbEntity
  8
0
 62
     0
100
AcDbLine
 10
-37.981681
 20
26.069423
 30
0.0
 11
-37.981681
 21
26.069423
 31
0.0
  0
LINE
  5
471
100
AcDbEntity
  8
0
 62
     0
100
AcDbLine
 10
-36.355712
 20
26.283486
 30
0.0
 11
-36.355712
 21
26.283486
 31
0.0
  0
LINE
  5
472
100
AcDbEntity
  8
0
 62
     0
100
AcDbLine
 10
-37.064675
 20
30.003954
 30
0.0
 11
-37.064675
 21
30.003954
 31
0.0
  0
LINE
  5
473
100
AcDbEntity
  8
0
 62
     0
100
AcDbLine
 10
-36.221284
 20
29.466655
 30
0.0
 11
-36.221284
 21
29.466655
 31
0.0
  0
LINE
  5
474
100
AcDbEntity
  8
0
 62
     0
100
AcDbLine
 10
-35.254096
 20
30.050252
 30
0.0
 11
-35.254096
 21
30.050252
 31
0.0
  0
ENDBLK
  5
476
100
AcDbEntity
  8
0
100
AcDbBlockEnd
  0
BLOCK
  5
48B
100
AcDbEntity
  8
0
100
AcDbBlockBegin
  2
GLAS5-4X3DK
 70
     0
 10
0.0
 20
0.0
 30
0.0
  3
GLAS5-4X3DK
  1

  0
LINE
  5
445
100
AcDbEntity
  8
GLAS_MED_FOGNING
100
AcDbLine
 10
7.0
 20
35.0
 30
0.0
 11
3.0
 21
35.0
 31
0.0
  0
LINE
  5
446
100
AcDbEntity
  8
GLAS_MED_FOGNING
100
AcDbLine
 10
7.0
 20
32.0
 30
0.0
 11
3.0
 21
32.0
 31
0.0
  0
LINE
  5
447
100
AcDbEntity
  8
GLAS_MED_FOGNING
100
AcDbLine
 10
7.0
 20
34.0
 30
0.0
 11
3.0
 21
34.0
 31
0.0
  0
LINE
  5
448
100
AcDbEntity
  8
GLAS_MED_FOGNING
100
AcDbLine
 10
7.0
 20
33.0
 30
0.0
 11
3.0
 21
33.0
 31
0.0
  0
LINE
  5
449
100
AcDbEntity
  8
GLAS_MED_FOGNING
100
AcDbLine
 10
7.0
 20
36.0
 30
0.0
 11
3.0
 21
36.0
 31
0.0
  0
LINE
  5
44A
100
AcDbEntity
  8
GLAS_MED_FOGNING
100
AcDbLine
 10
7.0
 20
38.0
 30
0.0
 11
3.0
 21
38.0
 31
0.0
  0
LINE
  5
44B
100
AcDbEntity
  8
GLAS_MED_FOGNING
100
AcDbLine
 10
7.0
 20
37.0
 30
0.0
 11
3.0
 21
37.0
 31
0.0
  0
LINE
  5
44C
100
AcDbEntity
  8
GLAS_MED_FOGNING
100
AcDbLine
 10
7.0
 20
40.0
 30
0.0
 11
3.0
 21
40.0
 31
0.0
  0
LINE
  5
44D
100
AcDbEntity
  8
GLAS_MED_FOGNING
100
AcDbLine
 10
7.0
 20
39.0
 30
0.0
 11
3.0
 21
39.0
 31
0.0
  0
LINE
  5
44E
100
AcDbEntity
  8
GLAS_MED_FOGNING
100
AcDbLine
 10
7.0
 20
41.0
 30
0.0
 11
3.0
 21
41.0
 31
0.0
  0
LINE
  5
44F
100
AcDbEntity
  8
GLAS_MED_FOGNING
100
AcDbLine
 10
7.0
 20
31.0
 30
0.0
 11
3.0
 21
31.0
 31
0.0
  0
INSERT
  5
450
100
AcDbEntity
  8
GLAS_MED_FOGNING
100
AcDbBlockReference
  2
*X16
 10
50.0
 20
0.0
 30
0.0
1001
ACAD
1000
HATCH
1002
{
1070
    16
1000
AR-SAND
1040
2.0
1040
0.0
1002
}
  0
ARC
  5
45F
100
AcDbEntity
  8
GLAS_MED_FOGNING
100
AcDbCircle
 10
3.0
 20
47.0
 30
0.0
 40
4.0
100
AcDbArc
 50
270.0
 51
0.0
  0
LINE
  5
460
100
AcDbEntity
  8
GLAS_MED_FOGNING
100
AcDbLine
 10
12.0
 20
47.0
 30
0.0
 11
12.0
 21
30.0
 31
0.0
  0
LINE
  5
461
100
AcDbEntity
  8
GLAS_MED_FOGNING
100
AcDbLine
 10
7.0
 20
47.0
 30
0.0
 11
7.0
 21
30.0
 31
0.0
  0
LINE
  5
462
100
AcDbEntity
  8
GLAS_MED_FOGNING
100
AcDbLine
 10
15.0
 20
34.0
 30
0.0
 11
12.0
 21
34.0
 31
0.0
  0
LINE
  5
463
100
AcDbEntity
  8
GLAS_MED_FOGNING
100
AcDbLine
 10
15.0
 20
33.0
 30
0.0
 11
12.0
 21
33.0
 31
0.0
  0
LINE
  5
464
100
AcDbEntity
  8
GLAS_MED_FOGNING
100
AcDbLine
 10
15.0
 20
32.0
 30
0.0
 11
12.0
 21
32.0
 31
0.0
  0
LINE
  5
465
100
AcDbEntity
  8
GLAS_MED_FOGNING
100
AcDbLine
 10
15.0
 20
31.0
 30
0.0
 11
12.0
 21
31.0
 31
0.0
  0
LINE
  5
466
100
AcDbEntity
  8
GLAS_MED_FOGNING
100
AcDbLine
 10
12.0
 20
30.0
 30
0.0
 11
7.0
 21
30.0
 31
0.0
  0
LINE
  5
467
100
AcDbEntity
  8
GLAS_MED_FOGNING
100
AcDbLine
 10
12.0
 20
25.0
 30
0.0
 11
7.0
 21
30.0
 31
0.0
  0
LINE
  5
468
100
AcDbEntity
  8
GLAS_MED_FOGNING
100
AcDbLine
 10
12.0
 20
30.0
 30
0.0
 11
7.0
 21
25.0
 31
0.0
  0
LINE
  5
469
100
AcDbEntity
  8
GLAS_MED_FOGNING
100
AcDbLine
 10
7.0
 20
30.0
 30
0.0
 11
7.0
 21
25.0
 31
0.0
  0
LINE
  5
46A
100
AcDbEntity
  8
GLAS_MED_FOGNING
100
AcDbLine
 10
12.0
 20
30.0
 30
0.0
 11
12.0
 21
25.0
 31
0.0
  0
INSERT
  5
46B
100
AcDbEntity
  8
GLAS_MED_FOGNING
100
AcDbBlockReference
  2
*X17
 10
50.0
 20
0.0
 30
0.0
1001
ACAD
1000
HATCH
1002
{
1070
    16
1000
AR-SAND
1040
2.0
1040
0.0
1002
}
  0
ARC
  5
477
100
AcDbEntity
  8
GLAS_MED_FOGNING
100
AcDbCircle
 10
15.0
 20
46.0
 30
0.0
 40
3.0
100
AcDbArc
 50
180.0
 51
270.0
  0
LINE
  5
478
100
AcDbEntity
  8
GLAS_MED_FOGNING
100
AcDbLine
 10
15.0
 20
40.0
 30
0.0
 11
12.0
 21
40.0
 31
0.0
  0
LINE
  5
479
100
AcDbEntity
  8
GLAS_MED_FOGNING
100
AcDbLine
 10
15.0
 20
39.0
 30
0.0
 11
12.0
 21
39.0
 31
0.0
  0
LINE
  5
47A
100
AcDbEntity
  8
GLAS_MED_FOGNING
100
AcDbLine
 10
15.0
 20
38.0
 30
0.0
 11
12.0
 21
38.0
 31
0.0
  0
LINE
  5
47B
100
AcDbEntity
  8
GLAS_MED_FOGNING
100
AcDbLine
 10
15.0
 20
37.0
 30
0.0
 11
12.0
 21
37.0
 31
0.0
  0
LINE
  5
47C
100
AcDbEntity
  8
GLAS_MED_FOGNING
100
AcDbLine
 10
15.0
 20
36.0
 30
0.0
 11
12.0
 21
36.0
 31
0.0
  0
LINE
  5
47D
100
AcDbEntity
  8
GLAS_MED_FOGNING
100
AcDbLine
 10
15.0
 20
35.0
 30
0.0
 11
12.0
 21
35.0
 31
0.0
  0
LINE
  5
47E
100
AcDbEntity
  8
GLAS_MED_FOGNING
100
AcDbLine
 10
15.0
 20
41.0
 30
0.0
 11
12.0
 21
41.0
 31
0.0
  0
INSERT
  5
47F
100
AcDbEntity
  8
GLAS_MED_FOGNING
100
AcDbBlockReference
  2
*X15
 10
50.0
 20
0.0
 30
0.0
1001
ACAD
1000
HATCH
1002
{
1070
    16
1000
AR-SAND
1040
2.0
1040
0.0
1002
}
  0
INSERT
  5
484
100
AcDbEntity
  8
GLAS_MED_FOGNING
100
AcDbBlockReference
  2
*X14
 10
50.0
 20
0.0
 30
0.0
1001
ACAD
1000
HATCH
1002
{
1070
    16
1000
AR-SAND
1040
2.0
1040
0.0
1002
}
  0
ENDBLK
  5
48C
100
AcDbEntity
  8
0
100
AcDbBlockEnd
  0
BLOCK
  5
43F
100
AcDbEntity
  8
0
100
AcDbBlockBegin
  2
50_SP93520
 70
     0
 10
0.0
 20
0.0
 30
0.0
  3
50_SP93520
  1

  0
INSERT
  5
3EA
100
AcDbEntity
  8
0
100
AcDbBlockReference
  2
GLAS5-4X3
 10
-50.0
 20
0.0
 30
0.0
  0
LWPOLYLINE
  5
435
100
AcDbEntity
  8
CENTRUM
100
AcDbPolyline
 90
        4
 70
     0
 43
0.0
 10
0.0
 20
57.5
 10
-38.0
 20
57.5
 10
-43.0
 20
57.5
 10
-50.0
 20
57.5
  0
LINE
  5
436
100
AcDbEntity
  8
GLAS_MED_FOGNING
100
AcDbLine
 10
-38.0
 20
57.5
 30
0.0
 11
-38.0
 21
47.0
 31
0.0
  0
LINE
  5
437
100
AcDbEntity
  8
GLAS_MED_FOGNING
100
AcDbLine
 10
-43.0
 20
57.5
 30
0.0
 11
-43.0
 21
47.0
 31
0.0
  0
INSERT
  5
438
100
AcDbEntity
  8
0
100
AcDbBlockReference
  2
SP93520
 10
0.0
 20
0.0
 30
0.0
  0
ENDBLK
  5
440
100
AcDbEntity
  8
0
100
AcDbBlockEnd
  0
BLOCK
  5
491
100
AcDbEntity
  8
0
100
AcDbBlockBegin
  2
50_SP93520DK
 70
     0
 10
0.0
 20
0.0
 30
0.0
  3
50_SP93520DK
  1

  0
INSERT
  5
443
100
AcDbEntity
  8
0
100
AcDbBlockReference
  2
GLAS5-4X3DK
 10
-50.0
 20
0.0
 30
0.0
  0
LWPOLYLINE
  5
48D
100
AcDbEntity
  8
CENTRUM
100
AcDbPolyline
 90
        4
 70
     0
 43
0.0
 10
0.0
 20
57.5
 10
-38.0
 20
57.5
 10
-43.0
 20
57.5
 10
-50.0
 20
57.5
  0
INSERT
  5
48E
100
AcDbEntity
  8
0
100
AcDbBlockReference
  2
SP93520
 10
0.0
 20
0.0
 30
0.0
  0
LINE
  5
48F
100
AcDbEntity
  8
GLAS_MED_FOGNING
100
AcDbLine
 10
-43.0
 20
57.5
 30
0.0
 11
-43.0
 21
47.0
 31
0.0
  0
LINE
  5
490
100
AcDbEntity
  8
GLAS_MED_FOGNING
100
AcDbLine
 10
-38.0
 20
57.5
 30
0.0
 11
-38.0
 21
47.0
 31
0.0
  0
ENDBLK
  5
492
100
AcDbEntity
  8
0
100
AcDbBlockEnd
  0
BLOCK
  5
71
100
AcDbEntity
  8
0
100
AcDbBlockBegin
  2
*X21
 70
     1
 10
0.0
 20
0.0
 30
0.0
  3
*X21
  1

  0
LINE
  5
69
100
AcDbEntity
  8
0
 62
     0
100
AcDbLine
 10
-43.410115
 20
41.746337
 30
0.0
 11
-43.410115
 21
41.746337
 31
0.0
  0
LINE
  5
6A
100
AcDbEntity
  8
0
 62
     0
100
AcDbLine
 10
-41.887688
 20
41.090091
 30
0.0
 11
-41.887688
 21
41.090091
 31
0.0
  0
LINE
  5
6B
100
AcDbEntity
  8
0
 62
     0
100
AcDbLine
 10
-41.015121
 20
46.383268
 30
0.0
 11
-41.015121
 21
46.383268
 31
0.0
  0
LINE
  5
6C
100
AcDbEntity
  8
0
 62
     0
100
AcDbLine
 10
-44.259128
 20
42.545671
 30
0.0
 11
-44.259128
 21
42.545671
 31
0.0
  0
LINE
  5
6D
100
AcDbEntity
  8
0
 62
     0
100
AcDbLine
 10
-41.910445
 20
45.028568
 30
0.0
 11
-41.910445
 21
45.028568
 31
0.0
  0
LINE
  5
6E
100
AcDbEntity
  8
0
 62
     0
100
AcDbLine
 10
-41.067054
 20
44.491268
 30
0.0
 11
-41.067054
 21
44.491268
 31
0.0
  0
LINE
  5
6F
100
AcDbEntity
  8
0
 62
     0
100
AcDbLine
 10
-41.539629
 20
43.074448
 30
0.0
 11
-41.539629
 21
43.074448
 31
0.0
  0
LINE
  5
70
100
AcDbEntity
  8
0
 62
     0
100
AcDbLine
 10
-41.17099
 20
42.736653
 30
0.0
 11
-41.17099
 21
42.736653
 31
0.0
  0
ENDBLK
  5
72
100
AcDbEntity
  8
0
100
AcDbBlockEnd
  0
BLOCK
  5
81
100
AcDbEntity
  8
0
100
AcDbBlockBegin
  2
*X22
 70
     1
 10
0.0
 20
0.0
 30
0.0
  3
*X22
  1

  0
LINE
  5
79
100
AcDbEntity
  8
0
 62
     0
100
AcDbLine
 10
-32.89215
 20
41.916415
 30
0.0
 11
-32.89215
 21
41.916415
 31
0.0
  0
LINE
  5
7A
100
AcDbEntity
  8
0
 62
     0
100
AcDbLine
 10
-33.787584
 20
42.15649
 30
0.0
 11
-33.787584
 21
42.15649
 31
0.0
  0
LINE
  5
7B
100
AcDbEntity
  8
0
 62
     0
100
AcDbLine
 10
-32.746566
 20
42.293542
 30
0.0
 11
-32.746566
 21
42.293542
 31
0.0
  0
LINE
  5
7C
100
AcDbEntity
  8
0
 62
     0
100
AcDbLine
 10
-31.120597
 20
42.507605
 30
0.0
 11
-31.120597
 21
42.507605
 31
0.0
  0
LINE
  5
7D
100
AcDbEntity
  8
0
 62
     0
100
AcDbLine
 10
-34.83877
 20
44.502586
 30
0.0
 11
-34.83877
 21
44.502586
 31
0.0
  0
LINE
  5
7E
100
AcDbEntity
  8
0
 62
     0
100
AcDbLine
 10
-31.802561
 20
42.568308
 30
0.0
 11
-31.802561
 21
42.568308
 31
0.0
  0
LINE
  5
7F
100
AcDbEntity
  8
0
 62
     0
100
AcDbLine
 10
-33.418762
 20
42.897611
 30
0.0
 11
-33.418762
 21
42.897611
 31
0.0
  0
LINE
  5
80
100
AcDbEntity
  8
0
 62
     0
100
AcDbLine
 10
-31.428114
 20
41.073518
 30
0.0
 11
-31.428114
 21
41.073518
 31
0.0
  0
ENDBLK
  5
82
100
AcDbEntity
  8
0
100
AcDbBlockEnd
  0
BLOCK
  5
200
100
AcDbEntity
  8
0
100
AcDbBlockBegin
  2
*X23
 70
     1
 10
0.0
 20
0.0
 30
0.0
  3
*X23
  1

  0
LINE
  5
1F1
100
AcDbEntity
  8
0
 62
     0
100
AcDbLine
 10
-42.906168
 20
26.331747
 30
0.0
 11
-42.906168
 21
26.331747
 31
0.0
  0
LINE
  5
1F2
100
AcDbEntity
  8
0
 62
     0
100
AcDbLine
 10
-45.729557
 20
28.115606
 30
0.0
 11
-45.729557
 21
28.115606
 31
0.0
  0
LINE
  5
1F3
100
AcDbEntity
  8
0
 62
     0
100
AcDbLine
 10
-43.032155
 20
30.185395
 30
0.0
 11
-43.032155
 21
30.185395
 31
0.0
  0
LINE
  5
1F4
100
AcDbEntity
  8
0
 62
     0
100
AcDbLine
 10
-44.406244
 20
25.223614
 30
0.0
 11
-44.406244
 21
25.223614
 31
0.0
  0
LINE
  5
1F5
100
AcDbEntity
  8
0
 62
     0
100
AcDbLine
 10
-43.365227
 20
25.360666
 30
0.0
 11
-43.365227
 21
25.360666
 31
0.0
  0
LINE
  5
1F6
100
AcDbEntity
  8
0
 62
     0
100
AcDbLine
 10
-41.739257
 20
25.574729
 30
0.0
 11
-41.739257
 21
25.574729
 31
0.0
  0
LINE
  5
1F7
100
AcDbEntity
  8
0
 62
     0
100
AcDbLine
 10
-46.250236
 20
30.159149
 30
0.0
 11
-46.250236
 21
30.159149
 31
0.0
  0
LINE
  5
1F8
100
AcDbEntity
  8
0
 62
     0
100
AcDbLine
 10
-45.209219
 20
30.296201
 30
0.0
 11
-45.209219
 21
30.296201
 31
0.0
  0
LINE
  5
1F9
100
AcDbEntity
  8
0
 62
     0
100
AcDbLine
 10
-43.583249
 20
30.510264
 30
0.0
 11
-43.583249
 21
30.510264
 31
0.0
  0
LINE
  5
1FA
100
AcDbEntity
  8
0
 62
     0
100
AcDbLine
 10
-45.641642
 20
27.50974
 30
0.0
 11
-45.641642
 21
27.50974
 31
0.0
  0
LINE
  5
1FB
100
AcDbEntity
  8
0
 62
     0
100
AcDbLine
 10
-43.292959
 20
29.992636
 30
0.0
 11
-43.292959
 21
29.992636
 31
0.0
  0
LINE
  5
1FC
100
AcDbEntity
  8
0
 62
     0
100
AcDbLine
 10
-42.449568
 20
29.455337
 30
0.0
 11
-42.449568
 21
29.455337
 31
0.0
  0
LINE
  5
1FD
100
AcDbEntity
  8
0
 62
     0
100
AcDbLine
 10
-43.256998
 20
30.118995
 30
0.0
 11
-43.256998
 21
30.118995
 31
0.0
  0
LINE
  5
1FE
100
AcDbEntity
  8
0
 62
     0
100
AcDbLine
 10
-41.266349
 20
28.294901
 30
0.0
 11
-41.266349
 21
28.294901
 31
0.0
  0
LINE
  5
1FF
100
AcDbEntity
  8
0
 62
     0
100
AcDbLine
 10
-46.909964
 20
26.201755
 30
0.0
 11
-46.909964
 21
26.201755
 31
0.0
  0
ENDBLK
  5
201
100
AcDbEntity
  8
0
100
AcDbBlockEnd
  0
BLOCK
  5
222
100
AcDbEntity
  8
0
100
AcDbBlockBegin
  2
*X24
 70
     1
 10
0.0
 20
0.0
 30
0.0
  3
*X24
  1

  0
LINE
  5
216
100
AcDbEntity
  8
0
 62
     0
100
AcDbLine
 10
-32.388203
 20
26.501825
 30
0.0
 11
-32.388203
 21
26.501825
 31
0.0
  0
LINE
  5
217
100
AcDbEntity
  8
0
 62
     0
100
AcDbLine
 10
-32.514189
 20
30.355473
 30
0.0
 11
-32.514189
 21
30.355473
 31
0.0
  0
LINE
  5
218
100
AcDbEntity
  8
0
 62
     0
100
AcDbLine
 10
-33.639153
 20
26.641128
 30
0.0
 11
-33.639153
 21
26.641128
 31
0.0
  0
LINE
  5
219
100
AcDbEntity
  8
0
 62
     0
100
AcDbLine
 10
-32.598136
 20
26.778181
 30
0.0
 11
-32.598136
 21
26.778181
 31
0.0
  0
LINE
  5
21A
100
AcDbEntity
  8
0
 62
     0
100
AcDbLine
 10
-30.972166
 20
26.992244
 30
0.0
 11
-30.972166
 21
26.992244
 31
0.0
  0
LINE
  5
21B
100
AcDbEntity
  8
0
 62
     0
100
AcDbLine
 10
-33.185075
 20
27.532376
 30
0.0
 11
-33.185075
 21
27.532376
 31
0.0
  0
LINE
  5
21C
100
AcDbEntity
  8
0
 62
     0
100
AcDbLine
 10
-29.221135
 20
25.007068
 30
0.0
 11
-29.221135
 21
25.007068
 31
0.0
  0
LINE
  5
21D
100
AcDbEntity
  8
0
 62
     0
100
AcDbLine
 10
-30.836392
 20
30.015272
 30
0.0
 11
-30.836392
 21
30.015272
 31
0.0
  0
LINE
  5
21E
100
AcDbEntity
  8
0
 62
     0
100
AcDbLine
 10
-34.885457
 20
29.712457
 30
0.0
 11
-34.885457
 21
29.712457
 31
0.0
  0
LINE
  5
21F
100
AcDbEntity
  8
0
 62
     0
100
AcDbLine
 10
-33.145483
 20
28.118064
 30
0.0
 11
-33.145483
 21
28.118064
 31
0.0
  0
LINE
  5
220
100
AcDbEntity
  8
0
 62
     0
100
AcDbLine
 10
-31.154834
 20
26.293971
 30
0.0
 11
-31.154834
 21
26.293971
 31
0.0
  0
LINE
  5
221
100
AcDbEntity
  8
0
 62
     0
100
AcDbLine
 10
-30.786195
 20
25.956176
 30
0.0
 11
-30.786195
 21
25.956176
 31
0.0
  0
ENDBLK
  5
223
100
AcDbEntity
  8
0
100
AcDbBlockEnd
  0
BLOCK
  5
25E
100
AcDbEntity
  8
0
100
AcDbBlockBegin
  2
GLAS6-6X5DK
 70
     0
 10
0.0
 20
0.0
 30
0.0
  3
GLAS6-6X5DK
  1

  0
LINE
  5
23B
100
AcDbEntity
  8
GLAS_MED_FOGNING
100
AcDbLine
 10
15.0
 20
49.0
 30
0.0
 11
15.0
 21
30.0
 31
0.0
  0
LINE
  5
23C
100
AcDbEntity
  8
GLAS_MED_FOGNING
100
AcDbLine
 10
9.0
 20
49.0
 30
0.0
 11
9.0
 21
30.0
 31
0.0
  0
LINE
  5
23D
100
AcDbEntity
  8
GLAS_MED_FOGNING
100
AcDbLine
 10
15.0
 20
30.0
 30
0.0
 11
9.0
 21
25.0
 31
0.0
  0
LINE
  5
23E
100
AcDbEntity
  8
GLAS_MED_FOGNING
100
AcDbLine
 10
9.0
 20
30.0
 30
0.0
 11
15.0
 21
25.0
 31
0.0
  0
LINE
  5
23F
100
AcDbEntity
  8
GLAS_MED_FOGNING
100
AcDbLine
 10
15.0
 20
30.0
 30
0.0
 11
9.0
 21
30.0
 31
0.0
  0
LINE
  5
240
100
AcDbEntity
  8
GLAS_MED_FOGNING
100
AcDbLine
 10
9.0
 20
31.0
 30
0.0
 11
3.0
 21
31.0
 31
0.0
  0
LINE
  5
241
100
AcDbEntity
  8
GLAS_MED_FOGNING
100
AcDbLine
 10
9.0
 20
33.0
 30
0.0
 11
3.0
 21
33.0
 31
0.0
  0
LINE
  5
242
100
AcDbEntity
  8
GLAS_MED_FOGNING
100
AcDbLine
 10
9.0
 20
34.0
 30
0.0
 11
3.0
 21
34.0
 31
0.0
  0
LINE
  5
243
100
AcDbEntity
  8
GLAS_MED_FOGNING
100
AcDbLine
 10
9.0
 20
32.0
 30
0.0
 11
3.0
 21
32.0
 31
0.0
  0
LINE
  5
244
100
AcDbEntity
  8
GLAS_MED_FOGNING
100
AcDbLine
 10
9.0
 20
30.0
 30
0.0
 11
9.0
 21
25.0
 31
0.0
  0
INSERT
  5
245
100
AcDbEntity
  8
GLAS_MED_FOGNING
100
AcDbBlockReference
  2
*X23
 10
50.0
 20
0.0
 30
0.0
1001
ACAD
1000
HATCH
1002
{
1070
    16
1000
AR-SAND
1040
2.0
1040
0.0
1002
}
  0
LINE
  5
246
100
AcDbEntity
  8
GLAS_MED_FOGNING
100
AcDbLine
 10
20.0
 20
31.0
 30
0.0
 11
15.0
 21
31.0
 31
0.0
  0
LINE
  5
247
100
AcDbEntity
  8
GLAS_MED_FOGNING
100
AcDbLine
 10
20.0
 20
34.0
 30
0.0
 11
15.0
 21
34.0
 31
0.0
  0
LINE
  5
248
100
AcDbEntity
  8
GLAS_MED_FOGNING
100
AcDbLine
 10
20.0
 20
33.0
 30
0.0
 11
15.0
 21
33.0
 31
0.0
  0
LINE
  5
249
100
AcDbEntity
  8
GLAS_MED_FOGNING
100
AcDbLine
 10
20.0
 20
32.0
 30
0.0
 11
15.0
 21
32.0
 31
0.0
  0
LINE
  5
24A
100
AcDbEntity
  8
GLAS_MED_FOGNING
100
AcDbLine
 10
15.0
 20
30.0
 30
0.0
 11
15.0
 21
25.0
 31
0.0
  0
INSERT
  5
24B
100
AcDbEntity
  8
GLAS_MED_FOGNING
100
AcDbBlockReference
  2
*X24
 10
50.0
 20
0.0
 30
0.0
1001
ACAD
1000
HATCH
1002
{
1070
    16
1000
AR-SAND
1040
2.0
1040
0.0
1002
}
  0
ARC
  5
24C
100
AcDbEntity
  8
GLAS_MED_FOGNING
100
AcDbCircle
 10
20.0
 20
48.0
 30
0.0
 40
5.0
100
AcDbArc
 50
180.0
 51
270.0
  0
ARC
  5
24D
100
AcDbEntity
  8
GLAS_MED_FOGNING
100
AcDbCircle
 10
3.0
 20
49.0
 30
0.0
 40
6.0
100
AcDbArc
 50
270.0
 51
0.0
  0
INSERT
  5
24E
100
AcDbEntity
  8
GLAS_MED_FOGNING
100
AcDbBlockReference
  2
*X21
 10
50.0
 20
0.0
 30
0.0
1001
ACAD
1000
HATCH
1002
{
1070
    16
1000
AR-SAND
1040
2.0
1040
0.0
1002
}
  0
LINE
  5
24F
100
AcDbEntity
  8
GLAS_MED_FOGNING
100
AcDbLine
 10
9.0
 20
41.0
 30
0.0
 11
3.0
 21
41.0
 31
0.0
  0
LINE
  5
250
100
AcDbEntity
  8
GLAS_MED_FOGNING
100
AcDbLine
 10
9.0
 20
39.0
 30
0.0
 11
3.0
 21
39.0
 31
0.0
  0
LINE
  5
251
100
AcDbEntity
  8
GLAS_MED_FOGNING
100
AcDbLine
 10
9.0
 20
40.0
 30
0.0
 11
3.0
 21
40.0
 31
0.0
  0
LINE
  5
252
100
AcDbEntity
  8
GLAS_MED_FOGNING
100
AcDbLine
 10
9.0
 20
37.0
 30
0.0
 11
3.0
 21
37.0
 31
0.0
  0
LINE
  5
253
100
AcDbEntity
  8
GLAS_MED_FOGNING
100
AcDbLine
 10
9.0
 20
38.0
 30
0.0
 11
3.0
 21
38.0
 31
0.0
  0
LINE
  5
254
100
AcDbEntity
  8
GLAS_MED_FOGNING
100
AcDbLine
 10
9.0
 20
36.0
 30
0.0
 11
3.0
 21
36.0
 31
0.0
  0
LINE
  5
255
100
AcDbEntity
  8
GLAS_MED_FOGNING
100
AcDbLine
 10
9.0
 20
35.0
 30
0.0
 11
3.0
 21
35.0
 31
0.0
  0
LINE
  5
256
100
AcDbEntity
  8
GLAS_MED_FOGNING
100
AcDbLine
 10
20.0
 20
41.0
 30
0.0
 11
15.0
 21
41.0
 31
0.0
  0
LINE
  5
257
100
AcDbEntity
  8
GLAS_MED_FOGNING
100
AcDbLine
 10
20.0
 20
40.0
 30
0.0
 11
15.0
 21
40.0
 31
0.0
  0
LINE
  5
258
100
AcDbEntity
  8
GLAS_MED_FOGNING
100
AcDbLine
 10
20.0
 20
39.0
 30
0.0
 11
15.0
 21
39.0
 31
0.0
  0
LINE
  5
259
100
AcDbEntity
  8
GLAS_MED_FOGNING
100
AcDbLine
 10
20.0
 20
38.0
 30
0.0
 11
15.0
 21
38.0
 31
0.0
  0
LINE
  5
25A
100
AcDbEntity
  8
GLAS_MED_FOGNING
100
AcDbLine
 10
20.0
 20
37.0
 30
0.0
 11
15.0
 21
37.0
 31
0.0
  0
LINE
  5
25B
100
AcDbEntity
  8
GLAS_MED_FOGNING
100
AcDbLine
 10
20.0
 20
36.0
 30
0.0
 11
15.0
 21
36.0
 31
0.0
  0
LINE
  5
25C
100
AcDbEntity
  8
GLAS_MED_FOGNING
100
AcDbLine
 10
20.0
 20
35.0
 30
0.0
 11
15.0
 21
35.0
 31
0.0
  0
INSERT
  5
25D
100
AcDbEntity
  8
GLAS_MED_FOGNING
100
AcDbBlockReference
  2
*X22
 10
50.0
 20
0.0
 30
0.0
1001
ACAD
1000
HATCH
1002
{
1070
    16
1000
AR-SAND
1040
2.0
1040
0.0
1002
}
  0
ENDBLK
  5
25F
100
AcDbEntity
  8
0
100
AcDbBlockEnd
  0
BLOCK
  5
149
100
AcDbEntity
  8
0
100
AcDbBlockBegin
  2
*X26
 70
     1
 10
0.0
 20
0.0
 30
0.0
  3
*X26
  1

  0
LINE
  5
124
100
AcDbEntity
  8
0
 62
     0
100
AcDbLine
 10
-37.789989
 20
26.307209
 30
0.0
 11
-37.789989
 21
26.307209
 31
0.0
  0
LINE
  5
125
100
AcDbEntity
  8
0
 62
     0
100
AcDbLine
 10
-35.092588
 20
28.376998
 30
0.0
 11
-35.092588
 21
28.376998
 31
0.0
  0
LINE
  5
126
100
AcDbEntity
  8
0
 62
     0
100
AcDbLine
 10
-32.514189
 20
30.355473
 30
0.0
 11
-32.514189
 21
30.355473
 31
0.0
  0
LINE
  5
127
100
AcDbEntity
  8
0
 62
     0
100
AcDbLine
 10
-42.906168
 20
26.331747
 30
0.0
 11
-42.906168
 21
26.331747
 31
0.0
  0
LINE
  5
128
100
AcDbEntity
  8
0
 62
     0
100
AcDbLine
 10
-40.32777
 20
28.310222
 30
0.0
 11
-40.32777
 21
28.310222
 31
0.0
  0
LINE
  5
129
100
AcDbEntity
  8
0
 62
     0
100
AcDbLine
 10
-45.729557
 20
28.115606
 30
0.0
 11
-45.729557
 21
28.115606
 31
0.0
  0
LINE
  5
12A
100
AcDbEntity
  8
0
 62
     0
100
AcDbLine
 10
-43.032155
 20
30.185395
 30
0.0
 11
-43.032155
 21
30.185395
 31
0.0
  0
LINE
  5
12B
100
AcDbEntity
  8
0
 62
     0
100
AcDbLine
 10
-32.388203
 20
26.501825
 30
0.0
 11
-32.388203
 21
26.501825
 31
0.0
  0
LINE
  5
12C
100
AcDbEntity
  8
0
 62
     0
100
AcDbLine
 10
-44.406244
 20
25.223614
 30
0.0
 11
-44.406244
 21
25.223614
 31
0.0
  0
LINE
  5
12D
100
AcDbEntity
  8
0
 62
     0
100
AcDbLine
 10
-43.365227
 20
25.360666
 30
0.0
 11
-43.365227
 21
25.360666
 31
0.0
  0
LINE
  5
12E
100
AcDbEntity
  8
0
 62
     0
100
AcDbLine
 10
-41.739257
 20
25.574729
 30
0.0
 11
-41.739257
 21
25.574729
 31
0.0
  0
LINE
  5
12F
100
AcDbEntity
  8
0
 62
     0
100
AcDbLine
 10
-39.022698
 20
25.932371
 30
0.0
 11
-39.022698
 21
25.932371
 31
0.0
  0
LINE
  5
130
100
AcDbEntity
  8
0
 62
     0
100
AcDbLine
 10
-37.981681
 20
26.069423
 30
0.0
 11
-37.981681
 21
26.069423
 31
0.0
  0
LINE
  5
131
100
AcDbEntity
  8
0
 62
     0
100
AcDbLine
 10
-36.355712
 20
26.283486
 30
0.0
 11
-36.355712
 21
26.283486
 31
0.0
  0
LINE
  5
132
100
AcDbEntity
  8
0
 62
     0
100
AcDbLine
 10
-33.639153
 20
26.641128
 30
0.0
 11
-33.639153
 21
26.641128
 31
0.0
  0
LINE
  5
133
100
AcDbEntity
  8
0
 62
     0
100
AcDbLine
 10
-32.598136
 20
26.778181
 30
0.0
 11
-32.598136
 21
26.778181
 31
0.0
  0
LINE
  5
134
100
AcDbEntity
  8
0
 62
     0
100
AcDbLine
 10
-30.972166
 20
26.992244
 30
0.0
 11
-30.972166
 21
26.992244
 31
0.0
  0
LINE
  5
135
100
AcDbEntity
  8
0
 62
     0
100
AcDbLine
 10
-46.250236
 20
30.159149
 30
0.0
 11
-46.250236
 21
30.159149
 31
0.0
  0
LINE
  5
136
100
AcDbEntity
  8
0
 62
     0
100
AcDbLine
 10
-45.209219
 20
30.296201
 30
0.0
 11
-45.209219
 21
30.296201
 31
0.0
  0
LINE
  5
137
100
AcDbEntity
  8
0
 62
     0
100
AcDbLine
 10
-43.583249
 20
30.510264
 30
0.0
 11
-43.583249
 21
30.510264
 31
0.0
  0
LINE
  5
138
100
AcDbEntity
  8
0
 62
     0
100
AcDbLine
 10
-43.292959
 20
29.992636
 30
0.0
 11
-43.292959
 21
29.992636
 31
0.0
  0
LINE
  5
139
100
AcDbEntity
  8
0
 62
     0
100
AcDbLine
 10
-42.449568
 20
29.455337
 30
0.0
 11
-42.449568
 21
29.455337
 31
0.0
  0
LINE
  5
13A
100
AcDbEntity
  8
0
 62
     0
100
AcDbLine
 10
-39.413358
 20
27.521058
 30
0.0
 11
-39.413358
 21
27.521058
 31
0.0
  0
LINE
  5
13B
100
AcDbEntity
  8
0
 62
     0
100
AcDbLine
 10
-36.221284
 20
29.466655
 30
0.0
 11
-36.221284
 21
29.466655
 31
0.0
  0
LINE
  5
13C
100
AcDbEntity
  8
0
 62
     0
100
AcDbLine
 10
-33.185075
 20
27.532376
 30
0.0
 11
-33.185075
 21
27.532376
 31
0.0
  0
LINE
  5
13D
100
AcDbEntity
  8
0
 62
     0
100
AcDbLine
 10
-29.221135
 20
25.007068
 30
0.0
 11
-29.221135
 21
25.007068
 31
0.0
  0
LINE
  5
13E
100
AcDbEntity
  8
0
 62
     0
100
AcDbLine
 10
-30.836392
 20
30.015272
 30
0.0
 11
-30.836392
 21
30.015272
 31
0.0
  0
LINE
  5
13F
100
AcDbEntity
  8
0
 62
     0
100
AcDbLine
 10
-45.641642
 20
27.50974
 30
0.0
 11
-45.641642
 21
27.50974
 31
0.0
  0
LINE
  5
140
100
AcDbEntity
  8
0
 62
     0
100
AcDbLine
 10
-34.885457
 20
29.712457
 30
0.0
 11
-34.885457
 21
29.712457
 31
0.0
  0
LINE
  5
141
100
AcDbEntity
  8
0
 62
     0
100
AcDbLine
 10
-33.145483
 20
28.118064
 30
0.0
 11
-33.145483
 21
28.118064
 31
0.0
  0
LINE
  5
142
100
AcDbEntity
  8
0
 62
     0
100
AcDbLine
 10
-31.154834
 20
26.293971
 30
0.0
 11
-31.154834
 21
26.293971
 31
0.0
  0
LINE
  5
143
100
AcDbEntity
  8
0
 62
     0
100
AcDbLine
 10
-30.786195
 20
25.956176
 30
0.0
 11
-30.786195
 21
25.956176
 31
0.0
  0
LINE
  5
144
100
AcDbEntity
  8
0
 62
     0
100
AcDbLine
 10
-43.256998
 20
30.118995
 30
0.0
 11
-43.256998
 21
30.118995
 31
0.0
  0
LINE
  5
145
100
AcDbEntity
  8
0
 62
     0
100
AcDbLine
 10
-41.266349
 20
28.294901
 30
0.0
 11
-41.266349
 21
28.294901
 31
0.0
  0
LINE
  5
146
100
AcDbEntity
  8
0
 62
     0
100
AcDbLine
 10
-40.89771
 20
27.957106
 30
0.0
 11
-40.89771
 21
27.957106
 31
0.0
  0
LINE
  5
147
100
AcDbEntity
  8
0
 62
     0
100
AcDbLine
 10
-39.157736
 20
26.362713
 30
0.0
 11
-39.157736
 21
26.362713
 31
0.0
  0
LINE
  5
148
100
AcDbEntity
  8
0
 62
     0
100
AcDbLine
 10
-46.909964
 20
26.201755
 30
0.0
 11
-46.909964
 21
26.201755
 31
0.0
  0
ENDBLK
  5
14A
100
AcDbEntity
  8
0
100
AcDbBlockEnd
  0
BLOCK
  5
168
100
AcDbEntity
  8
0
100
AcDbBlockBegin
  2
GLAS6-6X5
 70
     0
 10
0.0
 20
0.0
 30
0.0
  3
GLAS6-6X5
  1

  0
INSERT
  5
122
100
AcDbEntity
  8
GLAS_MED_FOGNING
100
AcDbBlockReference
  2
*X26
 10
50.0
 20
0.0
 30
0.0
1001
ACAD
1000
HATCH
1002
{
1070
    16
1000
AR-SAND
1040
2.0
1040
0.0
1002
}
  0
LINE
  5
14B
100
AcDbEntity
  8
GLAS_MED_FOGNING
100
AcDbLine
 10
9.0
 20
49.0
 30
0.0
 11
9.0
 21
30.0
 31
0.0
  0
LINE
  5
14C
100
AcDbEntity
  8
GLAS_MED_FOGNING
100
AcDbLine
 10
15.0
 20
49.0
 30
0.0
 11
15.0
 21
30.0
 31
0.0
  0
LINE
  5
14D
100
AcDbEntity
  8
GLAS_MED_FOGNING
100
AcDbLine
 10
15.0
 20
30.0
 30
0.0
 11
9.0
 21
30.0
 31
0.0
  0
LINE
  5
14E
100
AcDbEntity
  8
GLAS_MED_FOGNING
100
AcDbLine
 10
9.0
 20
32.0
 30
0.0
 11
3.0
 21
32.0
 31
0.0
  0
LINE
  5
14F
100
AcDbEntity
  8
GLAS_MED_FOGNING
100
AcDbLine
 10
9.0
 20
34.0
 30
0.0
 11
3.0
 21
34.0
 31
0.0
  0
LINE
  5
150
100
AcDbEntity
  8
GLAS_MED_FOGNING
100
AcDbLine
 10
9.0
 20
33.0
 30
0.0
 11
3.0
 21
33.0
 31
0.0
  0
LINE
  5
151
100
AcDbEntity
  8
GLAS_MED_FOGNING
100
AcDbLine
 10
9.0
 20
35.0
 30
0.0
 11
3.0
 21
35.0
 31
0.0
  0
LINE
  5
152
100
AcDbEntity
  8
GLAS_MED_FOGNING
100
AcDbLine
 10
9.0
 20
36.0
 30
0.0
 11
3.0
 21
36.0
 31
0.0
  0
LINE
  5
153
100
AcDbEntity
  8
GLAS_MED_FOGNING
100
AcDbLine
 10
9.0
 20
37.0
 30
0.0
 11
3.0
 21
37.0
 31
0.0
  0
LINE
  5
154
100
AcDbEntity
  8
GLAS_MED_FOGNING
100
AcDbLine
 10
9.0
 20
31.0
 30
0.0
 11
3.0
 21
31.0
 31
0.0
  0
LINE
  5
155
100
AcDbEntity
  8
GLAS_MED_FOGNING
100
AcDbLine
 10
20.0
 20
32.0
 30
0.0
 11
15.0
 21
32.0
 31
0.0
  0
LINE
  5
156
100
AcDbEntity
  8
GLAS_MED_FOGNING
100
AcDbLine
 10
20.0
 20
33.0
 30
0.0
 11
15.0
 21
33.0
 31
0.0
  0
LINE
  5
157
100
AcDbEntity
  8
GLAS_MED_FOGNING
100
AcDbLine
 10
20.0
 20
34.0
 30
0.0
 11
15.0
 21
34.0
 31
0.0
  0
LINE
  5
158
100
AcDbEntity
  8
GLAS_MED_FOGNING
100
AcDbLine
 10
20.0
 20
35.0
 30
0.0
 11
15.0
 21
35.0
 31
0.0
  0
LINE
  5
159
100
AcDbEntity
  8
GLAS_MED_FOGNING
100
AcDbLine
 10
20.0
 20
36.0
 30
0.0
 11
15.0
 21
36.0
 31
0.0
  0
LINE
  5
15A
100
AcDbEntity
  8
GLAS_MED_FOGNING
100
AcDbLine
 10
20.0
 20
37.0
 30
0.0
 11
15.0
 21
37.0
 31
0.0
  0
LINE
  5
15B
100
AcDbEntity
  8
GLAS_MED_FOGNING
100
AcDbLine
 10
20.0
 20
31.0
 30
0.0
 11
15.0
 21
31.0
 31
0.0
  0
ARC
  5
15C
100
AcDbEntity
  8
GLAS_MED_FOGNING
100
AcDbCircle
 10
20.0
 20
48.0
 30
0.0
 40
5.0
100
AcDbArc
 50
180.0
 51
270.0
  0
LINE
  5
15D
100
AcDbEntity
  8
GLAS_MED_FOGNING
100
AcDbLine
 10
9.0
 20
38.0
 30
0.0
 11
3.0
 21
38.0
 31
0.0
  0
LINE
  5
15E
100
AcDbEntity
  8
GLAS_MED_FOGNING
100
AcDbLine
 10
9.0
 20
40.0
 30
0.0
 11
3.0
 21
40.0
 31
0.0
  0
LINE
  5
15F
100
AcDbEntity
  8
GLAS_MED_FOGNING
100
AcDbLine
 10
9.0
 20
39.0
 30
0.0
 11
3.0
 21
39.0
 31
0.0
  0
LINE
  5
160
100
AcDbEntity
  8
GLAS_MED_FOGNING
100
AcDbLine
 10
9.0
 20
41.0
 30
0.0
 11
3.0
 21
41.0
 31
0.0
  0
INSERT
  5
161
100
AcDbEntity
  8
GLAS_MED_FOGNING
100
AcDbBlockReference
  2
*X21
 10
50.0
 20
0.0
 30
0.0
1001
ACAD
1000
HATCH
1002
{
1070
    16
1000
AR-SAND
1040
2.0
1040
0.0
1002
}
  0
ARC
  5
162
100
AcDbEntity
  8
GLAS_MED_FOGNING
100
AcDbCircle
 10
3.0
 20
49.0
 30
0.0
 40
6.0
100
AcDbArc
 50
270.0
 51
0.0
  0
LINE
  5
163
100
AcDbEntity
  8
GLAS_MED_FOGNING
100
AcDbLine
 10
20.0
 20
38.0
 30
0.0
 11
15.0
 21
38.0
 31
0.0
  0
LINE
  5
164
100
AcDbEntity
  8
GLAS_MED_FOGNING
100
AcDbLine
 10
20.0
 20
39.0
 30
0.0
 11
15.0
 21
39.0
 31
0.0
  0
LINE
  5
165
100
AcDbEntity
  8
GLAS_MED_FOGNING
100
AcDbLine
 10
20.0
 20
40.0
 30
0.0
 11
15.0
 21
40.0
 31
0.0
  0
LINE
  5
166
100
AcDbEntity
  8
GLAS_MED_FOGNING
100
AcDbLine
 10
20.0
 20
41.0
 30
0.0
 11
15.0
 21
41.0
 31
0.0
  0
INSERT
  5
167
100
AcDbEntity
  8
GLAS_MED_FOGNING
100
AcDbBlockReference
  2
*X22
 10
50.0
 20
0.0
 30
0.0
1001
ACAD
1000
HATCH
1002
{
1070
    16
1000
AR-SAND
1040
2.0
1040
0.0
1002
}
  0
ENDBLK
  5
169
100
AcDbEntity
  8
0
100
AcDbBlockEnd
  0
BLOCK
  5
16B
100
AcDbEntity
  8
0
100
AcDbBlockBegin
  2
50_SP93020
 70
     0
 10
0.0
 20
0.0
 30
0.0
  3
50_SP93020
  1

  0
LINE
  5
117
100
AcDbEntity
  8
GLAS_MED_FOGNING
100
AcDbLine
 10
-35.0
 20
57.5
 30
0.0
 11
-35.0
 21
49.0
 31
0.0
  0
LINE
  5
118
100
AcDbEntity
  8
GLAS_MED_FOGNING
100
AcDbLine
 10
-41.0
 20
57.5
 30
0.0
 11
-41.0
 21
49.0
 31
0.0
  0
INSERT
  5
119
100
AcDbEntity
  8
0
100
AcDbBlockReference
  2
SP93020
 10
0.0
 20
0.0
 30
0.0
  0
INSERT
  5
120
100
AcDbEntity
  8
0
100
AcDbBlockReference
  2
GLAS6-6X5
 10
-50.0
 20
0.0
 30
0.0
  0
LWPOLYLINE
  5
16A
100
AcDbEntity
  8
CENTRUM
100
AcDbPolyline
 90
        4
 70
     0
 43
0.0
 10
0.0
 20
57.5
 10
-35.0
 20
57.5
 10
-41.0
 20
57.5
 10
-50.0
 20
57.5
  0
ENDBLK
  5
16C
100
AcDbEntity
  8
0
100
AcDbBlockEnd
  0
BLOCK
  5
262
100
AcDbEntity
  8
0
100
AcDbBlockBegin
  2
50_SP93020DK
 70
     0
 10
0.0
 20
0.0
 30
0.0
  3
50_SP93020DK
  1

  0
INSERT
  5
237
100
AcDbEntity
  8
0
100
AcDbBlockReference
  2
SP93020
 10
0.0
 20
0.0
 30
0.0
  0
LWPOLYLINE
  5
238
100
AcDbEntity
  8
CENTRUM
100
AcDbPolyline
 90
        4
 70
     0
 43
0.0
 10
0.0
 20
57.5
 10
-35.0
 20
57.5
 10
-41.0
 20
57.5
 10
-50.0
 20
57.5
  0
INSERT
  5
239
100
AcDbEntity
  8
0
100
AcDbBlockReference
  2
GLAS6-6X5DK
 10
-50.0
 20
0.0
 30
0.0
  0
LINE
  5
260
100
AcDbEntity
  8
GLAS_MED_FOGNING
100
AcDbLine
 10
-41.0
 20
57.5
 30
0.0
 11
-41.0
 21
49.0
 31
0.0
  0
LINE
  5
261
100
AcDbEntity
  8
GLAS_MED_FOGNING
100
AcDbLine
 10
-35.0
 20
57.5
 30
0.0
 11
-35.0
 21
49.0
 31
0.0
  0
ENDBLK
  5
263
100
AcDbEntity
  8
0
100
AcDbBlockEnd
  0
BLOCK
  5
5DD
100
AcDbEntity
  8
0
100
AcDbBlockBegin
  2
GLAS11-6X5DK
 70
     0
 10
0.0
 20
0.0
 30
0.0
  3
GLAS11-6X5DK
  1

  0
LINE
  5
5BA
100
AcDbEntity
  8
GLAS_MED_FOGNING
100
AcDbLine
 10
9.0
 20
49.0
 30
0.0
 11
9.0
 21
30.0
 31
0.0
  0
LINE
  5
5BB
100
AcDbEntity
  8
GLAS_MED_FOGNING
100
AcDbLine
 10
20.0
 20
49.0
 30
0.0
 11
20.0
 21
30.0
 31
0.0
  0
INSERT
  5
5BC
100
AcDbEntity
  8
GLAS_MED_FOGNING
100
AcDbBlockReference
  2
*X24
 10
55.0
 20
0.0
 30
0.0
1001
ACAD
1000
HATCH
1002
{
1070
    16
1000
AR-SAND
1040
2.0
1040
0.0
1002
}
  0
LINE
  5
5BD
100
AcDbEntity
  8
GLAS_MED_FOGNING
100
AcDbLine
 10
20.0
 20
30.0
 30
0.0
 11
9.0
 21
25.0
 31
0.0
  0
LINE
  5
5BE
100
AcDbEntity
  8
GLAS_MED_FOGNING
100
AcDbLine
 10
9.0
 20
30.0
 30
0.0
 11
20.0
 21
25.0
 31
0.0
  0
LINE
  5
5BF
100
AcDbEntity
  8
GLAS_MED_FOGNING
100
AcDbLine
 10
20.0
 20
30.0
 30
0.0
 11
9.0
 21
30.0
 31
0.0
  0
LINE
  5
5C0
100
AcDbEntity
  8
GLAS_MED_FOGNING
100
AcDbLine
 10
9.0
 20
32.0
 30
0.0
 11
3.0
 21
32.0
 31
0.0
  0
LINE
  5
5C1
100
AcDbEntity
  8
GLAS_MED_FOGNING
100
AcDbLine
 10
9.0
 20
34.0
 30
0.0
 11
3.0
 21
34.0
 31
0.0
  0
LINE
  5
5C2
100
AcDbEntity
  8
GLAS_MED_FOGNING
100
AcDbLine
 10
9.0
 20
33.0
 30
0.0
 11
3.0
 21
33.0
 31
0.0
  0
LINE
  5
5C3
100
AcDbEntity
  8
GLAS_MED_FOGNING
100
AcDbLine
 10
9.0
 20
31.0
 30
0.0
 11
3.0
 21
31.0
 31
0.0
  0
LINE
  5
5C4
100
AcDbEntity
  8
GLAS_MED_FOGNING
100
AcDbLine
 10
9.0
 20
30.0
 30
0.0
 11
9.0
 21
25.0
 31
0.0
  0
INSERT
  5
5C5
100
AcDbEntity
  8
GLAS_MED_FOGNING
100
AcDbBlockReference
  2
*X23
 10
50.0
 20
0.0
 30
0.0
1001
ACAD
1000
HATCH
1002
{
1070
    16
1000
AR-SAND
1040
2.0
1040
0.0
1002
}
  0
LINE
  5
5C6
100
AcDbEntity
  8
GLAS_MED_FOGNING
100
AcDbLine
 10
25.0
 20
31.0
 30
0.0
 11
20.0
 21
31.0
 31
0.0
  0
LINE
  5
5C7
100
AcDbEntity
  8
GLAS_MED_FOGNING
100
AcDbLine
 10
25.0
 20
34.0
 30
0.0
 11
20.0
 21
34.0
 31
0.0
  0
LINE
  5
5C8
100
AcDbEntity
  8
GLAS_MED_FOGNING
100
AcDbLine
 10
25.0
 20
33.0
 30
0.0
 11
20.0
 21
33.0
 31
0.0
  0
LINE
  5
5C9
100
AcDbEntity
  8
GLAS_MED_FOGNING
100
AcDbLine
 10
25.0
 20
32.0
 30
0.0
 11
20.0
 21
32.0
 31
0.0
  0
LINE
  5
5CA
100
AcDbEntity
  8
GLAS_MED_FOGNING
100
AcDbLine
 10
20.0
 20
30.0
 30
0.0
 11
20.0
 21
25.0
 31
0.0
  0
INSERT
  5
5CB
100
AcDbEntity
  8
GLAS_MED_FOGNING
100
AcDbBlockReference
  2
*X21
 10
50.0
 20
0.0
 30
0.0
1001
ACAD
1000
HATCH
1002
{
1070
    16
1000
AR-SAND
1040
2.0
1040
0.0
1002
}
  0
ARC
  5
5CC
100
AcDbEntity
  8
GLAS_MED_FOGNING
100
AcDbCircle
 10
3.0
 20
49.0
 30
0.0
 40
6.0
100
AcDbArc
 50
270.0
 51
0.0
  0
ARC
  5
5CD
100
AcDbEntity
  8
GLAS_MED_FOGNING
100
AcDbCircle
 10
25.0
 20
48.0
 30
0.0
 40
5.0
100
AcDbArc
 50
180.0
 51
270.0
  0
LINE
  5
5CE
100
AcDbEntity
  8
GLAS_MED_FOGNING
100
AcDbLine
 10
9.0
 20
35.0
 30
0.0
 11
3.0
 21
35.0
 31
0.0
  0
LINE
  5
5CF
100
AcDbEntity
  8
GLAS_MED_FOGNING
100
AcDbLine
 10
9.0
 20
36.0
 30
0.0
 11
3.0
 21
36.0
 31
0.0
  0
LINE
  5
5D0
100
AcDbEntity
  8
GLAS_MED_FOGNING
100
AcDbLine
 10
9.0
 20
38.0
 30
0.0
 11
3.0
 21
38.0
 31
0.0
  0
LINE
  5
5D1
100
AcDbEntity
  8
GLAS_MED_FOGNING
100
AcDbLine
 10
9.0
 20
37.0
 30
0.0
 11
3.0
 21
37.0
 31
0.0
  0
LINE
  5
5D2
100
AcDbEntity
  8
GLAS_MED_FOGNING
100
AcDbLine
 10
9.0
 20
40.0
 30
0.0
 11
3.0
 21
40.0
 31
0.0
  0
LINE
  5
5D3
100
AcDbEntity
  8
GLAS_MED_FOGNING
100
AcDbLine
 10
9.0
 20
39.0
 30
0.0
 11
3.0
 21
39.0
 31
0.0
  0
LINE
  5
5D4
100
AcDbEntity
  8
GLAS_MED_FOGNING
100
AcDbLine
 10
9.0
 20
41.0
 30
0.0
 11
3.0
 21
41.0
 31
0.0
  0
LINE
  5
5D5
100
AcDbEntity
  8
GLAS_MED_FOGNING
100
AcDbLine
 10
25.0
 20
41.0
 30
0.0
 11
20.0
 21
41.0
 31
0.0
  0
LINE
  5
5D6
100
AcDbEntity
  8
GLAS_MED_FOGNING
100
AcDbLine
 10
25.0
 20
40.0
 30
0.0
 11
20.0
 21
40.0
 31
0.0
  0
LINE
  5
5D7
100
AcDbEntity
  8
GLAS_MED_FOGNING
100
AcDbLine
 10
25.0
 20
39.0
 30
0.0
 11
20.0
 21
39.0
 31
0.0
  0
LINE
  5
5D8
100
AcDbEntity
  8
GLAS_MED_FOGNING
100
AcDbLine
 10
25.0
 20
38.0
 30
0.0
 11
20.0
 21
38.0
 31
0.0
  0
LINE
  5
5D9
100
AcDbEntity
  8
GLAS_MED_FOGNING
100
AcDbLine
 10
25.0
 20
37.0
 30
0.0
 11
20.0
 21
37.0
 31
0.0
  0
LINE
  5
5DA
100
AcDbEntity
  8
GLAS_MED_FOGNING
100
AcDbLine
 10
25.0
 20
36.0
 30
0.0
 11
20.0
 21
36.0
 31
0.0
  0
LINE
  5
5DB
100
AcDbEntity
  8
GLAS_MED_FOGNING
100
AcDbLine
 10
25.0
 20
35.0
 30
0.0
 11
20.0
 21
35.0
 31
0.0
  0
INSERT
  5
5DC
100
AcDbEntity
  8
GLAS_MED_FOGNING
100
AcDbBlockReference
  2
*X22
 10
55.0
 20
0.0
 30
0.0
1001
ACAD
1000
HATCH
1002
{
1070
    16
1000
AR-SAND
1040
2.0
1040
0.0
1002
}
  0
ENDBLK
  5
5DE
100
AcDbEntity
  8
0
100
AcDbBlockEnd
  0
BLOCK
  5
4F
100
AcDbEntity
  8
0
100
AcDbBlockBegin
  2
*X31
 70
     1
 10
0.0
 20
0.0
 30
0.0
  3
*X31
  1

  0
LINE
  5
22
100
AcDbEntity
  8
0
 62
     0
100
AcDbLine
 10
-32.388203
 20
26.501825
 30
0.0
 11
-32.388203
 21
26.501825
 31
0.0
  0
LINE
  5
23
100
AcDbEntity
  8
0
 62
     0
100
AcDbLine
 10
-29.976409
 20
28.35246
 30
0.0
 11
-29.976409
 21
28.35246
 31
0.0
  0
LINE
  5
24
100
AcDbEntity
  8
0
 62
     0
100
AcDbLine
 10
-27.279007
 20
30.422249
 30
0.0
 11
-27.279007
 21
30.422249
 31
0.0
  0
LINE
  5
25
100
AcDbEntity
  8
0
 62
     0
100
AcDbLine
 10
-37.789989
 20
26.307209
 30
0.0
 11
-37.789989
 21
26.307209
 31
0.0
  0
LINE
  5
26
100
AcDbEntity
  8
0
 62
     0
100
AcDbLine
 10
-35.092588
 20
28.376998
 30
0.0
 11
-35.092588
 21
28.376998
 31
0.0
  0
LINE
  5
27
100
AcDbEntity
  8
0
 62
     0
100
AcDbLine
 10
-42.906168
 20
26.331747
 30
0.0
 11
-42.906168
 21
26.331747
 31
0.0
  0
LINE
  5
28
100
AcDbEntity
  8
0
 62
     0
100
AcDbLine
 10
-40.32777
 20
28.310222
 30
0.0
 11
-40.32777
 21
28.310222
 31
0.0
  0
LINE
  5
29
100
AcDbEntity
  8
0
 62
     0
100
AcDbLine
 10
-45.729557
 20
28.115606
 30
0.0
 11
-45.729557
 21
28.115606
 31
0.0
  0
LINE
  5
2A
100
AcDbEntity
  8
0
 62
     0
100
AcDbLine
 10
-43.032155
 20
30.185395
 30
0.0
 11
-43.032155
 21
30.185395
 31
0.0
  0
LINE
  5
2B
100
AcDbEntity
  8
0
 62
     0
100
AcDbLine
 10
-27.153021
 20
26.568601
 30
0.0
 11
-27.153021
 21
26.568601
 31
0.0
  0
LINE
  5
2C
100
AcDbEntity
  8
0
 62
     0
100
AcDbLine
 10
-44.406244
 20
25.223614
 30
0.0
 11
-44.406244
 21
25.223614
 31
0.0
  0
LINE
  5
2D
100
AcDbEntity
  8
0
 62
     0
100
AcDbLine
 10
-43.365227
 20
25.360666
 30
0.0
 11
-43.365227
 21
25.360666
 31
0.0
  0
LINE
  5
2E
100
AcDbEntity
  8
0
 62
     0
100
AcDbLine
 10
-41.739257
 20
25.574729
 30
0.0
 11
-41.739257
 21
25.574729
 31
0.0
  0
LINE
  5
2F
100
AcDbEntity
  8
0
 62
     0
100
AcDbLine
 10
-39.022698
 20
25.932371
 30
0.0
 11
-39.022698
 21
25.932371
 31
0.0
  0
LINE
  5
30
100
AcDbEntity
  8
0
 62
     0
100
AcDbLine
 10
-37.981681
 20
26.069423
 30
0.0
 11
-37.981681
 21
26.069423
 31
0.0
  0
LINE
  5
31
100
AcDbEntity
  8
0
 62
     0
100
AcDbLine
 10
-36.355712
 20
26.283486
 30
0.0
 11
-36.355712
 21
26.283486
 31
0.0
  0
LINE
  5
32
100
AcDbEntity
  8
0
 62
     0
100
AcDbLine
 10
-33.639153
 20
26.641128
 30
0.0
 11
-33.639153
 21
26.641128
 31
0.0
  0
LINE
  5
33
100
AcDbEntity
  8
0
 62
     0
100
AcDbLine
 10
-32.598136
 20
26.778181
 30
0.0
 11
-32.598136
 21
26.778181
 31
0.0
  0
LINE
  5
34
100
AcDbEntity
  8
0
 62
     0
100
AcDbLine
 10
-30.972166
 20
26.992244
 30
0.0
 11
-30.972166
 21
26.992244
 31
0.0
  0
LINE
  5
35
100
AcDbEntity
  8
0
 62
     0
100
AcDbLine
 10
-28.255607
 20
27.349885
 30
0.0
 11
-28.255607
 21
27.349885
 31
0.0
  0
LINE
  5
36
100
AcDbEntity
  8
0
 62
     0
100
AcDbLine
 10
-27.21459
 20
27.486938
 30
0.0
 11
-27.21459
 21
27.486938
 31
0.0
  0
LINE
  5
37
100
AcDbEntity
  8
0
 62
     0
100
AcDbLine
 10
-25.58862
 20
27.701001
 30
0.0
 11
-25.58862
 21
27.701001
 31
0.0
  0
LINE
  5
38
100
AcDbEntity
  8
0
 62
     0
100
AcDbLine
 10
-46.250236
 20
30.159149
 30
0.0
 11
-46.250236
 21
30.159149
 31
0.0
  0
LINE
  5
39
100
AcDbEntity
  8
0
 62
     0
100
AcDbLine
 10
-45.209219
 20
30.296201
 30
0.0
 11
-45.209219
 21
30.296201
 31
0.0
  0
LINE
  5
3A
100
AcDbEntity
  8
0
 62
     0
100
AcDbLine
 10
-43.583249
 20
30.510264
 30
0.0
 11
-43.583249
 21
30.510264
 31
0.0
  0
LINE
  5
3B
100
AcDbEntity
  8
0
 62
     0
100
AcDbLine
 10
-43.292959
 20
29.992636
 30
0.0
 11
-43.292959
 21
29.992636
 31
0.0
  0
LINE
  5
3C
100
AcDbEntity
  8
0
 62
     0
100
AcDbLine
 10
-42.449568
 20
29.455337
 30
0.0
 11
-42.449568
 21
29.455337
 31
0.0
  0
LINE
  5
3D
100
AcDbEntity
  8
0
 62
     0
100
AcDbLine
 10
-39.413358
 20
27.521058
 30
0.0
 11
-39.413358
 21
27.521058
 31
0.0
  0
LINE
  5
3E
100
AcDbEntity
  8
0
 62
     0
100
AcDbLine
 10
-36.221284
 20
29.466655
 30
0.0
 11
-36.221284
 21
29.466655
 31
0.0
  0
LINE
  5
3F
100
AcDbEntity
  8
0
 62
     0
100
AcDbLine
 10
-33.185075
 20
27.532376
 30
0.0
 11
-33.185075
 21
27.532376
 31
0.0
  0
LINE
  5
40
100
AcDbEntity
  8
0
 62
     0
100
AcDbLine
 10
-29.221135
 20
25.007068
 30
0.0
 11
-29.221135
 21
25.007068
 31
0.0
  0
LINE
  5
41
100
AcDbEntity
  8
0
 62
     0
100
AcDbLine
 10
-29.993
 20
29.477973
 30
0.0
 11
-29.993
 21
29.477973
 31
0.0
  0
LINE
  5
42
100
AcDbEntity
  8
0
 62
     0
100
AcDbLine
 10
-26.956791
 20
27.543694
 30
0.0
 11
-26.956791
 21
27.543694
 31
0.0
  0
LINE
  5
43
100
AcDbEntity
  8
0
 62
     0
100
AcDbLine
 10
-45.641642
 20
27.50974
 30
0.0
 11
-45.641642
 21
27.50974
 31
0.0
  0
LINE
  5
44
100
AcDbEntity
  8
0
 62
     0
100
AcDbLine
 10
-34.885457
 20
29.712457
 30
0.0
 11
-34.885457
 21
29.712457
 31
0.0
  0
LINE
  5
45
100
AcDbEntity
  8
0
 62
     0
100
AcDbLine
 10
-33.145483
 20
28.118064
 30
0.0
 11
-33.145483
 21
28.118064
 31
0.0
  0
LINE
  5
46
100
AcDbEntity
  8
0
 62
     0
100
AcDbLine
 10
-31.154834
 20
26.293971
 30
0.0
 11
-31.154834
 21
26.293971
 31
0.0
  0
LINE
  5
47
100
AcDbEntity
  8
0
 62
     0
100
AcDbLine
 10
-30.786195
 20
25.956176
 30
0.0
 11
-30.786195
 21
25.956176
 31
0.0
  0
LINE
  5
48
100
AcDbEntity
  8
0
 62
     0
100
AcDbLine
 10
-27.13323
 20
29.873416
 30
0.0
 11
-27.13323
 21
29.873416
 31
0.0
  0
LINE
  5
49
100
AcDbEntity
  8
0
 62
     0
100
AcDbLine
 10
-25.142581
 20
28.049322
 30
0.0
 11
-25.142581
 21
28.049322
 31
0.0
  0
LINE
  5
4A
100
AcDbEntity
  8
0
 62
     0
100
AcDbLine
 10
-43.256998
 20
30.118995
 30
0.0
 11
-43.256998
 21
30.118995
 31
0.0
  0
LINE
  5
4B
100
AcDbEntity
  8
0
 62
     0
100
AcDbLine
 10
-41.266349
 20
28.294901
 30
0.0
 11
-41.266349
 21
28.294901
 31
0.0
  0
LINE
  5
4C
100
AcDbEntity
  8
0
 62
     0
100
AcDbLine
 10
-40.89771
 20
27.957106
 30
0.0
 11
-40.89771
 21
27.957106
 31
0.0
  0
LINE
  5
4D
100
AcDbEntity
  8
0
 62
     0
100
AcDbLine
 10
-39.157736
 20
26.362713
 30
0.0
 11
-39.157736
 21
26.362713
 31
0.0
  0
LINE
  5
4E
100
AcDbEntity
  8
0
 62
     0
100
AcDbLine
 10
-46.909964
 20
26.201755
 30
0.0
 11
-46.909964
 21
26.201755
 31
0.0
  0
ENDBLK
  5
50
100
AcDbEntity
  8
0
100
AcDbBlockEnd
  0
BLOCK
  5
84
100
AcDbEntity
  8
0
100
AcDbBlockBegin
  2
GLAS11-6X5
 70
     0
 10
0.0
 20
0.0
 30
0.0
  3
GLAS11-6X5
  1

  0
INSERT
  5
20
100
AcDbEntity
  8
GLAS_MED_FOGNING
100
AcDbBlockReference
  2
*X31
 10
50.0
 20
0.0
 30
0.0
1001
ACAD
1000
HATCH
1002
{
1070
    16
1000
AR-SAND
1040
2.0
1040
0.0
1002
}
  0
LINE
  5
51
100
AcDbEntity
  8
GLAS_MED_FOGNING
100
AcDbLine
 10
20.0
 20
49.0
 30
0.0
 11
20.0
 21
30.0
 31
0.0
  0
LINE
  5
52
100
AcDbEntity
  8
GLAS_MED_FOGNING
100
AcDbLine
 10
9.0
 20
49.0
 30
0.0
 11
9.0
 21
30.0
 31
0.0
  0
LINE
  5
53
100
AcDbEntity
  8
GLAS_MED_FOGNING
100
AcDbLine
 10
20.0
 20
30.0
 30
0.0
 11
9.0
 21
30.0
 31
0.0
  0
LINE
  5
54
100
AcDbEntity
  8
GLAS_MED_FOGNING
100
AcDbLine
 10
9.0
 20
37.0
 30
0.0
 11
3.0
 21
37.0
 31
0.0
  0
LINE
  5
55
100
AcDbEntity
  8
GLAS_MED_FOGNING
100
AcDbLine
 10
9.0
 20
36.0
 30
0.0
 11
3.0
 21
36.0
 31
0.0
  0
LINE
  5
56
100
AcDbEntity
  8
GLAS_MED_FOGNING
100
AcDbLine
 10
9.0
 20
35.0
 30
0.0
 11
3.0
 21
35.0
 31
0.0
  0
LINE
  5
57
100
AcDbEntity
  8
GLAS_MED_FOGNING
100
AcDbLine
 10
9.0
 20
33.0
 30
0.0
 11
3.0
 21
33.0
 31
0.0
  0
LINE
  5
58
100
AcDbEntity
  8
GLAS_MED_FOGNING
100
AcDbLine
 10
9.0
 20
34.0
 30
0.0
 11
3.0
 21
34.0
 31
0.0
  0
LINE
  5
59
100
AcDbEntity
  8
GLAS_MED_FOGNING
100
AcDbLine
 10
9.0
 20
32.0
 30
0.0
 11
3.0
 21
32.0
 31
0.0
  0
LINE
  5
5A
100
AcDbEntity
  8
GLAS_MED_FOGNING
100
AcDbLine
 10
9.0
 20
31.0
 30
0.0
 11
3.0
 21
31.0
 31
0.0
  0
LINE
  5
5B
100
AcDbEntity
  8
GLAS_MED_FOGNING
100
AcDbLine
 10
25.0
 20
32.0
 30
0.0
 11
20.0
 21
32.0
 31
0.0
  0
LINE
  5
5C
100
AcDbEntity
  8
GLAS_MED_FOGNING
100
AcDbLine
 10
25.0
 20
33.0
 30
0.0
 11
20.0
 21
33.0
 31
0.0
  0
LINE
  5
5D
100
AcDbEntity
  8
GLAS_MED_FOGNING
100
AcDbLine
 10
25.0
 20
34.0
 30
0.0
 11
20.0
 21
34.0
 31
0.0
  0
LINE
  5
5E
100
AcDbEntity
  8
GLAS_MED_FOGNING
100
AcDbLine
 10
25.0
 20
35.0
 30
0.0
 11
20.0
 21
35.0
 31
0.0
  0
LINE
  5
5F
100
AcDbEntity
  8
GLAS_MED_FOGNING
100
AcDbLine
 10
25.0
 20
36.0
 30
0.0
 11
20.0
 21
36.0
 31
0.0
  0
LINE
  5
60
100
AcDbEntity
  8
GLAS_MED_FOGNING
100
AcDbLine
 10
25.0
 20
37.0
 30
0.0
 11
20.0
 21
37.0
 31
0.0
  0
LINE
  5
61
100
AcDbEntity
  8
GLAS_MED_FOGNING
100
AcDbLine
 10
25.0
 20
31.0
 30
0.0
 11
20.0
 21
31.0
 31
0.0
  0
LINE
  5
62
100
AcDbEntity
  8
GLAS_MED_FOGNING
100
AcDbLine
 10
9.0
 20
41.0
 30
0.0
 11
3.0
 21
41.0
 31
0.0
  0
LINE
  5
63
100
AcDbEntity
  8
GLAS_MED_FOGNING
100
AcDbLine
 10
9.0
 20
39.0
 30
0.0
 11
3.0
 21
39.0
 31
0.0
  0
LINE
  5
64
100
AcDbEntity
  8
GLAS_MED_FOGNING
100
AcDbLine
 10
9.0
 20
40.0
 30
0.0
 11
3.0
 21
40.0
 31
0.0
  0
LINE
  5
65
100
AcDbEntity
  8
GLAS_MED_FOGNING
100
AcDbLine
 10
9.0
 20
38.0
 30
0.0
 11
3.0
 21
38.0
 31
0.0
  0
ARC
  5
66
100
AcDbEntity
  8
GLAS_MED_FOGNING
100
AcDbCircle
 10
3.0
 20
49.0
 30
0.0
 40
6.0
100
AcDbArc
 50
270.0
 51
0.0
  0
INSERT
  5
67
100
AcDbEntity
  8
GLAS_MED_FOGNING
100
AcDbBlockReference
  2
*X21
 10
50.0
 20
0.0
 30
0.0
1001
ACAD
1000
HATCH
1002
{
1070
    16
1000
AR-SAND
1040
2.0
1040
0.0
1002
}
  0
LINE
  5
73
100
AcDbEntity
  8
GLAS_MED_FOGNING
100
AcDbLine
 10
25.0
 20
38.0
 30
0.0
 11
20.0
 21
38.0
 31
0.0
  0
LINE
  5
74
100
AcDbEntity
  8
GLAS_MED_FOGNING
100
AcDbLine
 10
25.0
 20
39.0
 30
0.0
 11
20.0
 21
39.0
 31
0.0
  0
LINE
  5
75
100
AcDbEntity
  8
GLAS_MED_FOGNING
100
AcDbLine
 10
25.0
 20
40.0
 30
0.0
 11
20.0
 21
40.0
 31
0.0
  0
LINE
  5
76
100
AcDbEntity
  8
GLAS_MED_FOGNING
100
AcDbLine
 10
25.0
 20
41.0
 30
0.0
 11
20.0
 21
41.0
 31
0.0
  0
INSERT
  5
77
100
AcDbEntity
  8
GLAS_MED_FOGNING
100
AcDbBlockReference
  2
*X22
 10
55.0
 20
0.0
 30
0.0
1001
ACAD
1000
HATCH
1002
{
1070
    16
1000
AR-SAND
1040
2.0
1040
0.0
1002
}
  0
ARC
  5
83
100
AcDbEntity
  8
GLAS_MED_FOGNING
100
AcDbCircle
 10
25.0
 20
48.0
 30
0.0
 40
5.0
100
AcDbArc
 50
180.0
 51
270.0
  0
ENDBLK
  5
85
100
AcDbEntity
  8
0
100
AcDbBlockEnd
  0
BLOCK
  5
5E1
100
AcDbEntity
  8
0
100
AcDbBlockBegin
  2
50_SP92520-1DK
 70
     0
 10
0.0
 20
0.0
 30
0.0
  3
50_SP92520-1DK
  1

  0
LWPOLYLINE
  5
5B6
100
AcDbEntity
  8
CENTRUM
100
AcDbPolyline
 90
        4
 70
     0
 43
0.0
 10
0.0
 20
57.5
 10
-30.0
 20
57.5
 10
-41.0
 20
57.5
 10
-50.0
 20
57.5
  0
INSERT
  5
5B7
100
AcDbEntity
  8
0
100
AcDbBlockReference
  2
SP92520
 10
0.0
 20
0.0
 30
0.0
  0
INSERT
  5
5B8
100
AcDbEntity
  8
0
100
AcDbBlockReference
  2
GLAS11-6X5DK
 10
-50.0
 20
0.0
 30
0.0
  0
LINE
  5
5DF
100
AcDbEntity
  8
GLAS_MED_FOGNING
100
AcDbLine
 10
-41.0
 20
57.5
 30
0.0
 11
-41.0
 21
49.0
 31
0.0
  0
LINE
  5
5E0
100
AcDbEntity
  8
GLAS_MED_FOGNING
100
AcDbLine
 10
-30.0
 20
57.5
 30
0.0
 11
-30.0
 21
49.0
 31
0.0
  0
ENDBLK
  5
5E2
100
AcDbEntity
  8
0
100
AcDbBlockEnd
  0
BLOCK
  5
5B2
100
AcDbEntity
  8
0
100
AcDbBlockBegin
  2
50_SP92520-1
 70
     0
 10
0.0
 20
0.0
 30
0.0
  3
50_SP92520-1
  1

  0
INSERT
  5
5AD
100
AcDbEntity
  8
0
100
AcDbBlockReference
  2
SP92520
 10
0.0
 20
0.0
 30
0.0
  0
LWPOLYLINE
  5
5AE
100
AcDbEntity
  8
CENTRUM
100
AcDbPolyline
 90
        4
 70
     0
 43
0.0
 10
0.0
 20
57.5
 10
-30.0
 20
57.5
 10
-41.0
 20
57.5
 10
-50.0
 20
57.5
  0
LINE
  5
5AF
100
AcDbEntity
  8
GLAS_MED_FOGNING
100
AcDbLine
 10
-30.0
 20
57.5
 30
0.0
 11
-30.0
 21
49.0
 31
0.0
  0
LINE
  5
5B0
100
AcDbEntity
  8
GLAS_MED_FOGNING
100
AcDbLine
 10
-41.0
 20
57.5
 30
0.0
 11
-41.0
 21
49.0
 31
0.0
  0
INSERT
  5
5B1
100
AcDbEntity
  8
0
100
AcDbBlockReference
  2
GLAS11-6X5
 10
-50.0
 20
0.0
 30
0.0
  0
ENDBLK
  5
5B3
100
AcDbEntity
  8
0
100
AcDbBlockEnd
  0
BLOCK
  5
3DF
100
AcDbEntity
  8
0
100
AcDbBlockBegin
  2
GLAS16-6X5DK
 70
     0
 10
0.0
 20
0.0
 30
0.0
  3
GLAS16-6X5DK
  1

  0
LINE
  5
3BC
100
AcDbEntity
  8
GLAS_MED_FOGNING
100
AcDbLine
 10
9.0
 20
31.0
 30
0.0
 11
3.0
 21
31.0
 31
0.0
  0
LINE
  5
3BD
100
AcDbEntity
  8
GLAS_MED_FOGNING
100
AcDbLine
 10
9.0
 20
41.0
 30
0.0
 11
3.0
 21
41.0
 31
0.0
  0
LINE
  5
3BE
100
AcDbEntity
  8
GLAS_MED_FOGNING
100
AcDbLine
 10
9.0
 20
39.0
 30
0.0
 11
3.0
 21
39.0
 31
0.0
  0
LINE
  5
3BF
100
AcDbEntity
  8
GLAS_MED_FOGNING
100
AcDbLine
 10
9.0
 20
40.0
 30
0.0
 11
3.0
 21
40.0
 31
0.0
  0
LINE
  5
3C0
100
AcDbEntity
  8
GLAS_MED_FOGNING
100
AcDbLine
 10
9.0
 20
37.0
 30
0.0
 11
3.0
 21
37.0
 31
0.0
  0
LINE
  5
3C1
100
AcDbEntity
  8
GLAS_MED_FOGNING
100
AcDbLine
 10
9.0
 20
38.0
 30
0.0
 11
3.0
 21
38.0
 31
0.0
  0
LINE
  5
3C2
100
AcDbEntity
  8
GLAS_MED_FOGNING
100
AcDbLine
 10
9.0
 20
36.0
 30
0.0
 11
3.0
 21
36.0
 31
0.0
  0
LINE
  5
3C3
100
AcDbEntity
  8
GLAS_MED_FOGNING
100
AcDbLine
 10
9.0
 20
35.0
 30
0.0
 11
3.0
 21
35.0
 31
0.0
  0
LINE
  5
3C4
100
AcDbEntity
  8
GLAS_MED_FOGNING
100
AcDbLine
 10
9.0
 20
33.0
 30
0.0
 11
3.0
 21
33.0
 31
0.0
  0
LINE
  5
3C5
100
AcDbEntity
  8
GLAS_MED_FOGNING
100
AcDbLine
 10
9.0
 20
34.0
 30
0.0
 11
3.0
 21
34.0
 31
0.0
  0
LINE
  5
3C6
100
AcDbEntity
  8
GLAS_MED_FOGNING
100
AcDbLine
 10
9.0
 20
32.0
 30
0.0
 11
3.0
 21
32.0
 31
0.0
  0
INSERT
  5
3C7
100
AcDbEntity
  8
GLAS_MED_FOGNING
100
AcDbBlockReference
  2
*X23
 10
50.0
 20
0.0
 30
0.0
1001
ACAD
1000
HATCH
1002
{
1070
    16
1000
AR-SAND
1040
2.0
1040
0.0
1002
}
  0
ARC
  5
3C8
100
AcDbEntity
  8
GLAS_MED_FOGNING
100
AcDbCircle
 10
3.0
 20
49.0
 30
0.0
 40
6.0
100
AcDbArc
 50
270.0
 51
0.0
  0
LINE
  5
3C9
100
AcDbEntity
  8
GLAS_MED_FOGNING
100
AcDbLine
 10
9.0
 20
49.0
 30
0.0
 11
9.0
 21
30.0
 31
0.0
  0
LINE
  5
3CA
100
AcDbEntity
  8
GLAS_MED_FOGNING
100
AcDbLine
 10
25.0
 20
49.0
 30
0.0
 11
25.0
 21
30.0
 31
0.0
  0
ARC
  5
3CB
100
AcDbEntity
  8
GLAS_MED_FOGNING
100
AcDbCircle
 10
30.0
 20
48.0
 30
0.0
 40
5.0
100
AcDbArc
 50
180.0
 51
270.0
  0
LINE
  5
3CC
100
AcDbEntity
  8
GLAS_MED_FOGNING
100
AcDbLine
 10
30.0
 20
31.0
 30
0.0
 11
25.0
 21
31.0
 31
0.0
  0
LINE
  5
3CD
100
AcDbEntity
  8
GLAS_MED_FOGNING
100
AcDbLine
 10
30.0
 20
41.0
 30
0.0
 11
25.0
 21
41.0
 31
0.0
  0
LINE
  5
3CE
100
AcDbEntity
  8
GLAS_MED_FOGNING
100
AcDbLine
 10
30.0
 20
40.0
 30
0.0
 11
25.0
 21
40.0
 31
0.0
  0
LINE
  5
3CF
100
AcDbEntity
  8
GLAS_MED_FOGNING
100
AcDbLine
 10
30.0
 20
39.0
 30
0.0
 11
25.0
 21
39.0
 31
0.0
  0
LINE
  5
3D0
100
AcDbEntity
  8
GLAS_MED_FOGNING
100
AcDbLine
 10
30.0
 20
38.0
 30
0.0
 11
25.0
 21
38.0
 31
0.0
  0
LINE
  5
3D1
100
AcDbEntity
  8
GLAS_MED_FOGNING
100
AcDbLine
 10
30.0
 20
37.0
 30
0.0
 11
25.0
 21
37.0
 31
0.0
  0
LINE
  5
3D2
100
AcDbEntity
  8
GLAS_MED_FOGNING
100
AcDbLine
 10
30.0
 20
36.0
 30
0.0
 11
25.0
 21
36.0
 31
0.0
  0
LINE
  5
3D3
100
AcDbEntity
  8
GLAS_MED_FOGNING
100
AcDbLine
 10
30.0
 20
35.0
 30
0.0
 11
25.0
 21
35.0
 31
0.0
  0
LINE
  5
3D4
100
AcDbEntity
  8
GLAS_MED_FOGNING
100
AcDbLine
 10
30.0
 20
34.0
 30
0.0
 11
25.0
 21
34.0
 31
0.0
  0
LINE
  5
3D5
100
AcDbEntity
  8
GLAS_MED_FOGNING
100
AcDbLine
 10
30.0
 20
33.0
 30
0.0
 11
25.0
 21
33.0
 31
0.0
  0
LINE
  5
3D6
100
AcDbEntity
  8
GLAS_MED_FOGNING
100
AcDbLine
 10
30.0
 20
32.0
 30
0.0
 11
25.0
 21
32.0
 31
0.0
  0
INSERT
  5
3D7
100
AcDbEntity
  8
GLAS_MED_FOGNING
100
AcDbBlockReference
  2
*X24
 10
60.0
 20
0.0
 30
0.0
1001
ACAD
1000
HATCH
1002
{
1070
    16
1000
AR-SAND
1040
2.0
1040
0.0
1002
}
  0
INSERT
  5
3D8
100
AcDbEntity
  8
GLAS_MED_FOGNING
100
AcDbBlockReference
  2
*X22
 10
60.0
 20
0.0
 30
0.0
1001
ACAD
1000
HATCH
1002
{
1070
    16
1000
AR-SAND
1040
2.0
1040
0.0
1002
}
  0
LINE
  5
3D9
100
AcDbEntity
  8
GLAS_MED_FOGNING
100
AcDbLine
 10
25.0
 20
30.0
 30
0.0
 11
9.0
 21
25.0
 31
0.0
  0
LINE
  5
3DA
100
AcDbEntity
  8
GLAS_MED_FOGNING
100
AcDbLine
 10
9.0
 20
30.0
 30
0.0
 11
25.0
 21
25.0
 31
0.0
  0
LINE
  5
3DB
100
AcDbEntity
  8
GLAS_MED_FOGNING
100
AcDbLine
 10
25.0
 20
30.0
 30
0.0
 11
9.0
 21
30.0
 31
0.0
  0
LINE
  5
3DC
100
AcDbEntity
  8
GLAS_MED_FOGNING
100
AcDbLine
 10
9.0
 20
30.0
 30
0.0
 11
9.0
 21
25.0
 31
0.0
  0
LINE
  5
3DD
100
AcDbEntity
  8
GLAS_MED_FOGNING
100
AcDbLine
 10
25.0
 20
30.0
 30
0.0
 11
25.0
 21
25.0
 31
0.0
  0
INSERT
  5
3DE
100
AcDbEntity
  8
GLAS_MED_FOGNING
100
AcDbBlockReference
  2
*X21
 10
50.0
 20
0.0
 30
0.0
1001
ACAD
1000
HATCH
1002
{
1070
    16
1000
AR-SAND
1040
2.0
1040
0.0
1002
}
  0
ENDBLK
  5
3E0
100
AcDbEntity
  8
0
100
AcDbBlockEnd
  0
BLOCK
  5
308
100
AcDbEntity
  8
0
100
AcDbBlockBegin
  2
*X36
 70
     1
 10
0.0
 20
0.0
 30
0.0
  3
*X36
  1

  0
LINE
  5
2D0
100
AcDbEntity
  8
0
 62
     0
100
AcDbLine
 10
-32.388203
 20
26.501825
 30
0.0
 11
-32.388203
 21
26.501825
 31
0.0
  0
LINE
  5
2D1
100
AcDbEntity
  8
0
 62
     0
100
AcDbLine
 10
-29.976409
 20
28.35246
 30
0.0
 11
-29.976409
 21
28.35246
 31
0.0
  0
LINE
  5
2D2
100
AcDbEntity
  8
0
 62
     0
100
AcDbLine
 10
-37.789989
 20
26.307209
 30
0.0
 11
-37.789989
 21
26.307209
 31
0.0
  0
LINE
  5
2D3
100
AcDbEntity
  8
0
 62
     0
100
AcDbLine
 10
-35.092588
 20
28.376998
 30
0.0
 11
-35.092588
 21
28.376998
 31
0.0
  0
LINE
  5
2D4
100
AcDbEntity
  8
0
 62
     0
100
AcDbLine
 10
-42.906168
 20
26.331747
 30
0.0
 11
-42.906168
 21
26.331747
 31
0.0
  0
LINE
  5
2D5
100
AcDbEntity
  8
0
 62
     0
100
AcDbLine
 10
-40.32777
 20
28.310222
 30
0.0
 11
-40.32777
 21
28.310222
 31
0.0
  0
LINE
  5
2D6
100
AcDbEntity
  8
0
 62
     0
100
AcDbLine
 10
-45.729557
 20
28.115606
 30
0.0
 11
-45.729557
 21
28.115606
 31
0.0
  0
LINE
  5
2D7
100
AcDbEntity
  8
0
 62
     0
100
AcDbLine
 10
-43.032155
 20
30.185395
 30
0.0
 11
-43.032155
 21
30.185395
 31
0.0
  0
LINE
  5
2D8
100
AcDbEntity
  8
0
 62
     0
100
AcDbLine
 10
-27.153021
 20
26.568601
 30
0.0
 11
-27.153021
 21
26.568601
 31
0.0
  0
LINE
  5
2D9
100
AcDbEntity
  8
0
 62
     0
100
AcDbLine
 10
-24.574622
 20
28.547076
 30
0.0
 11
-24.574622
 21
28.547076
 31
0.0
  0
LINE
  5
2DA
100
AcDbEntity
  8
0
 62
     0
100
AcDbLine
 10
-22.162828
 20
30.39771
 30
0.0
 11
-22.162828
 21
30.39771
 31
0.0
  0
LINE
  5
2DB
100
AcDbEntity
  8
0
 62
     0
100
AcDbLine
 10
-22.036841
 20
26.544063
 30
0.0
 11
-22.036841
 21
26.544063
 31
0.0
  0
LINE
  5
2DC
100
AcDbEntity
  8
0
 62
     0
100
AcDbLine
 10
-44.406244
 20
25.223614
 30
0.0
 11
-44.406244
 21
25.223614
 31
0.0
  0
LINE
  5
2DD
100
AcDbEntity
  8
0
 62
     0
100
AcDbLine
 10
-43.365227
 20
25.360666
 30
0.0
 11
-43.365227
 21
25.360666
 31
0.0
  0
LINE
  5
2DE
100
AcDbEntity
  8
0
 62
     0
100
AcDbLine
 10
-41.739257
 20
25.574729
 30
0.0
 11
-41.739257
 21
25.574729
 31
0.0
  0
LINE
  5
2DF
100
AcDbEntity
  8
0
 62
     0
100
AcDbLine
 10
-39.022698
 20
25.932371
 30
0.0
 11
-39.022698
 21
25.932371
 31
0.0
  0
LINE
  5
2E0
100
AcDbEntity
  8
0
 62
     0
100
AcDbLine
 10
-37.981681
 20
26.069423
 30
0.0
 11
-37.981681
 21
26.069423
 31
0.0
  0
LINE
  5
2E1
100
AcDbEntity
  8
0
 62
     0
100
AcDbLine
 10
-36.355712
 20
26.283486
 30
0.0
 11
-36.355712
 21
26.283486
 31
0.0
  0
LINE
  5
2E2
100
AcDbEntity
  8
0
 62
     0
100
AcDbLine
 10
-33.639153
 20
26.641128
 30
0.0
 11
-33.639153
 21
26.641128
 31
0.0
  0
LINE
  5
2E3
100
AcDbEntity
  8
0
 62
     0
100
AcDbLine
 10
-32.598136
 20
26.778181
 30
0.0
 11
-32.598136
 21
26.778181
 31
0.0
  0
LINE
  5
2E4
100
AcDbEntity
  8
0
 62
     0
100
AcDbLine
 10
-30.972166
 20
26.992244
 30
0.0
 11
-30.972166
 21
26.992244
 31
0.0
  0
LINE
  5
2E5
100
AcDbEntity
  8
0
 62
     0
100
AcDbLine
 10
-28.255607
 20
27.349885
 30
0.0
 11
-28.255607
 21
27.349885
 31
0.0
  0
LINE
  5
2E6
100
AcDbEntity
  8
0
 62
     0
100
AcDbLine
 10
-27.21459
 20
27.486938
 30
0.0
 11
-27.21459
 21
27.486938
 31
0.0
  0
LINE
  5
2E7
100
AcDbEntity
  8
0
 62
     0
100
AcDbLine
 10
-25.58862
 20
27.701001
 30
0.0
 11
-25.58862
 21
27.701001
 31
0.0
  0
LINE
  5
2E8
100
AcDbEntity
  8
0
 62
     0
100
AcDbLine
 10
-22.872061
 20
28.058642
 30
0.0
 11
-22.872061
 21
28.058642
 31
0.0
  0
LINE
  5
2E9
100
AcDbEntity
  8
0
 62
     0
100
AcDbLine
 10
-21.831044
 20
28.195695
 30
0.0
 11
-21.831044
 21
28.195695
 31
0.0
  0
LINE
  5
2EA
100
AcDbEntity
  8
0
 62
     0
100
AcDbLine
 10
-20.205075
 20
28.409758
 30
0.0
 11
-20.205075
 21
28.409758
 31
0.0
  0
LINE
  5
2EB
100
AcDbEntity
  8
0
 62
     0
100
AcDbLine
 10
-46.250236
 20
30.159149
 30
0.0
 11
-46.250236
 21
30.159149
 31
0.0
  0
LINE
  5
2EC
100
AcDbEntity
  8
0
 62
     0
100
AcDbLine
 10
-45.209219
 20
30.296201
 30
0.0
 11
-45.209219
 21
30.296201
 31
0.0
  0
LINE
  5
2ED
100
AcDbEntity
  8
0
 62
     0
100
AcDbLine
 10
-43.583249
 20
30.510264
 30
0.0
 11
-43.583249
 21
30.510264
 31
0.0
  0
LINE
  5
2EE
100
AcDbEntity
  8
0
 62
     0
100
AcDbLine
 10
-36.221284
 20
29.466655
 30
0.0
 11
-36.221284
 21
29.466655
 31
0.0
  0
LINE
  5
2EF
100
AcDbEntity
  8
0
 62
     0
100
AcDbLine
 10
-33.185075
 20
27.532376
 30
0.0
 11
-33.185075
 21
27.532376
 31
0.0
  0
LINE
  5
2F0
100
AcDbEntity
  8
0
 62
     0
100
AcDbLine
 10
-29.221135
 20
25.007068
 30
0.0
 11
-29.221135
 21
25.007068
 31
0.0
  0
LINE
  5
2F1
100
AcDbEntity
  8
0
 62
     0
100
AcDbLine
 10
-29.993
 20
29.477973
 30
0.0
 11
-29.993
 21
29.477973
 31
0.0
  0
LINE
  5
2F2
100
AcDbEntity
  8
0
 62
     0
100
AcDbLine
 10
-26.956791
 20
27.543694
 30
0.0
 11
-26.956791
 21
27.543694
 31
0.0
  0
LINE
  5
2F3
100
AcDbEntity
  8
0
 62
     0
100
AcDbLine
 10
-22.992851
 20
25.018386
 30
0.0
 11
-22.992851
 21
25.018386
 31
0.0
  0
LINE
  5
2F4
100
AcDbEntity
  8
0
 62
     0
100
AcDbLine
 10
-24.608108
 20
30.026591
 30
0.0
 11
-24.608108
 21
30.026591
 31
0.0
  0
LINE
  5
2F5
100
AcDbEntity
  8
0
 62
     0
100
AcDbLine
 10
-23.764716
 20
29.489291
 30
0.0
 11
-23.764716
 21
29.489291
 31
0.0
  0
LINE
  5
2F6
100
AcDbEntity
  8
0
 62
     0
100
AcDbLine
 10
-20.728507
 20
27.555012
 30
0.0
 11
-20.728507
 21
27.555012
 31
0.0
  0
LINE
  5
2F7
100
AcDbEntity
  8
0
 62
     0
100
AcDbLine
 10
-43.292959
 20
29.992636
 30
0.0
 11
-43.292959
 21
29.992636
 31
0.0
  0
LINE
  5
2F8
100
AcDbEntity
  8
0
 62
     0
100
AcDbLine
 10
-42.449568
 20
29.455337
 30
0.0
 11
-42.449568
 21
29.455337
 31
0.0
  0
LINE
  5
2F9
100
AcDbEntity
  8
0
 62
     0
100
AcDbLine
 10
-39.413358
 20
27.521058
 30
0.0
 11
-39.413358
 21
27.521058
 31
0.0
  0
LINE
  5
2FA
100
AcDbEntity
  8
0
 62
     0
100
AcDbLine
 10
-45.641642
 20
27.50974
 30
0.0
 11
-45.641642
 21
27.50974
 31
0.0
  0
LINE
  5
2FB
100
AcDbEntity
  8
0
 62
     0
100
AcDbLine
 10
-34.885457
 20
29.712457
 30
0.0
 11
-34.885457
 21
29.712457
 31
0.0
  0
LINE
  5
2FC
100
AcDbEntity
  8
0
 62
     0
100
AcDbLine
 10
-33.145483
 20
28.118064
 30
0.0
 11
-33.145483
 21
28.118064
 31
0.0
  0
LINE
  5
2FD
100
AcDbEntity
  8
0
 62
     0
100
AcDbLine
 10
-31.154834
 20
26.293971
 30
0.0
 11
-31.154834
 21
26.293971
 31
0.0
  0
LINE
  5
2FE
100
AcDbEntity
  8
0
 62
     0
100
AcDbLine
 10
-30.786195
 20
25.956176
 30
0.0
 11
-30.786195
 21
25.956176
 31
0.0
  0
LINE
  5
2FF
100
AcDbEntity
  8
0
 62
     0
100
AcDbLine
 10
-27.13323
 20
29.873416
 30
0.0
 11
-27.13323
 21
29.873416
 31
0.0
  0
LINE
  5
300
100
AcDbEntity
  8
0
 62
     0
100
AcDbLine
 10
-25.142581
 20
28.049322
 30
0.0
 11
-25.142581
 21
28.049322
 31
0.0
  0
LINE
  5
301
100
AcDbEntity
  8
0
 62
     0
100
AcDbLine
 10
-24.773942
 20
27.711527
 30
0.0
 11
-24.773942
 21
27.711527
 31
0.0
  0
LINE
  5
302
100
AcDbEntity
  8
0
 62
     0
100
AcDbLine
 10
-23.033968
 20
26.117134
 30
0.0
 11
-23.033968
 21
26.117134
 31
0.0
  0
LINE
  5
303
100
AcDbEntity
  8
0
 62
     0
100
AcDbLine
 10
-43.256998
 20
30.118995
 30
0.0
 11
-43.256998
 21
30.118995
 31
0.0
  0
LINE
  5
304
100
AcDbEntity
  8
0
 62
     0
100
AcDbLine
 10
-41.266349
 20
28.294901
 30
0.0
 11
-41.266349
 21
28.294901
 31
0.0
  0
LINE
  5
305
100
AcDbEntity
  8
0
 62
     0
100
AcDbLine
 10
-40.89771
 20
27.957106
 30
0.0
 11
-40.89771
 21
27.957106
 31
0.0
  0
LINE
  5
306
100
AcDbEntity
  8
0
 62
     0
100
AcDbLine
 10
-39.157736
 20
26.362713
 30
0.0
 11
-39.157736
 21
26.362713
 31
0.0
  0
LINE
  5
307
100
AcDbEntity
  8
0
 62
     0
100
AcDbLine
 10
-46.909964
 20
26.201755
 30
0.0
 11
-46.909964
 21
26.201755
 31
0.0
  0
ENDBLK
  5
309
100
AcDbEntity
  8
0
100
AcDbBlockEnd
  0
BLOCK
  5
31B
100
AcDbEntity
  8
0
100
AcDbBlockBegin
  2
GLAS16-6X5
 70
     0
 10
0.0
 20
0.0
 30
0.0
  3
GLAS16-6X5
  1

  0
LINE
  5
2C2
100
AcDbEntity
  8
GLAS_MED_FOGNING
100
AcDbLine
 10
9.0
 20
32.0
 30
0.0
 11
3.0
 21
32.0
 31
0.0
  0
LINE
  5
2C3
100
AcDbEntity
  8
GLAS_MED_FOGNING
100
AcDbLine
 10
9.0
 20
34.0
 30
0.0
 11
3.0
 21
34.0
 31
0.0
  0
LINE
  5
2C4
100
AcDbEntity
  8
GLAS_MED_FOGNING
100
AcDbLine
 10
9.0
 20
33.0
 30
0.0
 11
3.0
 21
33.0
 31
0.0
  0
LINE
  5
2C5
100
AcDbEntity
  8
GLAS_MED_FOGNING
100
AcDbLine
 10
9.0
 20
35.0
 30
0.0
 11
3.0
 21
35.0
 31
0.0
  0
LINE
  5
2C6
100
AcDbEntity
  8
GLAS_MED_FOGNING
100
AcDbLine
 10
9.0
 20
36.0
 30
0.0
 11
3.0
 21
36.0
 31
0.0
  0
LINE
  5
2C7
100
AcDbEntity
  8
GLAS_MED_FOGNING
100
AcDbLine
 10
9.0
 20
38.0
 30
0.0
 11
3.0
 21
38.0
 31
0.0
  0
LINE
  5
2C8
100
AcDbEntity
  8
GLAS_MED_FOGNING
100
AcDbLine
 10
9.0
 20
37.0
 30
0.0
 11
3.0
 21
37.0
 31
0.0
  0
LINE
  5
2C9
100
AcDbEntity
  8
GLAS_MED_FOGNING
100
AcDbLine
 10
9.0
 20
40.0
 30
0.0
 11
3.0
 21
40.0
 31
0.0
  0
LINE
  5
2CA
100
AcDbEntity
  8
GLAS_MED_FOGNING
100
AcDbLine
 10
9.0
 20
39.0
 30
0.0
 11
3.0
 21
39.0
 31
0.0
  0
LINE
  5
2CB
100
AcDbEntity
  8
GLAS_MED_FOGNING
100
AcDbLine
 10
9.0
 20
41.0
 30
0.0
 11
3.0
 21
41.0
 31
0.0
  0
LINE
  5
2CC
100
AcDbEntity
  8
GLAS_MED_FOGNING
100
AcDbLine
 10
9.0
 20
31.0
 30
0.0
 11
3.0
 21
31.0
 31
0.0
  0
ARC
  5
2CD
100
AcDbEntity
  8
GLAS_MED_FOGNING
100
AcDbCircle
 10
3.0
 20
49.0
 30
0.0
 40
6.0
100
AcDbArc
 50
270.0
 51
0.0
  0
INSERT
  5
2CE
100
AcDbEntity
  8
GLAS_MED_FOGNING
100
AcDbBlockReference
  2
*X36
 10
50.0
 20
0.0
 30
0.0
1001
ACAD
1000
HATCH
1002
{
1070
    16
1000
AR-SAND
1040
2.0
1040
0.0
1002
}
  0
LINE
  5
30A
100
AcDbEntity
  8
GLAS_MED_FOGNING
100
AcDbLine
 10
25.0
 20
49.0
 30
0.0
 11
25.0
 21
30.0
 31
0.0
  0
LINE
  5
30B
100
AcDbEntity
  8
GLAS_MED_FOGNING
100
AcDbLine
 10
9.0
 20
49.0
 30
0.0
 11
9.0
 21
30.0
 31
0.0
  0
LINE
  5
30C
100
AcDbEntity
  8
GLAS_MED_FOGNING
100
AcDbLine
 10
30.0
 20
32.0
 30
0.0
 11
25.0
 21
32.0
 31
0.0
  0
LINE
  5
30D
100
AcDbEntity
  8
GLAS_MED_FOGNING
100
AcDbLine
 10
30.0
 20
33.0
 30
0.0
 11
25.0
 21
33.0
 31
0.0
  0
LINE
  5
30E
100
AcDbEntity
  8
GLAS_MED_FOGNING
100
AcDbLine
 10
30.0
 20
34.0
 30
0.0
 11
25.0
 21
34.0
 31
0.0
  0
LINE
  5
30F
100
AcDbEntity
  8
GLAS_MED_FOGNING
100
AcDbLine
 10
30.0
 20
35.0
 30
0.0
 11
25.0
 21
35.0
 31
0.0
  0
LINE
  5
310
100
AcDbEntity
  8
GLAS_MED_FOGNING
100
AcDbLine
 10
30.0
 20
36.0
 30
0.0
 11
25.0
 21
36.0
 31
0.0
  0
LINE
  5
311
100
AcDbEntity
  8
GLAS_MED_FOGNING
100
AcDbLine
 10
30.0
 20
37.0
 30
0.0
 11
25.0
 21
37.0
 31
0.0
  0
LINE
  5
312
100
AcDbEntity
  8
GLAS_MED_FOGNING
100
AcDbLine
 10
30.0
 20
38.0
 30
0.0
 11
25.0
 21
38.0
 31
0.0
  0
LINE
  5
313
100
AcDbEntity
  8
GLAS_MED_FOGNING
100
AcDbLine
 10
30.0
 20
31.0
 30
0.0
 11
25.0
 21
31.0
 31
0.0
  0
LINE
  5
314
100
AcDbEntity
  8
GLAS_MED_FOGNING
100
AcDbLine
 10
25.0
 20
30.0
 30
0.0
 11
9.0
 21
30.0
 31
0.0
  0
INSERT
  5
315
100
AcDbEntity
  8
GLAS_MED_FOGNING
100
AcDbBlockReference
  2
*X22
 10
60.0
 20
0.0
 30
0.0
1001
ACAD
1000
HATCH
1002
{
1070
    16
1000
AR-SAND
1040
2.0
1040
0.0
1002
}
  0
LINE
  5
316
100
AcDbEntity
  8
GLAS_MED_FOGNING
100
AcDbLine
 10
30.0
 20
39.0
 30
0.0
 11
25.0
 21
39.0
 31
0.0
  0
LINE
  5
317
100
AcDbEntity
  8
GLAS_MED_FOGNING
100
AcDbLine
 10
30.0
 20
40.0
 30
0.0
 11
25.0
 21
40.0
 31
0.0
  0
LINE
  5
318
100
AcDbEntity
  8
GLAS_MED_FOGNING
100
AcDbLine
 10
30.0
 20
41.0
 30
0.0
 11
25.0
 21
41.0
 31
0.0
  0
ARC
  5
319
100
AcDbEntity
  8
GLAS_MED_FOGNING
100
AcDbCircle
 10
30.0
 20
48.0
 30
0.0
 40
5.0
100
AcDbArc
 50
180.0
 51
270.0
  0
INSERT
  5
31A
100
AcDbEntity
  8
GLAS_MED_FOGNING
100
AcDbBlockReference
  2
*X21
 10
50.0
 20
0.0
 30
0.0
1001
ACAD
1000
HATCH
1002
{
1070
    16
1000
AR-SAND
1040
2.0
1040
0.0
1002
}
  0
ENDBLK
  5
31C
100
AcDbEntity
  8
0
100
AcDbBlockEnd
  0
BLOCK
  5
327
100
AcDbEntity
  8
0
100
AcDbBlockBegin
  2
50_SP92020
 70
     0
 10
0.0
 20
0.0
 30
0.0
  3
50_SP92020
  1

  0
INSERT
  5
2C0
100
AcDbEntity
  8
0
100
AcDbBlockReference
  2
GLAS16-6X5
 10
-50.0
 20
0.0
 30
0.0
  0
LWPOLYLINE
  5
31D
100
AcDbEntity
  8
CENTRUM
100
AcDbPolyline
 90
        4
 70
     0
 43
0.0
 10
0.0
 20
57.5
 10
-25.0
 20
57.5
 10
-41.0
 20
57.5
 10
-50.0
 20
57.5
  0
INSERT
  5
31E
100
AcDbEntity
  8
0
100
AcDbBlockReference
  2
SP92020
 10
0.0
 20
0.0
 30
0.0
  0
LINE
  5
325
100
AcDbEntity
  8
GLAS_MED_FOGNING
100
AcDbLine
 10
-25.0
 20
57.5
 30
0.0
 11
-25.0
 21
49.0
 31
0.0
  0
LINE
  5
326
100
AcDbEntity
  8
GLAS_MED_FOGNING
100
AcDbLine
 10
-41.0
 20
57.5
 30
0.0
 11
-41.0
 21
49.0
 31
0.0
  0
ENDBLK
  5
328
100
AcDbEntity
  8
0
100
AcDbBlockEnd
  0
BLOCK
  5
3E5
100
AcDbEntity
  8
0
100
AcDbBlockBegin
  2
50_SP92020DK
 70
     0
 10
0.0
 20
0.0
 30
0.0
  3
50_SP92020DK
  1

  0
INSERT
  5
3BA
100
AcDbEntity
  8
0
100
AcDbBlockReference
  2
GLAS16-6X5DK
 10
-50.0
 20
0.0
 30
0.0
  0
LWPOLYLINE
  5
3E1
100
AcDbEntity
  8
CENTRUM
100
AcDbPolyline
 90
        4
 70
     0
 43
0.0
 10
0.0
 20
57.5
 10
-25.0
 20
57.5
 10
-41.0
 20
57.5
 10
-50.0
 20
57.5
  0
INSERT
  5
3E2
100
AcDbEntity
  8
0
100
AcDbBlockReference
  2
SP92020
 10
0.0
 20
0.0
 30
0.0
  0
LINE
  5
3E3
100
AcDbEntity
  8
GLAS_MED_FOGNING
100
AcDbLine
 10
-41.0
 20
57.5
 30
0.0
 11
-41.0
 21
49.0
 31
0.0
  0
LINE
  5
3E4
100
AcDbEntity
  8
GLAS_MED_FOGNING
100
AcDbLine
 10
-25.0
 20
57.5
 30
0.0
 11
-25.0
 21
49.0
 31
0.0
  0
ENDBLK
  5
3E6
100
AcDbEntity
  8
0
100
AcDbBlockEnd
  0
BLOCK
  5
22B
100
AcDbEntity
  8
0
100
AcDbBlockBegin
  2
GLAS21-6X5DK
 70
     0
 10
0.0
 20
0.0
 30
0.0
  3
GLAS21-6X5DK
  1

  0
ARC
  5
1E7
100
AcDbEntity
  8
GLAS_MED_FOGNING
100
AcDbCircle
 10
35.0
 20
48.0
 30
0.0
 40
5.0
100
AcDbArc
 50
180.0
 51
270.0
  0
LINE
  5
1E8
100
AcDbEntity
  8
GLAS_MED_FOGNING
100
AcDbLine
 10
30.0
 20
49.0
 30
0.0
 11
30.0
 21
30.0
 31
0.0
  0
LINE
  5
1E9
100
AcDbEntity
  8
GLAS_MED_FOGNING
100
AcDbLine
 10
9.0
 20
49.0
 30
0.0
 11
9.0
 21
30.0
 31
0.0
  0
ARC
  5
1EA
100
AcDbEntity
  8
GLAS_MED_FOGNING
100
AcDbCircle
 10
3.0
 20
49.0
 30
0.0
 40
6.0
100
AcDbArc
 50
270.0
 51
0.0
  0
LINE
  5
1EB
100
AcDbEntity
  8
GLAS_MED_FOGNING
100
AcDbLine
 10
30.0
 20
30.0
 30
0.0
 11
9.0
 21
25.0
 31
0.0
  0
LINE
  5
1EC
100
AcDbEntity
  8
GLAS_MED_FOGNING
100
AcDbLine
 10
9.0
 20
30.0
 30
0.0
 11
30.0
 21
25.0
 31
0.0
  0
LINE
  5
1ED
100
AcDbEntity
  8
GLAS_MED_FOGNING
100
AcDbLine
 10
30.0
 20
30.0
 30
0.0
 11
9.0
 21
30.0
 31
0.0
  0
LINE
  5
1EE
100
AcDbEntity
  8
GLAS_MED_FOGNING
100
AcDbLine
 10
9.0
 20
30.0
 30
0.0
 11
9.0
 21
25.0
 31
0.0
  0
INSERT
  5
1EF
100
AcDbEntity
  8
GLAS_MED_FOGNING
100
AcDbBlockReference
  2
*X23
 10
50.0
 20
0.0
 30
0.0
1001
ACAD
1000
HATCH
1002
{
1070
    16
1000
AR-SAND
1040
2.0
1040
0.0
1002
}
  0
LINE
  5
202
100
AcDbEntity
  8
GLAS_MED_FOGNING
100
AcDbLine
 10
9.0
 20
32.0
 30
0.0
 11
3.0
 21
32.0
 31
0.0
  0
LINE
  5
203
100
AcDbEntity
  8
GLAS_MED_FOGNING
100
AcDbLine
 10
9.0
 20
34.0
 30
0.0
 11
3.0
 21
34.0
 31
0.0
  0
LINE
  5
204
100
AcDbEntity
  8
GLAS_MED_FOGNING
100
AcDbLine
 10
9.0
 20
33.0
 30
0.0
 11
3.0
 21
33.0
 31
0.0
  0
LINE
  5
205
100
AcDbEntity
  8
GLAS_MED_FOGNING
100
AcDbLine
 10
9.0
 20
35.0
 30
0.0
 11
3.0
 21
35.0
 31
0.0
  0
LINE
  5
206
100
AcDbEntity
  8
GLAS_MED_FOGNING
100
AcDbLine
 10
9.0
 20
31.0
 30
0.0
 11
3.0
 21
31.0
 31
0.0
  0
LINE
  5
207
100
AcDbEntity
  8
GLAS_MED_FOGNING
100
AcDbLine
 10
9.0
 20
36.0
 30
0.0
 11
3.0
 21
36.0
 31
0.0
  0
LINE
  5
208
100
AcDbEntity
  8
GLAS_MED_FOGNING
100
AcDbLine
 10
9.0
 20
38.0
 30
0.0
 11
3.0
 21
38.0
 31
0.0
  0
LINE
  5
209
100
AcDbEntity
  8
GLAS_MED_FOGNING
100
AcDbLine
 10
9.0
 20
37.0
 30
0.0
 11
3.0
 21
37.0
 31
0.0
  0
LINE
  5
20A
100
AcDbEntity
  8
GLAS_MED_FOGNING
100
AcDbLine
 10
9.0
 20
40.0
 30
0.0
 11
3.0
 21
40.0
 31
0.0
  0
LINE
  5
20B
100
AcDbEntity
  8
GLAS_MED_FOGNING
100
AcDbLine
 10
9.0
 20
39.0
 30
0.0
 11
3.0
 21
39.0
 31
0.0
  0
LINE
  5
20C
100
AcDbEntity
  8
GLAS_MED_FOGNING
100
AcDbLine
 10
9.0
 20
41.0
 30
0.0
 11
3.0
 21
41.0
 31
0.0
  0
INSERT
  5
20D
100
AcDbEntity
  8
GLAS_MED_FOGNING
100
AcDbBlockReference
  2
*X21
 10
50.0
 20
0.0
 30
0.0
1001
ACAD
1000
HATCH
1002
{
1070
    16
1000
AR-SAND
1040
2.0
1040
0.0
1002
}
  0
LINE
  5
20E
100
AcDbEntity
  8
GLAS_MED_FOGNING
100
AcDbLine
 10
35.0
 20
31.0
 30
0.0
 11
30.0
 21
31.0
 31
0.0
  0
LINE
  5
20F
100
AcDbEntity
  8
GLAS_MED_FOGNING
100
AcDbLine
 10
35.0
 20
35.0
 30
0.0
 11
30.0
 21
35.0
 31
0.0
  0
LINE
  5
210
100
AcDbEntity
  8
GLAS_MED_FOGNING
100
AcDbLine
 10
35.0
 20
34.0
 30
0.0
 11
30.0
 21
34.0
 31
0.0
  0
LINE
  5
211
100
AcDbEntity
  8
GLAS_MED_FOGNING
100
AcDbLine
 10
35.0
 20
33.0
 30
0.0
 11
30.0
 21
33.0
 31
0.0
  0
LINE
  5
212
100
AcDbEntity
  8
GLAS_MED_FOGNING
100
AcDbLine
 10
35.0
 20
32.0
 30
0.0
 11
30.0
 21
32.0
 31
0.0
  0
LINE
  5
213
100
AcDbEntity
  8
GLAS_MED_FOGNING
100
AcDbLine
 10
30.0
 20
30.0
 30
0.0
 11
30.0
 21
25.0
 31
0.0
  0
INSERT
  5
214
100
AcDbEntity
  8
GLAS_MED_FOGNING
100
AcDbBlockReference
  2
*X24
 10
65.0
 20
0.0
 30
0.0
1001
ACAD
1000
HATCH
1002
{
1070
    16
1000
AR-SAND
1040
2.0
1040
0.0
1002
}
  0
LINE
  5
224
100
AcDbEntity
  8
GLAS_MED_FOGNING
100
AcDbLine
 10
35.0
 20
41.0
 30
0.0
 11
30.0
 21
41.0
 31
0.0
  0
LINE
  5
225
100
AcDbEntity
  8
GLAS_MED_FOGNING
100
AcDbLine
 10
35.0
 20
40.0
 30
0.0
 11
30.0
 21
40.0
 31
0.0
  0
LINE
  5
226
100
AcDbEntity
  8
GLAS_MED_FOGNING
100
AcDbLine
 10
35.0
 20
39.0
 30
0.0
 11
30.0
 21
39.0
 31
0.0
  0
LINE
  5
227
100
AcDbEntity
  8
GLAS_MED_FOGNING
100
AcDbLine
 10
35.0
 20
38.0
 30
0.0
 11
30.0
 21
38.0
 31
0.0
  0
LINE
  5
228
100
AcDbEntity
  8
GLAS_MED_FOGNING
100
AcDbLine
 10
35.0
 20
37.0
 30
0.0
 11
30.0
 21
37.0
 31
0.0
  0
LINE
  5
229
100
AcDbEntity
  8
GLAS_MED_FOGNING
100
AcDbLine
 10
35.0
 20
36.0
 30
0.0
 11
30.0
 21
36.0
 31
0.0
  0
INSERT
  5
22A
100
AcDbEntity
  8
GLAS_MED_FOGNING
100
AcDbBlockReference
  2
*X22
 10
65.0
 20
0.0
 30
0.0
1001
ACAD
1000
HATCH
1002
{
1070
    16
1000
AR-SAND
1040
2.0
1040
0.0
1002
}
  0
ENDBLK
  5
22C
100
AcDbEntity
  8
0
100
AcDbBlockEnd
  0
BLOCK
  5
1B8
100
AcDbEntity
  8
0
100
AcDbBlockBegin
  2
*X41
 70
     1
 10
0.0
 20
0.0
 30
0.0
  3
*X41
  1

  0
LINE
  5
175
100
AcDbEntity
  8
0
 62
     0
100
AcDbLine
 10
-27.153021
 20
26.568601
 30
0.0
 11
-27.153021
 21
26.568601
 31
0.0
  0
LINE
  5
176
100
AcDbEntity
  8
0
 62
     0
100
AcDbLine
 10
-24.574622
 20
28.547076
 30
0.0
 11
-24.574622
 21
28.547076
 31
0.0
  0
LINE
  5
177
100
AcDbEntity
  8
0
 62
     0
100
AcDbLine
 10
-32.388203
 20
26.501825
 30
0.0
 11
-32.388203
 21
26.501825
 31
0.0
  0
LINE
  5
178
100
AcDbEntity
  8
0
 62
     0
100
AcDbLine
 10
-29.976409
 20
28.35246
 30
0.0
 11
-29.976409
 21
28.35246
 31
0.0
  0
LINE
  5
179
100
AcDbEntity
  8
0
 62
     0
100
AcDbLine
 10
-37.789989
 20
26.307209
 30
0.0
 11
-37.789989
 21
26.307209
 31
0.0
  0
LINE
  5
17A
100
AcDbEntity
  8
0
 62
     0
100
AcDbLine
 10
-35.092588
 20
28.376998
 30
0.0
 11
-35.092588
 21
28.376998
 31
0.0
  0
LINE
  5
17B
100
AcDbEntity
  8
0
 62
     0
100
AcDbLine
 10
-42.906168
 20
26.331747
 30
0.0
 11
-42.906168
 21
26.331747
 31
0.0
  0
LINE
  5
17C
100
AcDbEntity
  8
0
 62
     0
100
AcDbLine
 10
-40.32777
 20
28.310222
 30
0.0
 11
-40.32777
 21
28.310222
 31
0.0
  0
LINE
  5
17D
100
AcDbEntity
  8
0
 62
     0
100
AcDbLine
 10
-45.729557
 20
28.115606
 30
0.0
 11
-45.729557
 21
28.115606
 31
0.0
  0
LINE
  5
17E
100
AcDbEntity
  8
0
 62
     0
100
AcDbLine
 10
-43.032155
 20
30.185395
 30
0.0
 11
-43.032155
 21
30.185395
 31
0.0
  0
LINE
  5
17F
100
AcDbEntity
  8
0
 62
     0
100
AcDbLine
 10
-22.036841
 20
26.544063
 30
0.0
 11
-22.036841
 21
26.544063
 31
0.0
  0
LINE
  5
180
100
AcDbEntity
  8
0
 62
     0
100
AcDbLine
 10
-19.33944
 20
28.613852
 30
0.0
 11
-19.33944
 21
28.613852
 31
0.0
  0
LINE
  5
181
100
AcDbEntity
  8
0
 62
     0
100
AcDbLine
 10
-16.761042
 20
30.592326
 30
0.0
 11
-16.761042
 21
30.592326
 31
0.0
  0
LINE
  5
182
100
AcDbEntity
  8
0
 62
     0
100
AcDbLine
 10
-16.635055
 20
26.738679
 30
0.0
 11
-16.635055
 21
26.738679
 31
0.0
  0
LINE
  5
183
100
AcDbEntity
  8
0
 62
     0
100
AcDbLine
 10
-44.406244
 20
25.223614
 30
0.0
 11
-44.406244
 21
25.223614
 31
0.0
  0
LINE
  5
184
100
AcDbEntity
  8
0
 62
     0
100
AcDbLine
 10
-43.365227
 20
25.360666
 30
0.0
 11
-43.365227
 21
25.360666
 31
0.0
  0
LINE
  5
185
100
AcDbEntity
  8
0
 62
     0
100
AcDbLine
 10
-41.739257
 20
25.574729
 30
0.0
 11
-41.739257
 21
25.574729
 31
0.0
  0
LINE
  5
186
100
AcDbEntity
  8
0
 62
     0
100
AcDbLine
 10
-39.022698
 20
25.932371
 30
0.0
 11
-39.022698
 21
25.932371
 31
0.0
  0
LINE
  5
187
100
AcDbEntity
  8
0
 62
     0
100
AcDbLine
 10
-37.981681
 20
26.069423
 30
0.0
 11
-37.981681
 21
26.069423
 31
0.0
  0
LINE
  5
188
100
AcDbEntity
  8
0
 62
     0
100
AcDbLine
 10
-36.355712
 20
26.283486
 30
0.0
 11
-36.355712
 21
26.283486
 31
0.0
  0
LINE
  5
189
100
AcDbEntity
  8
0
 62
     0
100
AcDbLine
 10
-33.639153
 20
26.641128
 30
0.0
 11
-33.639153
 21
26.641128
 31
0.0
  0
LINE
  5
18A
100
AcDbEntity
  8
0
 62
     0
100
AcDbLine
 10
-32.598136
 20
26.778181
 30
0.0
 11
-32.598136
 21
26.778181
 31
0.0
  0
LINE
  5
18B
100
AcDbEntity
  8
0
 62
     0
100
AcDbLine
 10
-30.972166
 20
26.992244
 30
0.0
 11
-30.972166
 21
26.992244
 31
0.0
  0
LINE
  5
18C
100
AcDbEntity
  8
0
 62
     0
100
AcDbLine
 10
-28.255607
 20
27.349885
 30
0.0
 11
-28.255607
 21
27.349885
 31
0.0
  0
LINE
  5
18D
100
AcDbEntity
  8
0
 62
     0
100
AcDbLine
 10
-27.21459
 20
27.486938
 30
0.0
 11
-27.21459
 21
27.486938
 31
0.0
  0
LINE
  5
18E
100
AcDbEntity
  8
0
 62
     0
100
AcDbLine
 10
-25.58862
 20
27.701001
 30
0.0
 11
-25.58862
 21
27.701001
 31
0.0
  0
LINE
  5
18F
100
AcDbEntity
  8
0
 62
     0
100
AcDbLine
 10
-22.872061
 20
28.058642
 30
0.0
 11
-22.872061
 21
28.058642
 31
0.0
  0
LINE
  5
190
100
AcDbEntity
  8
0
 62
     0
100
AcDbLine
 10
-21.831044
 20
28.195695
 30
0.0
 11
-21.831044
 21
28.195695
 31
0.0
  0
LINE
  5
191
100
AcDbEntity
  8
0
 62
     0
100
AcDbLine
 10
-20.205075
 20
28.409758
 30
0.0
 11
-20.205075
 21
28.409758
 31
0.0
  0
LINE
  5
192
100
AcDbEntity
  8
0
 62
     0
100
AcDbLine
 10
-17.488516
 20
28.7674
 30
0.0
 11
-17.488516
 21
28.7674
 31
0.0
  0
LINE
  5
193
100
AcDbEntity
  8
0
 62
     0
100
AcDbLine
 10
-16.447499
 20
28.904452
 30
0.0
 11
-16.447499
 21
28.904452
 31
0.0
  0
LINE
  5
194
100
AcDbEntity
  8
0
 62
     0
100
AcDbLine
 10
-46.250236
 20
30.159149
 30
0.0
 11
-46.250236
 21
30.159149
 31
0.0
  0
LINE
  5
195
100
AcDbEntity
  8
0
 62
     0
100
AcDbLine
 10
-45.209219
 20
30.296201
 30
0.0
 11
-45.209219
 21
30.296201
 31
0.0
  0
LINE
  5
196
100
AcDbEntity
  8
0
 62
     0
100
AcDbLine
 10
-43.583249
 20
30.510264
 30
0.0
 11
-43.583249
 21
30.510264
 31
0.0
  0
LINE
  5
197
100
AcDbEntity
  8
0
 62
     0
100
AcDbLine
 10
-36.221284
 20
29.466655
 30
0.0
 11
-36.221284
 21
29.466655
 31
0.0
  0
LINE
  5
198
100
AcDbEntity
  8
0
 62
     0
100
AcDbLine
 10
-33.185075
 20
27.532376
 30
0.0
 11
-33.185075
 21
27.532376
 31
0.0
  0
LINE
  5
199
100
AcDbEntity
  8
0
 62
     0
100
AcDbLine
 10
-29.221135
 20
25.007068
 30
0.0
 11
-29.221135
 21
25.007068
 31
0.0
  0
LINE
  5
19A
100
AcDbEntity
  8
0
 62
     0
100
AcDbLine
 10
-29.993
 20
29.477973
 30
0.0
 11
-29.993
 21
29.477973
 31
0.0
  0
LINE
  5
19B
100
AcDbEntity
  8
0
 62
     0
100
AcDbLine
 10
-26.956791
 20
27.543694
 30
0.0
 11
-26.956791
 21
27.543694
 31
0.0
  0
LINE
  5
19C
100
AcDbEntity
  8
0
 62
     0
100
AcDbLine
 10
-22.992851
 20
25.018386
 30
0.0
 11
-22.992851
 21
25.018386
 31
0.0
  0
LINE
  5
19D
100
AcDbEntity
  8
0
 62
     0
100
AcDbLine
 10
-23.764716
 20
29.489291
 30
0.0
 11
-23.764716
 21
29.489291
 31
0.0
  0
LINE
  5
19E
100
AcDbEntity
  8
0
 62
     0
100
AcDbLine
 10
-20.728507
 20
27.555012
 30
0.0
 11
-20.728507
 21
27.555012
 31
0.0
  0
LINE
  5
19F
100
AcDbEntity
  8
0
 62
     0
100
AcDbLine
 10
-16.764567
 20
25.029704
 30
0.0
 11
-16.764567
 21
25.029704
 31
0.0
  0
LINE
  5
1A0
100
AcDbEntity
  8
0
 62
     0
100
AcDbLine
 10
-18.379824
 20
30.037909
 30
0.0
 11
-18.379824
 21
30.037909
 31
0.0
  0
LINE
  5
1A1
100
AcDbEntity
  8
0
 62
     0
100
AcDbLine
 10
-17.536433
 20
29.500609
 30
0.0
 11
-17.536433
 21
29.500609
 31
0.0
  0
LINE
  5
1A2
100
AcDbEntity
  8
0
 62
     0
100
AcDbLine
 10
-43.292959
 20
29.992636
 30
0.0
 11
-43.292959
 21
29.992636
 31
0.0
  0
LINE
  5
1A3
100
AcDbEntity
  8
0
 62
     0
100
AcDbLine
 10
-42.449568
 20
29.455337
 30
0.0
 11
-42.449568
 21
29.455337
 31
0.0
  0
LINE
  5
1A4
100
AcDbEntity
  8
0
 62
     0
100
AcDbLine
 10
-39.413358
 20
27.521058
 30
0.0
 11
-39.413358
 21
27.521058
 31
0.0
  0
LINE
  5
1A5
100
AcDbEntity
  8
0
 62
     0
100
AcDbLine
 10
-45.641642
 20
27.50974
 30
0.0
 11
-45.641642
 21
27.50974
 31
0.0
  0
LINE
  5
1A6
100
AcDbEntity
  8
0
 62
     0
100
AcDbLine
 10
-34.885457
 20
29.712457
 30
0.0
 11
-34.885457
 21
29.712457
 31
0.0
  0
LINE
  5
1A7
100
AcDbEntity
  8
0
 62
     0
100
AcDbLine
 10
-33.145483
 20
28.118064
 30
0.0
 11
-33.145483
 21
28.118064
 31
0.0
  0
LINE
  5
1A8
100
AcDbEntity
  8
0
 62
     0
100
AcDbLine
 10
-31.154834
 20
26.293971
 30
0.0
 11
-31.154834
 21
26.293971
 31
0.0
  0
LINE
  5
1A9
100
AcDbEntity
  8
0
 62
     0
100
AcDbLine
 10
-30.786195
 20
25.956176
 30
0.0
 11
-30.786195
 21
25.956176
 31
0.0
  0
LINE
  5
1AA
100
AcDbEntity
  8
0
 62
     0
100
AcDbLine
 10
-27.13323
 20
29.873416
 30
0.0
 11
-27.13323
 21
29.873416
 31
0.0
  0
LINE
  5
1AB
100
AcDbEntity
  8
0
 62
     0
100
AcDbLine
 10
-25.142581
 20
28.049322
 30
0.0
 11
-25.142581
 21
28.049322
 31
0.0
  0
LINE
  5
1AC
100
AcDbEntity
  8
0
 62
     0
100
AcDbLine
 10
-24.773942
 20
27.711527
 30
0.0
 11
-24.773942
 21
27.711527
 31
0.0
  0
LINE
  5
1AD
100
AcDbEntity
  8
0
 62
     0
100
AcDbLine
 10
-23.033968
 20
26.117134
 30
0.0
 11
-23.033968
 21
26.117134
 31
0.0
  0
LINE
  5
1AE
100
AcDbEntity
  8
0
 62
     0
100
AcDbLine
 10
-19.130328
 20
29.804673
 30
0.0
 11
-19.130328
 21
29.804673
 31
0.0
  0
LINE
  5
1AF
100
AcDbEntity
  8
0
 62
     0
100
AcDbLine
 10
-18.761689
 20
29.466878
 30
0.0
 11
-18.761689
 21
29.466878
 31
0.0
  0
LINE
  5
1B0
100
AcDbEntity
  8
0
 62
     0
100
AcDbLine
 10
-17.021714
 20
27.872485
 30
0.0
 11
-17.021714
 21
27.872485
 31
0.0
  0
LINE
  5
1B1
100
AcDbEntity
  8
0
 62
     0
100
AcDbLine
 10
-15.031066
 20
26.048392
 30
0.0
 11
-15.031066
 21
26.048392
 31
0.0
  0
LINE
  5
1B2
100
AcDbEntity
  8
0
 62
     0
100
AcDbLine
 10
-14.662427
 20
25.710596
 30
0.0
 11
-14.662427
 21
25.710596
 31
0.0
  0
LINE
  5
1B3
100
AcDbEntity
  8
0
 62
     0
100
AcDbLine
 10
-43.256998
 20
30.118995
 30
0.0
 11
-43.256998
 21
30.118995
 31
0.0
  0
LINE
  5
1B4
100
AcDbEntity
  8
0
 62
     0
100
AcDbLine
 10
-41.266349
 20
28.294901
 30
0.0
 11
-41.266349
 21
28.294901
 31
0.0
  0
LINE
  5
1B5
100
AcDbEntity
  8
0
 62
     0
100
AcDbLine
 10
-40.89771
 20
27.957106
 30
0.0
 11
-40.89771
 21
27.957106
 31
0.0
  0
LINE
  5
1B6
100
AcDbEntity
  8
0
 62
     0
100
AcDbLine
 10
-39.157736
 20
26.362713
 30
0.0
 11
-39.157736
 21
26.362713
 31
0.0
  0
LINE
  5
1B7
100
AcDbEntity
  8
0
 62
     0
100
AcDbLine
 10
-46.909964
 20
26.201755
 30
0.0
 11
-46.909964
 21
26.201755
 31
0.0
  0
ENDBLK
  5
1B9
100
AcDbEntity
  8
0
100
AcDbBlockEnd
  0
BLOCK
  5
1D5
100
AcDbEntity
  8
0
100
AcDbBlockBegin
  2
GLAS21-6X5
 70
     0
 10
0.0
 20
0.0
 30
0.0
  3
GLAS21-6X5
  1

  0
LINE
  5
171
100
AcDbEntity
  8
GLAS_MED_FOGNING
100
AcDbLine
 10
30.0
 20
49.0
 30
0.0
 11
30.0
 21
30.0
 31
0.0
  0
LINE
  5
172
100
AcDbEntity
  8
GLAS_MED_FOGNING
100
AcDbLine
 10
9.0
 20
49.0
 30
0.0
 11
9.0
 21
30.0
 31
0.0
  0
INSERT
  5
173
100
AcDbEntity
  8
GLAS_MED_FOGNING
100
AcDbBlockReference
  2
*X41
 10
50.0
 20
0.0
 30
0.0
1001
ACAD
1000
HATCH
1002
{
1070
    16
1000
AR-SAND
1040
2.0
1040
0.0
1002
}
  0
LINE
  5
1BA
100
AcDbEntity
  8
GLAS_MED_FOGNING
100
AcDbLine
 10
30.0
 20
30.0
 30
0.0
 11
9.0
 21
30.0
 31
0.0
  0
LINE
  5
1BB
100
AcDbEntity
  8
GLAS_MED_FOGNING
100
AcDbLine
 10
9.0
 20
37.0
 30
0.0
 11
3.0
 21
37.0
 31
0.0
  0
LINE
  5
1BC
100
AcDbEntity
  8
GLAS_MED_FOGNING
100
AcDbLine
 10
9.0
 20
38.0
 30
0.0
 11
3.0
 21
38.0
 31
0.0
  0
LINE
  5
1BD
100
AcDbEntity
  8
GLAS_MED_FOGNING
100
AcDbLine
 10
9.0
 20
36.0
 30
0.0
 11
3.0
 21
36.0
 31
0.0
  0
LINE
  5
1BE
100
AcDbEntity
  8
GLAS_MED_FOGNING
100
AcDbLine
 10
9.0
 20
35.0
 30
0.0
 11
3.0
 21
35.0
 31
0.0
  0
LINE
  5
1BF
100
AcDbEntity
  8
GLAS_MED_FOGNING
100
AcDbLine
 10
9.0
 20
33.0
 30
0.0
 11
3.0
 21
33.0
 31
0.0
  0
LINE
  5
1C0
100
AcDbEntity
  8
GLAS_MED_FOGNING
100
AcDbLine
 10
9.0
 20
34.0
 30
0.0
 11
3.0
 21
34.0
 31
0.0
  0
LINE
  5
1C1
100
AcDbEntity
  8
GLAS_MED_FOGNING
100
AcDbLine
 10
9.0
 20
32.0
 30
0.0
 11
3.0
 21
32.0
 31
0.0
  0
LINE
  5
1C2
100
AcDbEntity
  8
GLAS_MED_FOGNING
100
AcDbLine
 10
9.0
 20
31.0
 30
0.0
 11
3.0
 21
31.0
 31
0.0
  0
LINE
  5
1C3
100
AcDbEntity
  8
GLAS_MED_FOGNING
100
AcDbLine
 10
35.0
 20
32.0
 30
0.0
 11
30.0
 21
32.0
 31
0.0
  0
LINE
  5
1C4
100
AcDbEntity
  8
GLAS_MED_FOGNING
100
AcDbLine
 10
35.0
 20
33.0
 30
0.0
 11
30.0
 21
33.0
 31
0.0
  0
LINE
  5
1C5
100
AcDbEntity
  8
GLAS_MED_FOGNING
100
AcDbLine
 10
35.0
 20
34.0
 30
0.0
 11
30.0
 21
34.0
 31
0.0
  0
LINE
  5
1C6
100
AcDbEntity
  8
GLAS_MED_FOGNING
100
AcDbLine
 10
35.0
 20
35.0
 30
0.0
 11
30.0
 21
35.0
 31
0.0
  0
LINE
  5
1C7
100
AcDbEntity
  8
GLAS_MED_FOGNING
100
AcDbLine
 10
35.0
 20
36.0
 30
0.0
 11
30.0
 21
36.0
 31
0.0
  0
LINE
  5
1C8
100
AcDbEntity
  8
GLAS_MED_FOGNING
100
AcDbLine
 10
35.0
 20
37.0
 30
0.0
 11
30.0
 21
37.0
 31
0.0
  0
LINE
  5
1C9
100
AcDbEntity
  8
GLAS_MED_FOGNING
100
AcDbLine
 10
35.0
 20
38.0
 30
0.0
 11
30.0
 21
38.0
 31
0.0
  0
LINE
  5
1CA
100
AcDbEntity
  8
GLAS_MED_FOGNING
100
AcDbLine
 10
35.0
 20
31.0
 30
0.0
 11
30.0
 21
31.0
 31
0.0
  0
LINE
  5
1CB
100
AcDbEntity
  8
GLAS_MED_FOGNING
100
AcDbLine
 10
9.0
 20
41.0
 30
0.0
 11
3.0
 21
41.0
 31
0.0
  0
LINE
  5
1CC
100
AcDbEntity
  8
GLAS_MED_FOGNING
100
AcDbLine
 10
9.0
 20
39.0
 30
0.0
 11
3.0
 21
39.0
 31
0.0
  0
LINE
  5
1CD
100
AcDbEntity
  8
GLAS_MED_FOGNING
100
AcDbLine
 10
9.0
 20
40.0
 30
0.0
 11
3.0
 21
40.0
 31
0.0
  0
ARC
  5
1CE
100
AcDbEntity
  8
GLAS_MED_FOGNING
100
AcDbCircle
 10
3.0
 20
49.0
 30
0.0
 40
6.0
100
AcDbArc
 50
270.0
 51
0.0
  0
INSERT
  5
1CF
100
AcDbEntity
  8
GLAS_MED_FOGNING
100
AcDbBlockReference
  2
*X21
 10
50.0
 20
0.0
 30
0.0
1001
ACAD
1000
HATCH
1002
{
1070
    16
1000
AR-SAND
1040
2.0
1040
0.0
1002
}
  0
LINE
  5
1D0
100
AcDbEntity
  8
GLAS_MED_FOGNING
100
AcDbLine
 10
35.0
 20
39.0
 30
0.0
 11
30.0
 21
39.0
 31
0.0
  0
LINE
  5
1D1
100
AcDbEntity
  8
GLAS_MED_FOGNING
100
AcDbLine
 10
35.0
 20
40.0
 30
0.0
 11
30.0
 21
40.0
 31
0.0
  0
LINE
  5
1D2
100
AcDbEntity
  8
GLAS_MED_FOGNING
100
AcDbLine
 10
35.0
 20
41.0
 30
0.0
 11
30.0
 21
41.0
 31
0.0
  0
INSERT
  5
1D3
100
AcDbEntity
  8
GLAS_MED_FOGNING
100
AcDbBlockReference
  2
*X22
 10
65.0
 20
0.0
 30
0.0
1001
ACAD
1000
HATCH
1002
{
1070
    16
1000
AR-SAND
1040
2.0
1040
0.0
1002
}
  0
ARC
  5
1D4
100
AcDbEntity
  8
GLAS_MED_FOGNING
100
AcDbCircle
 10
35.0
 20
48.0
 30
0.0
 40
5.0
100
AcDbArc
 50
180.0
 51
270.0
  0
ENDBLK
  5
1D6
100
AcDbEntity
  8
0
100
AcDbBlockEnd
  0
BLOCK
  5
231
100
AcDbEntity
  8
0
100
AcDbBlockBegin
  2
50_SP91520DK
 70
     0
 10
0.0
 20
0.0
 30
0.0
  3
50_SP91520DK
  1

  0
INSERT
  5
1E5
100
AcDbEntity
  8
0
100
AcDbBlockReference
  2
GLAS21-6X5DK
 10
-50.0
 20
0.0
 30
0.0
  0
INSERT
  5
22D
100
AcDbEntity
  8
0
100
AcDbBlockReference
  2
SP91520
 10
0.0
 20
0.0
 30
0.0
  0
LWPOLYLINE
  5
22E
100
AcDbEntity
  8
CENTRUM
100
AcDbPolyline
 90
        4
 70
     0
 43
0.0
 10
0.0
 20
57.5
 10
-20.0
 20
57.5
 10
-41.0
 20
57.5
 10
-50.0
 20
57.5
  0
LINE
  5
22F
100
AcDbEntity
  8
GLAS_MED_FOGNING
100
AcDbLine
 10
-41.0
 20
57.5
 30
0.0
 11
-41.0
 21
49.0
 31
0.0
  0
LINE
  5
230
100
AcDbEntity
  8
GLAS_MED_FOGNING
100
AcDbLine
 10
-20.0
 20
57.5
 30
0.0
 11
-20.0
 21
49.0
 31
0.0
  0
ENDBLK
  5
232
100
AcDbEntity
  8
0
100
AcDbBlockEnd
  0
BLOCK
  5
1E1
100
AcDbEntity
  8
0
100
AcDbBlockBegin
  2
50_SP91520
 70
     0
 10
0.0
 20
0.0
 30
0.0
  3
50_SP91520
  1

  0
INSERT
  5
16F
100
AcDbEntity
  8
0
100
AcDbBlockReference
  2
GLAS21-6X5
 10
-50.0
 20
0.0
 30
0.0
  0
INSERT
  5
1D7
100
AcDbEntity
  8
0
100
AcDbBlockReference
  2
SP91520
 10
0.0
 20
0.0
 30
0.0
  0
LWPOLYLINE
  5
1DE
100
AcDbEntity
  8
CENTRUM
100
AcDbPolyline
 90
        4
 70
     0
 43
0.0
 10
0.0
 20
57.5
 10
-20.0
 20
57.5
 10
-41.0
 20
57.5
 10
-50.0
 20
57.5
  0
LINE
  5
1DF
100
AcDbEntity
  8
GLAS_MED_FOGNING
100
AcDbLine
 10
-41.0
 20
57.5
 30
0.0
 11
-41.0
 21
49.0
 31
0.0
  0
LINE
  5
1E0
100
AcDbEntity
  8
GLAS_MED_FOGNING
100
AcDbLine
 10
-20.0
 20
57.5
 30
0.0
 11
-20.0
 21
49.0
 31
0.0
  0
ENDBLK
  5
1E2
100
AcDbEntity
  8
0
100
AcDbBlockEnd
  0
BLOCK
  5
93
100
AcDbEntity
  8
0
100
AcDbBlockBegin
  2
SP41000
 70
     0
 10
0.0
 20
0.0
 30
0.0
  3
SP41000
  1

  0
LINE
  5
8F
100
AcDbEntity
  8
CENTRUM
100
AcDbLine
 10
-15.999975
 20
26.099901
 30
0.0
 11
-16.000124
 21
20.099901
 31
0.0
  0
LWPOLYLINE
  5
92
100
AcDbEntity
  8
GLAS_MED_FOGNING
100
AcDbPolyline
 90
        9
 70
     0
 43
0.0
 10
-21.895347
 20
26.821776
 10
-20.0
 20
25.1
 10
-12.5
 20
25.099814
 42
0.315299
 10
-11.278378
 20
25.955158
 10
-10.496797
 20
28.102371
 42
-0.419684
 10
-10.107042
 20
28.279701
 10
-6.40871
 20
26.461158
 42
0.414233
 10
-4.670299
 20
27.059616
 10
-2.916703
 20
30.654738
  0
ENDBLK
  5
94
100
AcDbEntity
  8
0
100
AcDbBlockEnd
  0
BLOCK
  5
5A5
100
AcDbEntity
  8
0
100
AcDbBlockBegin
  2
GLAS26-6X5DK
 70
     0
 10
0.0
 20
0.0
 30
0.0
  3
GLAS26-6X5DK
  1

  0
ARC
  5
582
100
AcDbEntity
  8
GLAS_MED_FOGNING
100
AcDbCircle
 10
40.0
 20
48.0
 30
0.0
 40
5.0
100
AcDbArc
 50
180.0
 51
270.0
  0
LINE
  5
583
100
AcDbEntity
  8
GLAS_MED_FOGNING
100
AcDbLine
 10
35.0
 20
49.0
 30
0.0
 11
35.0
 21
30.0
 31
0.0
  0
ARC
  5
584
100
AcDbEntity
  8
GLAS_MED_FOGNING
100
AcDbCircle
 10
3.0
 20
49.0
 30
0.0
 40
6.0
100
AcDbArc
 50
270.0
 51
0.0
  0
LINE
  5
585
100
AcDbEntity
  8
GLAS_MED_FOGNING
100
AcDbLine
 10
9.0
 20
49.0
 30
0.0
 11
9.0
 21
30.0
 31
0.0
  0
LINE
  5
586
100
AcDbEntity
  8
GLAS_MED_FOGNING
100
AcDbLine
 10
35.0
 20
30.0
 30
0.0
 11
9.0
 21
25.0
 31
0.0
  0
LINE
  5
587
100
AcDbEntity
  8
GLAS_MED_FOGNING
100
AcDbLine
 10
9.0
 20
30.0
 30
0.0
 11
35.0
 21
25.0
 31
0.0
  0
LINE
  5
588
100
AcDbEntity
  8
GLAS_MED_FOGNING
100
AcDbLine
 10
35.0
 20
30.0
 30
0.0
 11
9.0
 21
30.0
 31
0.0
  0
LINE
  5
589
100
AcDbEntity
  8
GLAS_MED_FOGNING
100
AcDbLine
 10
9.0
 20
31.0
 30
0.0
 11
3.0
 21
31.0
 31
0.0
  0
LINE
  5
58A
100
AcDbEntity
  8
GLAS_MED_FOGNING
100
AcDbLine
 10
9.0
 20
35.0
 30
0.0
 11
3.0
 21
35.0
 31
0.0
  0
LINE
  5
58B
100
AcDbEntity
  8
GLAS_MED_FOGNING
100
AcDbLine
 10
9.0
 20
33.0
 30
0.0
 11
3.0
 21
33.0
 31
0.0
  0
LINE
  5
58C
100
AcDbEntity
  8
GLAS_MED_FOGNING
100
AcDbLine
 10
9.0
 20
34.0
 30
0.0
 11
3.0
 21
34.0
 31
0.0
  0
LINE
  5
58D
100
AcDbEntity
  8
GLAS_MED_FOGNING
100
AcDbLine
 10
9.0
 20
32.0
 30
0.0
 11
3.0
 21
32.0
 31
0.0
  0
INSERT
  5
58E
100
AcDbEntity
  8
GLAS_MED_FOGNING
100
AcDbBlockReference
  2
*X23
 10
50.0
 20
0.0
 30
0.0
1001
ACAD
1000
HATCH
1002
{
1070
    16
1000
AR-SAND
1040
2.0
1040
0.0
1002
}
  0
LINE
  5
58F
100
AcDbEntity
  8
GLAS_MED_FOGNING
100
AcDbLine
 10
9.0
 20
30.0
 30
0.0
 11
9.0
 21
25.0
 31
0.0
  0
LINE
  5
590
100
AcDbEntity
  8
GLAS_MED_FOGNING
100
AcDbLine
 10
9.0
 20
41.0
 30
0.0
 11
3.0
 21
41.0
 31
0.0
  0
LINE
  5
591
100
AcDbEntity
  8
GLAS_MED_FOGNING
100
AcDbLine
 10
9.0
 20
39.0
 30
0.0
 11
3.0
 21
39.0
 31
0.0
  0
LINE
  5
592
100
AcDbEntity
  8
GLAS_MED_FOGNING
100
AcDbLine
 10
9.0
 20
40.0
 30
0.0
 11
3.0
 21
40.0
 31
0.0
  0
LINE
  5
593
100
AcDbEntity
  8
GLAS_MED_FOGNING
100
AcDbLine
 10
9.0
 20
37.0
 30
0.0
 11
3.0
 21
37.0
 31
0.0
  0
LINE
  5
594
100
AcDbEntity
  8
GLAS_MED_FOGNING
100
AcDbLine
 10
9.0
 20
38.0
 30
0.0
 11
3.0
 21
38.0
 31
0.0
  0
LINE
  5
595
100
AcDbEntity
  8
GLAS_MED_FOGNING
100
AcDbLine
 10
9.0
 20
36.0
 30
0.0
 11
3.0
 21
36.0
 31
0.0
  0
INSERT
  5
596
100
AcDbEntity
  8
GLAS_MED_FOGNING
100
AcDbBlockReference
  2
*X21
 10
50.0
 20
0.0
 30
0.0
1001
ACAD
1000
HATCH
1002
{
1070
    16
1000
AR-SAND
1040
2.0
1040
0.0
1002
}
  0
LINE
  5
597
100
AcDbEntity
  8
GLAS_MED_FOGNING
100
AcDbLine
 10
40.0
 20
31.0
 30
0.0
 11
35.0
 21
31.0
 31
0.0
  0
LINE
  5
598
100
AcDbEntity
  8
GLAS_MED_FOGNING
100
AcDbLine
 10
40.0
 20
35.0
 30
0.0
 11
35.0
 21
35.0
 31
0.0
  0
LINE
  5
599
100
AcDbEntity
  8
GLAS_MED_FOGNING
100
AcDbLine
 10
40.0
 20
34.0
 30
0.0
 11
35.0
 21
34.0
 31
0.0
  0
LINE
  5
59A
100
AcDbEntity
  8
GLAS_MED_FOGNING
100
AcDbLine
 10
40.0
 20
33.0
 30
0.0
 11
35.0
 21
33.0
 31
0.0
  0
LINE
  5
59B
100
AcDbEntity
  8
GLAS_MED_FOGNING
100
AcDbLine
 10
40.0
 20
32.0
 30
0.0
 11
35.0
 21
32.0
 31
0.0
  0
INSERT
  5
59C
100
AcDbEntity
  8
GLAS_MED_FOGNING
100
AcDbBlockReference
  2
*X24
 10
70.0
 20
0.0
 30
0.0
1001
ACAD
1000
HATCH
1002
{
1070
    16
1000
AR-SAND
1040
2.0
1040
0.0
1002
}
  0
LINE
  5
59D
100
AcDbEntity
  8
GLAS_MED_FOGNING
100
AcDbLine
 10
35.0
 20
30.0
 30
0.0
 11
35.0
 21
25.0
 31
0.0
  0
LINE
  5
59E
100
AcDbEntity
  8
GLAS_MED_FOGNING
100
AcDbLine
 10
40.0
 20
41.0
 30
0.0
 11
35.0
 21
41.0
 31
0.0
  0
LINE
  5
59F
100
AcDbEntity
  8
GLAS_MED_FOGNING
100
AcDbLine
 10
40.0
 20
40.0
 30
0.0
 11
35.0
 21
40.0
 31
0.0
  0
LINE
  5
5A0
100
AcDbEntity
  8
GLAS_MED_FOGNING
100
AcDbLine
 10
40.0
 20
39.0
 30
0.0
 11
35.0
 21
39.0
 31
0.0
  0
LINE
  5
5A1
100
AcDbEntity
  8
GLAS_MED_FOGNING
100
AcDbLine
 10
40.0
 20
38.0
 30
0.0
 11
35.0
 21
38.0
 31
0.0
  0
LINE
  5
5A2
100
AcDbEntity
  8
GLAS_MED_FOGNING
100
AcDbLine
 10
40.0
 20
37.0
 30
0.0
 11
35.0
 21
37.0
 31
0.0
  0
LINE
  5
5A3
100
AcDbEntity
  8
GLAS_MED_FOGNING
100
AcDbLine
 10
40.0
 20
36.0
 30
0.0
 11
35.0
 21
36.0
 31
0.0
  0
INSERT
  5
5A4
100
AcDbEntity
  8
GLAS_MED_FOGNING
100
AcDbBlockReference
  2
*X22
 10
70.0
 20
0.0
 30
0.0
1001
ACAD
1000
HATCH
1002
{
1070
    16
1000
AR-SAND
1040
2.0
1040
0.0
1002
}
  0
ENDBLK
  5
5A6
100
AcDbEntity
  8
0
100
AcDbBlockEnd
  0
BLOCK
  5
4EB
100
AcDbEntity
  8
0
100
AcDbBlockBegin
  2
*X47
 70
     1
 10
0.0
 20
0.0
 30
0.0
  3
*X47
  1

  0
LINE
  5
49F
100
AcDbEntity
  8
0
 62
     0
100
AcDbLine
 10
-27.153021
 20
26.568601
 30
0.0
 11
-27.153021
 21
26.568601
 31
0.0
  0
LINE
  5
4A0
100
AcDbEntity
  8
0
 62
     0
100
AcDbLine
 10
-24.574622
 20
28.547076
 30
0.0
 11
-24.574622
 21
28.547076
 31
0.0
  0
LINE
  5
4A1
100
AcDbEntity
  8
0
 62
     0
100
AcDbLine
 10
-32.388203
 20
26.501825
 30
0.0
 11
-32.388203
 21
26.501825
 31
0.0
  0
LINE
  5
4A2
100
AcDbEntity
  8
0
 62
     0
100
AcDbLine
 10
-29.976409
 20
28.35246
 30
0.0
 11
-29.976409
 21
28.35246
 31
0.0
  0
LINE
  5
4A3
100
AcDbEntity
  8
0
 62
     0
100
AcDbLine
 10
-37.789989
 20
26.307209
 30
0.0
 11
-37.789989
 21
26.307209
 31
0.0
  0
LINE
  5
4A4
100
AcDbEntity
  8
0
 62
     0
100
AcDbLine
 10
-35.092588
 20
28.376998
 30
0.0
 11
-35.092588
 21
28.376998
 31
0.0
  0
LINE
  5
4A5
100
AcDbEntity
  8
0
 62
     0
100
AcDbLine
 10
-42.906168
 20
26.331747
 30
0.0
 11
-42.906168
 21
26.331747
 31
0.0
  0
LINE
  5
4A6
100
AcDbEntity
  8
0
 62
     0
100
AcDbLine
 10
-40.32777
 20
28.310222
 30
0.0
 11
-40.32777
 21
28.310222
 31
0.0
  0
LINE
  5
4A7
100
AcDbEntity
  8
0
 62
     0
100
AcDbLine
 10
-45.729557
 20
28.115606
 30
0.0
 11
-45.729557
 21
28.115606
 31
0.0
  0
LINE
  5
4A8
100
AcDbEntity
  8
0
 62
     0
100
AcDbLine
 10
-43.032155
 20
30.185395
 30
0.0
 11
-43.032155
 21
30.185395
 31
0.0
  0
LINE
  5
4A9
100
AcDbEntity
  8
0
 62
     0
100
AcDbLine
 10
-22.036841
 20
26.544063
 30
0.0
 11
-22.036841
 21
26.544063
 31
0.0
  0
LINE
  5
4AA
100
AcDbEntity
  8
0
 62
     0
100
AcDbLine
 10
-19.33944
 20
28.613852
 30
0.0
 11
-19.33944
 21
28.613852
 31
0.0
  0
LINE
  5
4AB
100
AcDbEntity
  8
0
 62
     0
100
AcDbLine
 10
-16.635055
 20
26.738679
 30
0.0
 11
-16.635055
 21
26.738679
 31
0.0
  0
LINE
  5
4AC
100
AcDbEntity
  8
0
 62
     0
100
AcDbLine
 10
-14.223261
 20
28.589314
 30
0.0
 11
-14.223261
 21
28.589314
 31
0.0
  0
LINE
  5
4AD
100
AcDbEntity
  8
0
 62
     0
100
AcDbLine
 10
-11.525859
 20
30.659102
 30
0.0
 11
-11.525859
 21
30.659102
 31
0.0
  0
LINE
  5
4AE
100
AcDbEntity
  8
0
 62
     0
100
AcDbLine
 10
-11.399873
 20
26.805455
 30
0.0
 11
-11.399873
 21
26.805455
 31
0.0
  0
LINE
  5
4AF
100
AcDbEntity
  8
0
 62
     0
100
AcDbLine
 10
-44.406244
 20
25.223614
 30
0.0
 11
-44.406244
 21
25.223614
 31
0.0
  0
LINE
  5
4B0
100
AcDbEntity
  8
0
 62
     0
100
AcDbLine
 10
-43.365227
 20
25.360666
 30
0.0
 11
-43.365227
 21
25.360666
 31
0.0
  0
LINE
  5
4B1
100
AcDbEntity
  8
0
 62
     0
100
AcDbLine
 10
-41.739257
 20
25.574729
 30
0.0
 11
-41.739257
 21
25.574729
 31
0.0
  0
LINE
  5
4B2
100
AcDbEntity
  8
0
 62
     0
100
AcDbLine
 10
-39.022698
 20
25.932371
 30
0.0
 11
-39.022698
 21
25.932371
 31
0.0
  0
LINE
  5
4B3
100
AcDbEntity
  8
0
 62
     0
100
AcDbLine
 10
-37.981681
 20
26.069423
 30
0.0
 11
-37.981681
 21
26.069423
 31
0.0
  0
LINE
  5
4B4
100
AcDbEntity
  8
0
 62
     0
100
AcDbLine
 10
-36.355712
 20
26.283486
 30
0.0
 11
-36.355712
 21
26.283486
 31
0.0
  0
LINE
  5
4B5
100
AcDbEntity
  8
0
 62
     0
100
AcDbLine
 10
-33.639153
 20
26.641128
 30
0.0
 11
-33.639153
 21
26.641128
 31
0.0
  0
LINE
  5
4B6
100
AcDbEntity
  8
0
 62
     0
100
AcDbLine
 10
-32.598136
 20
26.778181
 30
0.0
 11
-32.598136
 21
26.778181
 31
0.0
  0
LINE
  5
4B7
100
AcDbEntity
  8
0
 62
     0
100
AcDbLine
 10
-30.972166
 20
26.992244
 30
0.0
 11
-30.972166
 21
26.992244
 31
0.0
  0
LINE
  5
4B8
100
AcDbEntity
  8
0
 62
     0
100
AcDbLine
 10
-28.255607
 20
27.349885
 30
0.0
 11
-28.255607
 21
27.349885
 31
0.0
  0
LINE
  5
4B9
100
AcDbEntity
  8
0
 62
     0
100
AcDbLine
 10
-27.21459
 20
27.486938
 30
0.0
 11
-27.21459
 21
27.486938
 31
0.0
  0
LINE
  5
4BA
100
AcDbEntity
  8
0
 62
     0
100
AcDbLine
 10
-25.58862
 20
27.701001
 30
0.0
 11
-25.58862
 21
27.701001
 31
0.0
  0
LINE
  5
4BB
100
AcDbEntity
  8
0
 62
     0
100
AcDbLine
 10
-22.872061
 20
28.058642
 30
0.0
 11
-22.872061
 21
28.058642
 31
0.0
  0
LINE
  5
4BC
100
AcDbEntity
  8
0
 62
     0
100
AcDbLine
 10
-21.831044
 20
28.195695
 30
0.0
 11
-21.831044
 21
28.195695
 31
0.0
  0
LINE
  5
4BD
100
AcDbEntity
  8
0
 62
     0
100
AcDbLine
 10
-20.205075
 20
28.409758
 30
0.0
 11
-20.205075
 21
28.409758
 31
0.0
  0
LINE
  5
4BE
100
AcDbEntity
  8
0
 62
     0
100
AcDbLine
 10
-17.488516
 20
28.7674
 30
0.0
 11
-17.488516
 21
28.7674
 31
0.0
  0
LINE
  5
4BF
100
AcDbEntity
  8
0
 62
     0
100
AcDbLine
 10
-16.447499
 20
28.904452
 30
0.0
 11
-16.447499
 21
28.904452
 31
0.0
  0
LINE
  5
4C0
100
AcDbEntity
  8
0
 62
     0
100
AcDbLine
 10
-14.821529
 20
29.118515
 30
0.0
 11
-14.821529
 21
29.118515
 31
0.0
  0
LINE
  5
4C1
100
AcDbEntity
  8
0
 62
     0
100
AcDbLine
 10
-12.10497
 20
29.476157
 30
0.0
 11
-12.10497
 21
29.476157
 31
0.0
  0
LINE
  5
4C2
100
AcDbEntity
  8
0
 62
     0
100
AcDbLine
 10
-11.063953
 20
29.613209
 30
0.0
 11
-11.063953
 21
29.613209
 31
0.0
  0
LINE
  5
4C3
100
AcDbEntity
  8
0
 62
     0
100
AcDbLine
 10
-46.250236
 20
30.159149
 30
0.0
 11
-46.250236
 21
30.159149
 31
0.0
  0
LINE
  5
4C4
100
AcDbEntity
  8
0
 62
     0
100
AcDbLine
 10
-45.209219
 20
30.296201
 30
0.0
 11
-45.209219
 21
30.296201
 31
0.0
  0
LINE
  5
4C5
100
AcDbEntity
  8
0
 62
     0
100
AcDbLine
 10
-43.583249
 20
30.510264
 30
0.0
 11
-43.583249
 21
30.510264
 31
0.0
  0
LINE
  5
4C6
100
AcDbEntity
  8
0
 62
     0
100
AcDbLine
 10
-29.993
 20
29.477973
 30
0.0
 11
-29.993
 21
29.477973
 31
0.0
  0
LINE
  5
4C7
100
AcDbEntity
  8
0
 62
     0
100
AcDbLine
 10
-26.956791
 20
27.543694
 30
0.0
 11
-26.956791
 21
27.543694
 31
0.0
  0
LINE
  5
4C8
100
AcDbEntity
  8
0
 62
     0
100
AcDbLine
 10
-22.992851
 20
25.018386
 30
0.0
 11
-22.992851
 21
25.018386
 31
0.0
  0
LINE
  5
4C9
100
AcDbEntity
  8
0
 62
     0
100
AcDbLine
 10
-23.764716
 20
29.489291
 30
0.0
 11
-23.764716
 21
29.489291
 31
0.0
  0
LINE
  5
4CA
100
AcDbEntity
  8
0
 62
     0
100
AcDbLine
 10
-20.728507
 20
27.555012
 30
0.0
 11
-20.728507
 21
27.555012
 31
0.0
  0
LINE
  5
4CB
100
AcDbEntity
  8
0
 62
     0
100
AcDbLine
 10
-16.764567
 20
25.029704
 30
0.0
 11
-16.764567
 21
25.029704
 31
0.0
  0
LINE
  5
4CC
100
AcDbEntity
  8
0
 62
     0
100
AcDbLine
 10
-17.536433
 20
29.500609
 30
0.0
 11
-17.536433
 21
29.500609
 31
0.0
  0
LINE
  5
4CD
100
AcDbEntity
  8
0
 62
     0
100
AcDbLine
 10
-14.500223
 20
27.56633
 30
0.0
 11
-14.500223
 21
27.56633
 31
0.0
  0
LINE
  5
4CE
100
AcDbEntity
  8
0
 62
     0
100
AcDbLine
 10
-10.536284
 20
25.041022
 30
0.0
 11
-10.536284
 21
25.041022
 31
0.0
  0
LINE
  5
4CF
100
AcDbEntity
  8
0
 62
     0
100
AcDbLine
 10
-12.15154
 20
30.049227
 30
0.0
 11
-12.15154
 21
30.049227
 31
0.0
  0
LINE
  5
4D0
100
AcDbEntity
  8
0
 62
     0
100
AcDbLine
 10
-11.308149
 20
29.511927
 30
0.0
 11
-11.308149
 21
29.511927
 31
0.0
  0
LINE
  5
4D1
100
AcDbEntity
  8
0
 62
     0
100
AcDbLine
 10
-36.221284
 20
29.466655
 30
0.0
 11
-36.221284
 21
29.466655
 31
0.0
  0
LINE
  5
4D2
100
AcDbEntity
  8
0
 62
     0
100
AcDbLine
 10
-33.185075
 20
27.532376
 30
0.0
 11
-33.185075
 21
27.532376
 31
0.0
  0
LINE
  5
4D3
100
AcDbEntity
  8
0
 62
     0
100
AcDbLine
 10
-29.221135
 20
25.007068
 30
0.0
 11
-29.221135
 21
25.007068
 31
0.0
  0
LINE
  5
4D4
100
AcDbEntity
  8
0
 62
     0
100
AcDbLine
 10
-43.292959
 20
29.992636
 30
0.0
 11
-43.292959
 21
29.992636
 31
0.0
  0
LINE
  5
4D5
100
AcDbEntity
  8
0
 62
     0
100
AcDbLine
 10
-42.449568
 20
29.455337
 30
0.0
 11
-42.449568
 21
29.455337
 31
0.0
  0
LINE
  5
4D6
100
AcDbEntity
  8
0
 62
     0
100
AcDbLine
 10
-39.413358
 20
27.521058
 30
0.0
 11
-39.413358
 21
27.521058
 31
0.0
  0
LINE
  5
4D7
100
AcDbEntity
  8
0
 62
     0
100
AcDbLine
 10
-45.641642
 20
27.50974
 30
0.0
 11
-45.641642
 21
27.50974
 31
0.0
  0
LINE
  5
4D8
100
AcDbEntity
  8
0
 62
     0
100
AcDbLine
 10
-34.885457
 20
29.712457
 30
0.0
 11
-34.885457
 21
29.712457
 31
0.0
  0
LINE
  5
4D9
100
AcDbEntity
  8
0
 62
     0
100
AcDbLine
 10
-33.145483
 20
28.118064
 30
0.0
 11
-33.145483
 21
28.118064
 31
0.0
  0
LINE
  5
4DA
100
AcDbEntity
  8
0
 62
     0
100
AcDbLine
 10
-31.154834
 20
26.293971
 30
0.0
 11
-31.154834
 21
26.293971
 31
0.0
  0
LINE
  5
4DB
100
AcDbEntity
  8
0
 62
     0
100
AcDbLine
 10
-30.786195
 20
25.956176
 30
0.0
 11
-30.786195
 21
25.956176
 31
0.0
  0
LINE
  5
4DC
100
AcDbEntity
  8
0
 62
     0
100
AcDbLine
 10
-27.13323
 20
29.873416
 30
0.0
 11
-27.13323
 21
29.873416
 31
0.0
  0
LINE
  5
4DD
100
AcDbEntity
  8
0
 62
     0
100
AcDbLine
 10
-25.142581
 20
28.049322
 30
0.0
 11
-25.142581
 21
28.049322
 31
0.0
  0
LINE
  5
4DE
100
AcDbEntity
  8
0
 62
     0
100
AcDbLine
 10
-24.773942
 20
27.711527
 30
0.0
 11
-24.773942
 21
27.711527
 31
0.0
  0
LINE
  5
4DF
100
AcDbEntity
  8
0
 62
     0
100
AcDbLine
 10
-23.033968
 20
26.117134
 30
0.0
 11
-23.033968
 21
26.117134
 31
0.0
  0
LINE
  5
4E0
100
AcDbEntity
  8
0
 62
     0
100
AcDbLine
 10
-19.130328
 20
29.804673
 30
0.0
 11
-19.130328
 21
29.804673
 31
0.0
  0
LINE
  5
4E1
100
AcDbEntity
  8
0
 62
     0
100
AcDbLine
 10
-18.761689
 20
29.466878
 30
0.0
 11
-18.761689
 21
29.466878
 31
0.0
  0
LINE
  5
4E2
100
AcDbEntity
  8
0
 62
     0
100
AcDbLine
 10
-17.021714
 20
27.872485
 30
0.0
 11
-17.021714
 21
27.872485
 31
0.0
  0
LINE
  5
4E3
100
AcDbEntity
  8
0
 62
     0
100
AcDbLine
 10
-15.031066
 20
26.048392
 30
0.0
 11
-15.031066
 21
26.048392
 31
0.0
  0
LINE
  5
4E4
100
AcDbEntity
  8
0
 62
     0
100
AcDbLine
 10
-14.662427
 20
25.710596
 30
0.0
 11
-14.662427
 21
25.710596
 31
0.0
  0
LINE
  5
4E5
100
AcDbEntity
  8
0
 62
     0
100
AcDbLine
 10
-11.009461
 20
29.627836
 30
0.0
 11
-11.009461
 21
29.627836
 31
0.0
  0
LINE
  5
4E6
100
AcDbEntity
  8
0
 62
     0
100
AcDbLine
 10
-43.256998
 20
30.118995
 30
0.0
 11
-43.256998
 21
30.118995
 31
0.0
  0
LINE
  5
4E7
100
AcDbEntity
  8
0
 62
     0
100
AcDbLine
 10
-41.266349
 20
28.294901
 30
0.0
 11
-41.266349
 21
28.294901
 31
0.0
  0
LINE
  5
4E8
100
AcDbEntity
  8
0
 62
     0
100
AcDbLine
 10
-40.89771
 20
27.957106
 30
0.0
 11
-40.89771
 21
27.957106
 31
0.0
  0
LINE
  5
4E9
100
AcDbEntity
  8
0
 62
     0
100
AcDbLine
 10
-39.157736
 20
26.362713
 30
0.0
 11
-39.157736
 21
26.362713
 31
0.0
  0
LINE
  5
4EA
100
AcDbEntity
  8
0
 62
     0
100
AcDbLine
 10
-46.909964
 20
26.201755
 30
0.0
 11
-46.909964
 21
26.201755
 31
0.0
  0
ENDBLK
  5
4EC
100
AcDbEntity
  8
0
100
AcDbBlockEnd
  0
BLOCK
  5
508
100
AcDbEntity
  8
0
100
AcDbBlockBegin
  2
GLAS26-6X5
 70
     0
 10
0.0
 20
0.0
 30
0.0
  3
GLAS26-6X5
  1

  0
LINE
  5
49B
100
AcDbEntity
  8
GLAS_MED_FOGNING
100
AcDbLine
 10
35.0
 20
49.0
 30
0.0
 11
35.0
 21
30.0
 31
0.0
  0
LINE
  5
49C
100
AcDbEntity
  8
GLAS_MED_FOGNING
100
AcDbLine
 10
9.0
 20
49.0
 30
0.0
 11
9.0
 21
30.0
 31
0.0
  0
INSERT
  5
49D
100
AcDbEntity
  8
GLAS_MED_FOGNING
100
AcDbBlockReference
  2
*X47
 10
50.0
 20
0.0
 30
0.0
1001
ACAD
1000
HATCH
1002
{
1070
    16
1000
AR-SAND
1040
2.0
1040
0.0
1002
}
  0
LINE
  5
4ED
100
AcDbEntity
  8
GLAS_MED_FOGNING
100
AcDbLine
 10
35.0
 20
30.0
 30
0.0
 11
9.0
 21
30.0
 31
0.0
  0
LINE
  5
4EE
100
AcDbEntity
  8
GLAS_MED_FOGNING
100
AcDbLine
 10
9.0
 20
32.0
 30
0.0
 11
3.0
 21
32.0
 31
0.0
  0
LINE
  5
4EF
100
AcDbEntity
  8
GLAS_MED_FOGNING
100
AcDbLine
 10
9.0
 20
34.0
 30
0.0
 11
3.0
 21
34.0
 31
0.0
  0
LINE
  5
4F0
100
AcDbEntity
  8
GLAS_MED_FOGNING
100
AcDbLine
 10
9.0
 20
33.0
 30
0.0
 11
3.0
 21
33.0
 31
0.0
  0
LINE
  5
4F1
100
AcDbEntity
  8
GLAS_MED_FOGNING
100
AcDbLine
 10
9.0
 20
35.0
 30
0.0
 11
3.0
 21
35.0
 31
0.0
  0
LINE
  5
4F2
100
AcDbEntity
  8
GLAS_MED_FOGNING
100
AcDbLine
 10
9.0
 20
36.0
 30
0.0
 11
3.0
 21
36.0
 31
0.0
  0
LINE
  5
4F3
100
AcDbEntity
  8
GLAS_MED_FOGNING
100
AcDbLine
 10
9.0
 20
38.0
 30
0.0
 11
3.0
 21
38.0
 31
0.0
  0
LINE
  5
4F4
100
AcDbEntity
  8
GLAS_MED_FOGNING
100
AcDbLine
 10
9.0
 20
37.0
 30
0.0
 11
3.0
 21
37.0
 31
0.0
  0
LINE
  5
4F5
100
AcDbEntity
  8
GLAS_MED_FOGNING
100
AcDbLine
 10
9.0
 20
31.0
 30
0.0
 11
3.0
 21
31.0
 31
0.0
  0
LINE
  5
4F6
100
AcDbEntity
  8
GLAS_MED_FOGNING
100
AcDbLine
 10
40.0
 20
32.0
 30
0.0
 11
35.0
 21
32.0
 31
0.0
  0
LINE
  5
4F7
100
AcDbEntity
  8
GLAS_MED_FOGNING
100
AcDbLine
 10
40.0
 20
33.0
 30
0.0
 11
35.0
 21
33.0
 31
0.0
  0
LINE
  5
4F8
100
AcDbEntity
  8
GLAS_MED_FOGNING
100
AcDbLine
 10
40.0
 20
34.0
 30
0.0
 11
35.0
 21
34.0
 31
0.0
  0
LINE
  5
4F9
100
AcDbEntity
  8
GLAS_MED_FOGNING
100
AcDbLine
 10
40.0
 20
35.0
 30
0.0
 11
35.0
 21
35.0
 31
0.0
  0
LINE
  5
4FA
100
AcDbEntity
  8
GLAS_MED_FOGNING
100
AcDbLine
 10
40.0
 20
36.0
 30
0.0
 11
35.0
 21
36.0
 31
0.0
  0
LINE
  5
4FB
100
AcDbEntity
  8
GLAS_MED_FOGNING
100
AcDbLine
 10
40.0
 20
37.0
 30
0.0
 11
35.0
 21
37.0
 31
0.0
  0
LINE
  5
4FC
100
AcDbEntity
  8
GLAS_MED_FOGNING
100
AcDbLine
 10
40.0
 20
38.0
 30
0.0
 11
35.0
 21
38.0
 31
0.0
  0
LINE
  5
4FD
100
AcDbEntity
  8
GLAS_MED_FOGNING
100
AcDbLine
 10
40.0
 20
31.0
 30
0.0
 11
35.0
 21
31.0
 31
0.0
  0
LINE
  5
4FE
100
AcDbEntity
  8
GLAS_MED_FOGNING
100
AcDbLine
 10
9.0
 20
40.0
 30
0.0
 11
3.0
 21
40.0
 31
0.0
  0
LINE
  5
4FF
100
AcDbEntity
  8
GLAS_MED_FOGNING
100
AcDbLine
 10
9.0
 20
39.0
 30
0.0
 11
3.0
 21
39.0
 31
0.0
  0
LINE
  5
500
100
AcDbEntity
  8
GLAS_MED_FOGNING
100
AcDbLine
 10
9.0
 20
41.0
 30
0.0
 11
3.0
 21
41.0
 31
0.0
  0
INSERT
  5
501
100
AcDbEntity
  8
GLAS_MED_FOGNING
100
AcDbBlockReference
  2
*X21
 10
50.0
 20
0.0
 30
0.0
1001
ACAD
1000
HATCH
1002
{
1070
    16
1000
AR-SAND
1040
2.0
1040
0.0
1002
}
  0
ARC
  5
502
100
AcDbEntity
  8
GLAS_MED_FOGNING
100
AcDbCircle
 10
3.0
 20
49.0
 30
0.0
 40
6.0
100
AcDbArc
 50
270.0
 51
0.0
  0
LINE
  5
503
100
AcDbEntity
  8
GLAS_MED_FOGNING
100
AcDbLine
 10
40.0
 20
39.0
 30
0.0
 11
35.0
 21
39.0
 31
0.0
  0
LINE
  5
504
100
AcDbEntity
  8
GLAS_MED_FOGNING
100
AcDbLine
 10
40.0
 20
40.0
 30
0.0
 11
35.0
 21
40.0
 31
0.0
  0
LINE
  5
505
100
AcDbEntity
  8
GLAS_MED_FOGNING
100
AcDbLine
 10
40.0
 20
41.0
 30
0.0
 11
35.0
 21
41.0
 31
0.0
  0
INSERT
  5
506
100
AcDbEntity
  8
GLAS_MED_FOGNING
100
AcDbBlockReference
  2
*X22
 10
70.0
 20
0.0
 30
0.0
1001
ACAD
1000
HATCH
1002
{
1070
    16
1000
AR-SAND
1040
2.0
1040
0.0
1002
}
  0
ARC
  5
507
100
AcDbEntity
  8
GLAS_MED_FOGNING
100
AcDbCircle
 10
40.0
 20
48.0
 30
0.0
 40
5.0
100
AcDbArc
 50
180.0
 51
270.0
  0
ENDBLK
  5
509
100
AcDbEntity
  8
0
100
AcDbBlockEnd
  0
BLOCK
  5
5A9
100
AcDbEntity
  8
0
100
AcDbBlockBegin
  2
50_SP91020DK
 70
     0
 10
0.0
 20
0.0
 30
0.0
  3
50_SP91020DK
  1

  0
INSERT
  5
57E
100
AcDbEntity
  8
0
100
AcDbBlockReference
  2
SP91020
 10
0.0
 20
0.0
 30
0.0
  0
LWPOLYLINE
  5
57F
100
AcDbEntity
  8
CENTRUM
100
AcDbPolyline
 90
        4
 70
     0
 43
0.0
 10
0.0
 20
57.5
 10
-15.0
 20
57.5
 10
-41.0
 20
57.5
 10
-50.0
 20
57.5
  0
INSERT
  5
580
100
AcDbEntity
  8
0
100
AcDbBlockReference
  2
GLAS26-6X5DK
 10
-50.0
 20
0.0
 30
0.0
  0
LINE
  5
5A7
100
AcDbEntity
  8
GLAS_MED_FOGNING
100
AcDbLine
 10
-41.0
 20
57.5
 30
0.0
 11
-41.0
 21
49.0
 31
0.0
  0
LINE
  5
5A8
100
AcDbEntity
  8
GLAS_MED_FOGNING
100
AcDbLine
 10
-15.0
 20
57.5
 30
0.0
 11
-15.0
 21
49.0
 31
0.0
  0
ENDBLK
  5
5AA
100
AcDbEntity
  8
0
100
AcDbBlockEnd
  0
BLOCK
  5
50E
100
AcDbEntity
  8
0
100
AcDbBlockBegin
  2
50_SP91020
 70
     0
 10
0.0
 20
0.0
 30
0.0
  3
50_SP91020
  1

  0
INSERT
  5
499
100
AcDbEntity
  8
0
100
AcDbBlockReference
  2
GLAS26-6X5
 10
-50.0
 20
0.0
 30
0.0
  0
INSERT
  5
50A
100
AcDbEntity
  8
0
100
AcDbBlockReference
  2
SP91020
 10
0.0
 20
0.0
 30
0.0
  0
LWPOLYLINE
  5
50B
100
AcDbEntity
  8
CENTRUM
100
AcDbPolyline
 90
        4
 70
     0
 43
0.0
 10
0.0
 20
57.5
 10
-15.0
 20
57.5
 10
-41.0
 20
57.5
 10
-50.0
 20
57.5
  0
LINE
  5
50C
100
AcDbEntity
  8
GLAS_MED_FOGNING
100
AcDbLine
 10
-41.0
 20
57.5
 30
0.0
 11
-41.0
 21
49.0
 31
0.0
  0
LINE
  5
50D
100
AcDbEntity
  8
GLAS_MED_FOGNING
100
AcDbLine
 10
-15.0
 20
57.5
 30
0.0
 11
-15.0
 21
49.0
 31
0.0
  0
ENDBLK
  5
50F
100
AcDbEntity
  8
0
100
AcDbBlockEnd
  0
BLOCK
  5
CF
100
AcDbEntity
  8
0
100
AcDbBlockBegin
  2
*X51
 70
     1
 10
0.0
 20
0.0
 30
0.0
  3
*X51
  1

  0
LINE
  5
CE
100
AcDbEntity
  8
0
 62
     0
100
AcDbLine
 10
-59.163263
 20
41.509483
 30
0.0
 11
-59.163263
 21
41.509483
 31
0.0
  0
ENDBLK
  5
D0
100
AcDbEntity
  8
0
100
AcDbBlockEnd
  0
BLOCK
  5
DC
100
AcDbEntity
  8
0
100
AcDbBlockBegin
  2
*X52
 70
     1
 10
0.0
 20
0.0
 30
0.0
  3
*X52
  1

  0
LINE
  5
D9
100
AcDbEntity
  8
0
 62
     0
100
AcDbLine
 10
-17.139002
 20
42.153269
 30
0.0
 11
-17.139002
 21
42.153269
 31
0.0
  0
LINE
  5
DA
100
AcDbEntity
  8
0
 62
     0
100
AcDbLine
 10
-17.636947
 20
44.282762
 30
0.0
 11
-17.636947
 21
44.282762
 31
0.0
  0
LINE
  5
DB
100
AcDbEntity
  8
0
 62
     0
100
AcDbLine
 10
-17.294994
 20
42.652032
 30
0.0
 11
-17.294994
 21
42.652032
 31
0.0
  0
ENDBLK
  5
DD
100
AcDbEntity
  8
0
100
AcDbBlockEnd
  0
BLOCK
  5
AF
100
AcDbEntity
  8
0
100
AcDbBlockBegin
  2
*X53
 70
     1
 10
0.0
 20
0.0
 30
0.0
  3
*X53
  1

  0
LINE
  5
A6
100
AcDbEntity
  8
0
 62
     0
100
AcDbLine
 10
-58.659316
 20
26.094893
 30
0.0
 11
-58.659316
 21
26.094893
 31
0.0
  0
LINE
  5
A7
100
AcDbEntity
  8
0
 62
     0
100
AcDbLine
 10
-61.482704
 20
27.878752
 30
0.0
 11
-61.482704
 21
27.878752
 31
0.0
  0
LINE
  5
A8
100
AcDbEntity
  8
0
 62
     0
100
AcDbLine
 10
-58.785303
 20
29.948541
 30
0.0
 11
-58.785303
 21
29.948541
 31
0.0
  0
LINE
  5
A9
100
AcDbEntity
  8
0
 62
     0
100
AcDbLine
 10
-61.359856
 20
28.169929
 30
0.0
 11
-61.359856
 21
28.169929
 31
0.0
  0
LINE
  5
AA
100
AcDbEntity
  8
0
 62
     0
100
AcDbLine
 10
-59.733886
 20
28.383992
 30
0.0
 11
-59.733886
 21
28.383992
 31
0.0
  0
LINE
  5
AB
100
AcDbEntity
  8
0
 62
     0
100
AcDbLine
 10
-61.97781
 20
29.958682
 30
0.0
 11
-61.97781
 21
29.958682
 31
0.0
  0
LINE
  5
AC
100
AcDbEntity
  8
0
 62
     0
100
AcDbLine
 10
-61.134419
 20
29.421382
 30
0.0
 11
-61.134419
 21
29.421382
 31
0.0
  0
LINE
  5
AD
100
AcDbEntity
  8
0
 62
     0
100
AcDbLine
 10
-58.098209
 20
27.487104
 30
0.0
 11
-58.098209
 21
27.487104
 31
0.0
  0
LINE
  5
AE
100
AcDbEntity
  8
0
 62
     0
100
AcDbLine
 10
-59.380766
 20
30.364574
 30
0.0
 11
-59.380766
 21
30.364574
 31
0.0
  0
ENDBLK
  5
B0
100
AcDbEntity
  8
0
100
AcDbBlockEnd
  0
BLOCK
  5
C9
100
AcDbEntity
  8
0
100
AcDbBlockBegin
  2
*X54
 70
     1
 10
0.0
 20
0.0
 30
0.0
  3
*X54
  1

  0
LINE
  5
C0
100
AcDbEntity
  8
0
 62
     0
100
AcDbLine
 10
-16.635055
 20
26.738679
 30
0.0
 11
-16.635055
 21
26.738679
 31
0.0
  0
LINE
  5
C1
100
AcDbEntity
  8
0
 62
     0
100
AcDbLine
 10
-16.761042
 20
30.592326
 30
0.0
 11
-16.761042
 21
30.592326
 31
0.0
  0
LINE
  5
C2
100
AcDbEntity
  8
0
 62
     0
100
AcDbLine
 10
-17.488516
 20
28.7674
 30
0.0
 11
-17.488516
 21
28.7674
 31
0.0
  0
LINE
  5
C3
100
AcDbEntity
  8
0
 62
     0
100
AcDbLine
 10
-16.447499
 20
28.904452
 30
0.0
 11
-16.447499
 21
28.904452
 31
0.0
  0
LINE
  5
C4
100
AcDbEntity
  8
0
 62
     0
100
AcDbLine
 10
-16.764567
 20
25.029704
 30
0.0
 11
-16.764567
 21
25.029704
 31
0.0
  0
LINE
  5
C5
100
AcDbEntity
  8
0
 62
     0
100
AcDbLine
 10
-17.536433
 20
29.500609
 30
0.0
 11
-17.536433
 21
29.500609
 31
0.0
  0
LINE
  5
C6
100
AcDbEntity
  8
0
 62
     0
100
AcDbLine
 10
-17.021714
 20
27.872485
 30
0.0
 11
-17.021714
 21
27.872485
 31
0.0
  0
LINE
  5
C7
100
AcDbEntity
  8
0
 62
     0
100
AcDbLine
 10
-15.031066
 20
26.048392
 30
0.0
 11
-15.031066
 21
26.048392
 31
0.0
  0
LINE
  5
C8
100
AcDbEntity
  8
0
 62
     0
100
AcDbLine
 10
-14.662427
 20
25.710596
 30
0.0
 11
-14.662427
 21
25.710596
 31
0.0
  0
ENDBLK
  5
CA
100
AcDbEntity
  8
0
100
AcDbBlockEnd
  0
BLOCK
  5
2B7
100
AcDbEntity
  8
0
100
AcDbBlockBegin
  2
50_SP90520FYLLN
 70
     0
 10
0.0
 20
0.0
 30
0.0
  3
50_SP90520FYLLN
  1

  0
INSERT
  5
267
100
AcDbEntity
  8
0
100
AcDbBlockReference
  2
FYLLNV
 10
-50.0
 20
0.0
 30
0.0
  0
INSERT
  5
289
100
AcDbEntity
  8
0
100
AcDbBlockReference
  2
FYLLNH
 10
0.0
 20
0.0
 30
0.0
  0
INSERT
  5
2A8
100
AcDbEntity
  8
0
100
AcDbBlockReference
  2
SP90520
 10
0.0
 20
0.0
 30
0.0
  0
LWPOLYLINE
  5
2B0
100
AcDbEntity
  8
ISOLERING
100
AcDbPolyline
 90
       14
 70
     0
 43
0.0
 10
-9.518759
 20
30.805791
 42
0.107028
 10
-11.203417
 20
30.974219
 10
-37.046583
 20
28.025781
 42
-1.120577
 10
-37.046583
 20
35.974219
 10
-11.203417
 20
33.025781
 42
1.120577
 10
-11.203417
 20
40.974219
 10
-37.046583
 20
38.025781
 42
-1.120577
 10
-37.046583
 20
45.974219
 10
-11.203417
 20
43.025781
 42
1.120577
 10
-11.203417
 20
50.974219
 10
-37.046583
 20
48.025781
 42
-1.120577
 10
-37.046583
 20
55.974219
 10
-11.203417
 20
53.025781
 42
0.486056
 10
-6.781373
 20
57.5
  0
LWPOLYLINE
  5
2B2
100
AcDbEntity
  8
CENTRUM
100
AcDbPolyline
 90
        6
 70
     0
 43
0.0
 10
0.0
 20
57.5
 10
-4.25
 20
57.5
 10
-6.25
 20
57.5
 10
-42.0
 20
57.5
 10
-44.0
 20
57.5
 10
-50.0
 20
57.5
  0
LWPOLYLINE
  5
2B3
100
AcDbEntity
  8
SPKONTUR
100
AcDbPolyline
 90
        2
 70
     0
 43
0.0
 10
-44.0
 20
46.001
 10
-44.0
 20
57.5
  0
LWPOLYLINE
  5
2B4
100
AcDbEntity
  8
STALPROFIL
100
AcDbPolyline
 90
        2
 70
     0
 43
2.0
 10
-43.0
 20
46.001
 10
-43.0
 20
57.5
  0
LWPOLYLINE
  5
2B5
100
AcDbEntity
  8
STALPROFIL
100
AcDbPolyline
 90
        2
 70
     0
 43
2.0
 10
-5.25
 20
46.001
 10
-5.25
 20
57.5
  0
LWPOLYLINE
  5
2B6
100
AcDbEntity
  8
SPKONTUR
100
AcDbPolyline
 90
        2
 70
     0
 43
0.0
 10
-4.25
 20
46.001
 10
-4.25
 20
57.5
  0
ENDBLK
  5
2B8
100
AcDbEntity
  8
0
100
AcDbBlockEnd
  0
BLOCK
  5
DE
100
AcDbEntity
  8
0
100
AcDbBlockBegin
  2
GLAS30-4X3DK
 70
     0
 10
0.0
 20
0.0
 30
0.0
  3
GLAS30-4X3DK
  1

  0
LINE
  5
99
100
AcDbEntity
  8
GLAS_MED_FOGNING
100
AcDbLine
 10
7.0
 20
32.0
 30
0.0
 11
3.0
 21
32.0
 31
0.0
  0
LINE
  5
9A
100
AcDbEntity
  8
GLAS_MED_FOGNING
100
AcDbLine
 10
7.0
 20
34.0
 30
0.0
 11
3.0
 21
34.0
 31
0.0
  0
LINE
  5
9B
100
AcDbEntity
  8
GLAS_MED_FOGNING
100
AcDbLine
 10
7.0
 20
33.0
 30
0.0
 11
3.0
 21
33.0
 31
0.0
  0
LINE
  5
9C
100
AcDbEntity
  8
GLAS_MED_FOGNING
100
AcDbLine
 10
7.0
 20
35.0
 30
0.0
 11
3.0
 21
35.0
 31
0.0
  0
LINE
  5
9D
100
AcDbEntity
  8
GLAS_MED_FOGNING
100
AcDbLine
 10
7.0
 20
36.0
 30
0.0
 11
3.0
 21
36.0
 31
0.0
  0
LINE
  5
9E
100
AcDbEntity
  8
GLAS_MED_FOGNING
100
AcDbLine
 10
7.0
 20
38.0
 30
0.0
 11
3.0
 21
38.0
 31
0.0
  0
LINE
  5
9F
100
AcDbEntity
  8
GLAS_MED_FOGNING
100
AcDbLine
 10
7.0
 20
37.0
 30
0.0
 11
3.0
 21
37.0
 31
0.0
  0
LINE
  5
A0
100
AcDbEntity
  8
GLAS_MED_FOGNING
100
AcDbLine
 10
7.0
 20
40.0
 30
0.0
 11
3.0
 21
40.0
 31
0.0
  0
LINE
  5
A1
100
AcDbEntity
  8
GLAS_MED_FOGNING
100
AcDbLine
 10
7.0
 20
39.0
 30
0.0
 11
3.0
 21
39.0
 31
0.0
  0
LINE
  5
A2
100
AcDbEntity
  8
GLAS_MED_FOGNING
100
AcDbLine
 10
7.0
 20
41.0
 30
0.0
 11
3.0
 21
41.0
 31
0.0
  0
LINE
  5
A3
100
AcDbEntity
  8
GLAS_MED_FOGNING
100
AcDbLine
 10
7.0
 20
31.0
 30
0.0
 11
3.0
 21
31.0
 31
0.0
  0
INSERT
  5
A4
100
AcDbEntity
  8
GLAS_MED_FOGNING
100
AcDbBlockReference
  2
*X53
 10
65.0
 20
0.0
 30
0.0
1001
ACAD
1000
HATCH
1002
{
1070
    16
1000
AR-SAND
1040
2.0
1040
0.0
1002
}
  0
ARC
  5
B1
100
AcDbEntity
  8
GLAS_MED_FOGNING
100
AcDbCircle
 10
3.0
 20
47.0
 30
0.0
 40
4.0
100
AcDbArc
 50
270.0
 51
0.0
  0
LINE
  5
B2
100
AcDbEntity
  8
GLAS_MED_FOGNING
100
AcDbLine
 10
37.0
 20
49.0
 30
0.0
 11
37.0
 21
30.0
 31
0.0
  0
LINE
  5
B3
100
AcDbEntity
  8
GLAS_MED_FOGNING
100
AcDbLine
 10
7.0
 20
49.0
 30
0.0
 11
7.0
 21
30.0
 31
0.0
  0
LINE
  5
B4
100
AcDbEntity
  8
GLAS_MED_FOGNING
100
AcDbLine
 10
37.0
 20
30.0
 30
0.0
 11
7.0
 21
30.0
 31
0.0
  0
LINE
  5
B5
100
AcDbEntity
  8
GLAS_MED_FOGNING
100
AcDbLine
 10
7.0
 20
30.0
 30
0.0
 11
37.0
 21
25.0
 31
0.0
  0
LINE
  5
B6
100
AcDbEntity
  8
GLAS_MED_FOGNING
100
AcDbLine
 10
37.0
 20
30.0
 30
0.0
 11
7.0
 21
25.0
 31
0.0
  0
LINE
  5
B7
100
AcDbEntity
  8
GLAS_MED_FOGNING
100
AcDbLine
 10
7.0
 20
30.0
 30
0.0
 11
7.0
 21
25.0
 31
0.0
  0
LINE
  5
B8
100
AcDbEntity
  8
GLAS_MED_FOGNING
100
AcDbLine
 10
40.0
 20
32.0
 30
0.0
 11
37.0
 21
32.0
 31
0.0
  0
LINE
  5
B9
100
AcDbEntity
  8
GLAS_MED_FOGNING
100
AcDbLine
 10
40.0
 20
33.0
 30
0.0
 11
37.0
 21
33.0
 31
0.0
  0
LINE
  5
BA
100
AcDbEntity
  8
GLAS_MED_FOGNING
100
AcDbLine
 10
40.0
 20
34.0
 30
0.0
 11
37.0
 21
34.0
 31
0.0
  0
LINE
  5
BB
100
AcDbEntity
  8
GLAS_MED_FOGNING
100
AcDbLine
 10
40.0
 20
35.0
 30
0.0
 11
37.0
 21
35.0
 31
0.0
  0
LINE
  5
BC
100
AcDbEntity
  8
GLAS_MED_FOGNING
100
AcDbLine
 10
40.0
 20
36.0
 30
0.0
 11
37.0
 21
36.0
 31
0.0
  0
LINE
  5
BD
100
AcDbEntity
  8
GLAS_MED_FOGNING
100
AcDbLine
 10
40.0
 20
31.0
 30
0.0
 11
37.0
 21
31.0
 31
0.0
  0
INSERT
  5
BE
100
AcDbEntity
  8
GLAS_MED_FOGNING
100
AcDbBlockReference
  2
*X54
 10
55.0
 20
0.0
 30
0.0
1001
ACAD
1000
HATCH
1002
{
1070
    16
1000
AR-SAND
1040
2.0
1040
0.0
1002
}
  0
LINE
  5
CB
100
AcDbEntity
  8
GLAS_MED_FOGNING
100
AcDbLine
 10
37.0
 20
30.0
 30
0.0
 11
37.0
 21
25.0
 31
0.0
  0
INSERT
  5
CC
100
AcDbEntity
  8
GLAS_MED_FOGNING
100
AcDbBlockReference
  2
*X51
 10
65.0
 20
0.0
 30
0.0
1001
ACAD
1000
HATCH
1002
{
1070
    16
1000
AR-SAND
1040
2.0
1040
0.0
1002
}
  0
LINE
  5
D1
100
AcDbEntity
  8
GLAS_MED_FOGNING
100
AcDbLine
 10
40.0
 20
37.0
 30
0.0
 11
37.0
 21
37.0
 31
0.0
  0
LINE
  5
D2
100
AcDbEntity
  8
GLAS_MED_FOGNING
100
AcDbLine
 10
40.0
 20
38.0
 30
0.0
 11
37.0
 21
38.0
 31
0.0
  0
LINE
  5
D3
100
AcDbEntity
  8
GLAS_MED_FOGNING
100
AcDbLine
 10
40.0
 20
39.0
 30
0.0
 11
37.0
 21
39.0
 31
0.0
  0
LINE
  5
D4
100
AcDbEntity
  8
GLAS_MED_FOGNING
100
AcDbLine
 10
40.0
 20
40.0
 30
0.0
 11
37.0
 21
40.0
 31
0.0
  0
LINE
  5
D5
100
AcDbEntity
  8
GLAS_MED_FOGNING
100
AcDbLine
 10
40.0
 20
41.0
 30
0.0
 11
37.0
 21
41.0
 31
0.0
  0
ARC
  5
D6
100
AcDbEntity
  8
GLAS_MED_FOGNING
100
AcDbCircle
 10
40.0
 20
46.0
 30
0.0
 40
3.0
100
AcDbArc
 50
180.0
 51
270.0
  0
INSERT
  5
D7
100
AcDbEntity
  8
GLAS_MED_FOGNING
100
AcDbBlockReference
  2
*X52
 10
55.0
 20
0.0
 30
0.0
1001
ACAD
1000
HATCH
1002
{
1070
    16
1000
AR-SAND
1040
2.0
1040
0.0
1002
}
  0
ENDBLK
  5
DF
100
AcDbEntity
  8
0
100
AcDbBlockEnd
  0
BLOCK
  5
39C
100
AcDbEntity
  8
0
100
AcDbBlockBegin
  2
*X57
 70
     1
 10
0.0
 20
0.0
 30
0.0
  3
*X57
  1

  0
LINE
  5
350
100
AcDbEntity
  8
0
 62
     0
100
AcDbLine
 10
-27.153021
 20
26.568601
 30
0.0
 11
-27.153021
 21
26.568601
 31
0.0
  0
LINE
  5
351
100
AcDbEntity
  8
0
 62
     0
100
AcDbLine
 10
-24.574622
 20
28.547076
 30
0.0
 11
-24.574622
 21
28.547076
 31
0.0
  0
LINE
  5
352
100
AcDbEntity
  8
0
 62
     0
100
AcDbLine
 10
-32.388203
 20
26.501825
 30
0.0
 11
-32.388203
 21
26.501825
 31
0.0
  0
LINE
  5
353
100
AcDbEntity
  8
0
 62
     0
100
AcDbLine
 10
-29.976409
 20
28.35246
 30
0.0
 11
-29.976409
 21
28.35246
 31
0.0
  0
LINE
  5
354
100
AcDbEntity
  8
0
 62
     0
100
AcDbLine
 10
-37.789989
 20
26.307209
 30
0.0
 11
-37.789989
 21
26.307209
 31
0.0
  0
LINE
  5
355
100
AcDbEntity
  8
0
 62
     0
100
AcDbLine
 10
-35.092588
 20
28.376998
 30
0.0
 11
-35.092588
 21
28.376998
 31
0.0
  0
LINE
  5
356
100
AcDbEntity
  8
0
 62
     0
100
AcDbLine
 10
-42.906168
 20
26.331747
 30
0.0
 11
-42.906168
 21
26.331747
 31
0.0
  0
LINE
  5
357
100
AcDbEntity
  8
0
 62
     0
100
AcDbLine
 10
-40.32777
 20
28.310222
 30
0.0
 11
-40.32777
 21
28.310222
 31
0.0
  0
LINE
  5
358
100
AcDbEntity
  8
0
 62
     0
100
AcDbLine
 10
-45.729557
 20
28.115606
 30
0.0
 11
-45.729557
 21
28.115606
 31
0.0
  0
LINE
  5
359
100
AcDbEntity
  8
0
 62
     0
100
AcDbLine
 10
-43.032155
 20
30.185395
 30
0.0
 11
-43.032155
 21
30.185395
 31
0.0
  0
LINE
  5
35A
100
AcDbEntity
  8
0
 62
     0
100
AcDbLine
 10
-22.036841
 20
26.544063
 30
0.0
 11
-22.036841
 21
26.544063
 31
0.0
  0
LINE
  5
35B
100
AcDbEntity
  8
0
 62
     0
100
AcDbLine
 10
-19.33944
 20
28.613852
 30
0.0
 11
-19.33944
 21
28.613852
 31
0.0
  0
LINE
  5
35C
100
AcDbEntity
  8
0
 62
     0
100
AcDbLine
 10
-16.635055
 20
26.738679
 30
0.0
 11
-16.635055
 21
26.738679
 31
0.0
  0
LINE
  5
35D
100
AcDbEntity
  8
0
 62
     0
100
AcDbLine
 10
-14.223261
 20
28.589314
 30
0.0
 11
-14.223261
 21
28.589314
 31
0.0
  0
LINE
  5
35E
100
AcDbEntity
  8
0
 62
     0
100
AcDbLine
 10
-11.525859
 20
30.659102
 30
0.0
 11
-11.525859
 21
30.659102
 31
0.0
  0
LINE
  5
35F
100
AcDbEntity
  8
0
 62
     0
100
AcDbLine
 10
-11.399873
 20
26.805455
 30
0.0
 11
-11.399873
 21
26.805455
 31
0.0
  0
LINE
  5
360
100
AcDbEntity
  8
0
 62
     0
100
AcDbLine
 10
-44.406244
 20
25.223614
 30
0.0
 11
-44.406244
 21
25.223614
 31
0.0
  0
LINE
  5
361
100
AcDbEntity
  8
0
 62
     0
100
AcDbLine
 10
-43.365227
 20
25.360666
 30
0.0
 11
-43.365227
 21
25.360666
 31
0.0
  0
LINE
  5
362
100
AcDbEntity
  8
0
 62
     0
100
AcDbLine
 10
-41.739257
 20
25.574729
 30
0.0
 11
-41.739257
 21
25.574729
 31
0.0
  0
LINE
  5
363
100
AcDbEntity
  8
0
 62
     0
100
AcDbLine
 10
-39.022698
 20
25.932371
 30
0.0
 11
-39.022698
 21
25.932371
 31
0.0
  0
LINE
  5
364
100
AcDbEntity
  8
0
 62
     0
100
AcDbLine
 10
-37.981681
 20
26.069423
 30
0.0
 11
-37.981681
 21
26.069423
 31
0.0
  0
LINE
  5
365
100
AcDbEntity
  8
0
 62
     0
100
AcDbLine
 10
-36.355712
 20
26.283486
 30
0.0
 11
-36.355712
 21
26.283486
 31
0.0
  0
LINE
  5
366
100
AcDbEntity
  8
0
 62
     0
100
AcDbLine
 10
-33.639153
 20
26.641128
 30
0.0
 11
-33.639153
 21
26.641128
 31
0.0
  0
LINE
  5
367
100
AcDbEntity
  8
0
 62
     0
100
AcDbLine
 10
-32.598136
 20
26.778181
 30
0.0
 11
-32.598136
 21
26.778181
 31
0.0
  0
LINE
  5
368
100
AcDbEntity
  8
0
 62
     0
100
AcDbLine
 10
-30.972166
 20
26.992244
 30
0.0
 11
-30.972166
 21
26.992244
 31
0.0
  0
LINE
  5
369
100
AcDbEntity
  8
0
 62
     0
100
AcDbLine
 10
-28.255607
 20
27.349885
 30
0.0
 11
-28.255607
 21
27.349885
 31
0.0
  0
LINE
  5
36A
100
AcDbEntity
  8
0
 62
     0
100
AcDbLine
 10
-27.21459
 20
27.486938
 30
0.0
 11
-27.21459
 21
27.486938
 31
0.0
  0
LINE
  5
36B
100
AcDbEntity
  8
0
 62
     0
100
AcDbLine
 10
-25.58862
 20
27.701001
 30
0.0
 11
-25.58862
 21
27.701001
 31
0.0
  0
LINE
  5
36C
100
AcDbEntity
  8
0
 62
     0
100
AcDbLine
 10
-22.872061
 20
28.058642
 30
0.0
 11
-22.872061
 21
28.058642
 31
0.0
  0
LINE
  5
36D
100
AcDbEntity
  8
0
 62
     0
100
AcDbLine
 10
-21.831044
 20
28.195695
 30
0.0
 11
-21.831044
 21
28.195695
 31
0.0
  0
LINE
  5
36E
100
AcDbEntity
  8
0
 62
     0
100
AcDbLine
 10
-20.205075
 20
28.409758
 30
0.0
 11
-20.205075
 21
28.409758
 31
0.0
  0
LINE
  5
36F
100
AcDbEntity
  8
0
 62
     0
100
AcDbLine
 10
-17.488516
 20
28.7674
 30
0.0
 11
-17.488516
 21
28.7674
 31
0.0
  0
LINE
  5
370
100
AcDbEntity
  8
0
 62
     0
100
AcDbLine
 10
-16.447499
 20
28.904452
 30
0.0
 11
-16.447499
 21
28.904452
 31
0.0
  0
LINE
  5
371
100
AcDbEntity
  8
0
 62
     0
100
AcDbLine
 10
-14.821529
 20
29.118515
 30
0.0
 11
-14.821529
 21
29.118515
 31
0.0
  0
LINE
  5
372
100
AcDbEntity
  8
0
 62
     0
100
AcDbLine
 10
-12.10497
 20
29.476157
 30
0.0
 11
-12.10497
 21
29.476157
 31
0.0
  0
LINE
  5
373
100
AcDbEntity
  8
0
 62
     0
100
AcDbLine
 10
-11.063953
 20
29.613209
 30
0.0
 11
-11.063953
 21
29.613209
 31
0.0
  0
LINE
  5
374
100
AcDbEntity
  8
0
 62
     0
100
AcDbLine
 10
-46.250236
 20
30.159149
 30
0.0
 11
-46.250236
 21
30.159149
 31
0.0
  0
LINE
  5
375
100
AcDbEntity
  8
0
 62
     0
100
AcDbLine
 10
-45.209219
 20
30.296201
 30
0.0
 11
-45.209219
 21
30.296201
 31
0.0
  0
LINE
  5
376
100
AcDbEntity
  8
0
 62
     0
100
AcDbLine
 10
-43.583249
 20
30.510264
 30
0.0
 11
-43.583249
 21
30.510264
 31
0.0
  0
LINE
  5
377
100
AcDbEntity
  8
0
 62
     0
100
AcDbLine
 10
-29.993
 20
29.477973
 30
0.0
 11
-29.993
 21
29.477973
 31
0.0
  0
LINE
  5
378
100
AcDbEntity
  8
0
 62
     0
100
AcDbLine
 10
-26.956791
 20
27.543694
 30
0.0
 11
-26.956791
 21
27.543694
 31
0.0
  0
LINE
  5
379
100
AcDbEntity
  8
0
 62
     0
100
AcDbLine
 10
-22.992851
 20
25.018386
 30
0.0
 11
-22.992851
 21
25.018386
 31
0.0
  0
LINE
  5
37A
100
AcDbEntity
  8
0
 62
     0
100
AcDbLine
 10
-23.764716
 20
29.489291
 30
0.0
 11
-23.764716
 21
29.489291
 31
0.0
  0
LINE
  5
37B
100
AcDbEntity
  8
0
 62
     0
100
AcDbLine
 10
-20.728507
 20
27.555012
 30
0.0
 11
-20.728507
 21
27.555012
 31
0.0
  0
LINE
  5
37C
100
AcDbEntity
  8
0
 62
     0
100
AcDbLine
 10
-16.764567
 20
25.029704
 30
0.0
 11
-16.764567
 21
25.029704
 31
0.0
  0
LINE
  5
37D
100
AcDbEntity
  8
0
 62
     0
100
AcDbLine
 10
-17.536433
 20
29.500609
 30
0.0
 11
-17.536433
 21
29.500609
 31
0.0
  0
LINE
  5
37E
100
AcDbEntity
  8
0
 62
     0
100
AcDbLine
 10
-14.500223
 20
27.56633
 30
0.0
 11
-14.500223
 21
27.56633
 31
0.0
  0
LINE
  5
37F
100
AcDbEntity
  8
0
 62
     0
100
AcDbLine
 10
-10.536284
 20
25.041022
 30
0.0
 11
-10.536284
 21
25.041022
 31
0.0
  0
LINE
  5
380
100
AcDbEntity
  8
0
 62
     0
100
AcDbLine
 10
-12.15154
 20
30.049227
 30
0.0
 11
-12.15154
 21
30.049227
 31
0.0
  0
LINE
  5
381
100
AcDbEntity
  8
0
 62
     0
100
AcDbLine
 10
-11.308149
 20
29.511927
 30
0.0
 11
-11.308149
 21
29.511927
 31
0.0
  0
LINE
  5
382
100
AcDbEntity
  8
0
 62
     0
100
AcDbLine
 10
-36.221284
 20
29.466655
 30
0.0
 11
-36.221284
 21
29.466655
 31
0.0
  0
LINE
  5
383
100
AcDbEntity
  8
0
 62
     0
100
AcDbLine
 10
-33.185075
 20
27.532376
 30
0.0
 11
-33.185075
 21
27.532376
 31
0.0
  0
LINE
  5
384
100
AcDbEntity
  8
0
 62
     0
100
AcDbLine
 10
-29.221135
 20
25.007068
 30
0.0
 11
-29.221135
 21
25.007068
 31
0.0
  0
LINE
  5
385
100
AcDbEntity
  8
0
 62
     0
100
AcDbLine
 10
-43.292959
 20
29.992636
 30
0.0
 11
-43.292959
 21
29.992636
 31
0.0
  0
LINE
  5
386
100
AcDbEntity
  8
0
 62
     0
100
AcDbLine
 10
-42.449568
 20
29.455337
 30
0.0
 11
-42.449568
 21
29.455337
 31
0.0
  0
LINE
  5
387
100
AcDbEntity
  8
0
 62
     0
100
AcDbLine
 10
-39.413358
 20
27.521058
 30
0.0
 11
-39.413358
 21
27.521058
 31
0.0
  0
LINE
  5
388
100
AcDbEntity
  8
0
 62
     0
100
AcDbLine
 10
-45.641642
 20
27.50974
 30
0.0
 11
-45.641642
 21
27.50974
 31
0.0
  0
LINE
  5
389
100
AcDbEntity
  8
0
 62
     0
100
AcDbLine
 10
-34.885457
 20
29.712457
 30
0.0
 11
-34.885457
 21
29.712457
 31
0.0
  0
LINE
  5
38A
100
AcDbEntity
  8
0
 62
     0
100
AcDbLine
 10
-33.145483
 20
28.118064
 30
0.0
 11
-33.145483
 21
28.118064
 31
0.0
  0
LINE
  5
38B
100
AcDbEntity
  8
0
 62
     0
100
AcDbLine
 10
-31.154834
 20
26.293971
 30
0.0
 11
-31.154834
 21
26.293971
 31
0.0
  0
LINE
  5
38C
100
AcDbEntity
  8
0
 62
     0
100
AcDbLine
 10
-30.786195
 20
25.956176
 30
0.0
 11
-30.786195
 21
25.956176
 31
0.0
  0
LINE
  5
38D
100
AcDbEntity
  8
0
 62
     0
100
AcDbLine
 10
-27.13323
 20
29.873416
 30
0.0
 11
-27.13323
 21
29.873416
 31
0.0
  0
LINE
  5
38E
100
AcDbEntity
  8
0
 62
     0
100
AcDbLine
 10
-25.142581
 20
28.049322
 30
0.0
 11
-25.142581
 21
28.049322
 31
0.0
  0
LINE
  5
38F
100
AcDbEntity
  8
0
 62
     0
100
AcDbLine
 10
-24.773942
 20
27.711527
 30
0.0
 11
-24.773942
 21
27.711527
 31
0.0
  0
LINE
  5
390
100
AcDbEntity
  8
0
 62
     0
100
AcDbLine
 10
-23.033968
 20
26.117134
 30
0.0
 11
-23.033968
 21
26.117134
 31
0.0
  0
LINE
  5
391
100
AcDbEntity
  8
0
 62
     0
100
AcDbLine
 10
-19.130328
 20
29.804673
 30
0.0
 11
-19.130328
 21
29.804673
 31
0.0
  0
LINE
  5
392
100
AcDbEntity
  8
0
 62
     0
100
AcDbLine
 10
-18.761689
 20
29.466878
 30
0.0
 11
-18.761689
 21
29.466878
 31
0.0
  0
LINE
  5
393
100
AcDbEntity
  8
0
 62
     0
100
AcDbLine
 10
-17.021714
 20
27.872485
 30
0.0
 11
-17.021714
 21
27.872485
 31
0.0
  0
LINE
  5
394
100
AcDbEntity
  8
0
 62
     0
100
AcDbLine
 10
-15.031066
 20
26.048392
 30
0.0
 11
-15.031066
 21
26.048392
 31
0.0
  0
LINE
  5
395
100
AcDbEntity
  8
0
 62
     0
100
AcDbLine
 10
-14.662427
 20
25.710596
 30
0.0
 11
-14.662427
 21
25.710596
 31
0.0
  0
LINE
  5
396
100
AcDbEntity
  8
0
 62
     0
100
AcDbLine
 10
-11.009461
 20
29.627836
 30
0.0
 11
-11.009461
 21
29.627836
 31
0.0
  0
LINE
  5
397
100
AcDbEntity
  8
0
 62
     0
100
AcDbLine
 10
-43.256998
 20
30.118995
 30
0.0
 11
-43.256998
 21
30.118995
 31
0.0
  0
LINE
  5
398
100
AcDbEntity
  8
0
 62
     0
100
AcDbLine
 10
-41.266349
 20
28.294901
 30
0.0
 11
-41.266349
 21
28.294901
 31
0.0
  0
LINE
  5
399
100
AcDbEntity
  8
0
 62
     0
100
AcDbLine
 10
-40.89771
 20
27.957106
 30
0.0
 11
-40.89771
 21
27.957106
 31
0.0
  0
LINE
  5
39A
100
AcDbEntity
  8
0
 62
     0
100
AcDbLine
 10
-39.157736
 20
26.362713
 30
0.0
 11
-39.157736
 21
26.362713
 31
0.0
  0
LINE
  5
39B
100
AcDbEntity
  8
0
 62
     0
100
AcDbLine
 10
-46.909964
 20
26.201755
 30
0.0
 11
-46.909964
 21
26.201755
 31
0.0
  0
ENDBLK
  5
39D
100
AcDbEntity
  8
0
100
AcDbBlockEnd
  0
BLOCK
  5
3AF
100
AcDbEntity
  8
0
100
AcDbBlockBegin
  2
GLAS30-4X3
 70
     0
 10
0.0
 20
0.0
 30
0.0
  3
GLAS30-4X3
  1

  0
LINE
  5
342
100
AcDbEntity
  8
GLAS_MED_FOGNING
100
AcDbLine
 10
7.0
 20
41.0
 30
0.0
 11
3.0
 21
41.0
 31
0.0
  0
LINE
  5
343
100
AcDbEntity
  8
GLAS_MED_FOGNING
100
AcDbLine
 10
7.0
 20
39.0
 30
0.0
 11
3.0
 21
39.0
 31
0.0
  0
LINE
  5
344
100
AcDbEntity
  8
GLAS_MED_FOGNING
100
AcDbLine
 10
7.0
 20
40.0
 30
0.0
 11
3.0
 21
40.0
 31
0.0
  0
LINE
  5
345
100
AcDbEntity
  8
GLAS_MED_FOGNING
100
AcDbLine
 10
7.0
 20
37.0
 30
0.0
 11
3.0
 21
37.0
 31
0.0
  0
LINE
  5
346
100
AcDbEntity
  8
GLAS_MED_FOGNING
100
AcDbLine
 10
7.0
 20
38.0
 30
0.0
 11
3.0
 21
38.0
 31
0.0
  0
LINE
  5
347
100
AcDbEntity
  8
GLAS_MED_FOGNING
100
AcDbLine
 10
7.0
 20
36.0
 30
0.0
 11
3.0
 21
36.0
 31
0.0
  0
LINE
  5
348
100
AcDbEntity
  8
GLAS_MED_FOGNING
100
AcDbLine
 10
7.0
 20
35.0
 30
0.0
 11
3.0
 21
35.0
 31
0.0
  0
LINE
  5
349
100
AcDbEntity
  8
GLAS_MED_FOGNING
100
AcDbLine
 10
7.0
 20
33.0
 30
0.0
 11
3.0
 21
33.0
 31
0.0
  0
LINE
  5
34A
100
AcDbEntity
  8
GLAS_MED_FOGNING
100
AcDbLine
 10
7.0
 20
34.0
 30
0.0
 11
3.0
 21
34.0
 31
0.0
  0
LINE
  5
34B
100
AcDbEntity
  8
GLAS_MED_FOGNING
100
AcDbLine
 10
7.0
 20
32.0
 30
0.0
 11
3.0
 21
32.0
 31
0.0
  0
LINE
  5
34C
100
AcDbEntity
  8
GLAS_MED_FOGNING
100
AcDbLine
 10
7.0
 20
31.0
 30
0.0
 11
3.0
 21
31.0
 31
0.0
  0
ARC
  5
34D
100
AcDbEntity
  8
GLAS_MED_FOGNING
100
AcDbCircle
 10
3.0
 20
47.0
 30
0.0
 40
4.0
100
AcDbArc
 50
270.0
 51
0.0
  0
INSERT
  5
34E
100
AcDbEntity
  8
GLAS_MED_FOGNING
100
AcDbBlockReference
  2
*X57
 10
50.0
 20
0.0
 30
0.0
1001
ACAD
1000
HATCH
1002
{
1070
    16
1000
AR-SAND
1040
2.0
1040
0.0
1002
}
  0
LINE
  5
39E
100
AcDbEntity
  8
GLAS_MED_FOGNING
100
AcDbLine
 10
37.0
 20
30.0
 30
0.0
 11
7.0
 21
30.0
 31
0.0
  0
LINE
  5
39F
100
AcDbEntity
  8
GLAS_MED_FOGNING
100
AcDbLine
 10
7.0
 20
49.0
 30
0.0
 11
7.0
 21
30.0
 31
0.0
  0
INSERT
  5
3A0
100
AcDbEntity
  8
GLAS_MED_FOGNING
100
AcDbBlockReference
  2
*X51
 10
65.0
 20
0.0
 30
0.0
1001
ACAD
1000
HATCH
1002
{
1070
    16
1000
AR-SAND
1040
2.0
1040
0.0
1002
}
  0
LINE
  5
3A1
100
AcDbEntity
  8
GLAS_MED_FOGNING
100
AcDbLine
 10
37.0
 20
49.0
 30
0.0
 11
37.0
 21
30.0
 31
0.0
  0
LINE
  5
3A2
100
AcDbEntity
  8
GLAS_MED_FOGNING
100
AcDbLine
 10
40.0
 20
39.0
 30
0.0
 11
37.0
 21
39.0
 31
0.0
  0
LINE
  5
3A3
100
AcDbEntity
  8
GLAS_MED_FOGNING
100
AcDbLine
 10
40.0
 20
38.0
 30
0.0
 11
37.0
 21
38.0
 31
0.0
  0
LINE
  5
3A4
100
AcDbEntity
  8
GLAS_MED_FOGNING
100
AcDbLine
 10
40.0
 20
37.0
 30
0.0
 11
37.0
 21
37.0
 31
0.0
  0
LINE
  5
3A5
100
AcDbEntity
  8
GLAS_MED_FOGNING
100
AcDbLine
 10
40.0
 20
36.0
 30
0.0
 11
37.0
 21
36.0
 31
0.0
  0
LINE
  5
3A6
100
AcDbEntity
  8
GLAS_MED_FOGNING
100
AcDbLine
 10
40.0
 20
35.0
 30
0.0
 11
37.0
 21
35.0
 31
0.0
  0
LINE
  5
3A7
100
AcDbEntity
  8
GLAS_MED_FOGNING
100
AcDbLine
 10
40.0
 20
34.0
 30
0.0
 11
37.0
 21
34.0
 31
0.0
  0
LINE
  5
3A8
100
AcDbEntity
  8
GLAS_MED_FOGNING
100
AcDbLine
 10
40.0
 20
33.0
 30
0.0
 11
37.0
 21
33.0
 31
0.0
  0
LINE
  5
3A9
100
AcDbEntity
  8
GLAS_MED_FOGNING
100
AcDbLine
 10
40.0
 20
32.0
 30
0.0
 11
37.0
 21
32.0
 31
0.0
  0
LINE
  5
3AA
100
AcDbEntity
  8
GLAS_MED_FOGNING
100
AcDbLine
 10
40.0
 20
31.0
 30
0.0
 11
37.0
 21
31.0
 31
0.0
  0
LINE
  5
3AB
100
AcDbEntity
  8
GLAS_MED_FOGNING
100
AcDbLine
 10
40.0
 20
41.0
 30
0.0
 11
37.0
 21
41.0
 31
0.0
  0
LINE
  5
3AC
100
AcDbEntity
  8
GLAS_MED_FOGNING
100
AcDbLine
 10
40.0
 20
40.0
 30
0.0
 11
37.0
 21
40.0
 31
0.0
  0
ARC
  5
3AD
100
AcDbEntity
  8
GLAS_MED_FOGNING
100
AcDbCircle
 10
40.0
 20
46.0
 30
0.0
 40
3.0
100
AcDbArc
 50
180.0
 51
270.0
  0
INSERT
  5
3AE
100
AcDbEntity
  8
GLAS_MED_FOGNING
100
AcDbBlockReference
  2
*X52
 10
55.0
 20
0.0
 30
0.0
1001
ACAD
1000
HATCH
1002
{
1070
    16
1000
AR-SAND
1040
2.0
1040
0.0
1002
}
  0
ENDBLK
  5
3B0
100
AcDbEntity
  8
0
100
AcDbBlockEnd
  0
BLOCK
  5
336
100
AcDbEntity
  8
0
100
AcDbBlockBegin
  2
50_30SP91020DK
 70
     0
 10
0.0
 20
0.0
 30
0.0
  3
50_30SP91020DK
  1

  0
INSERT
  5
331
100
AcDbEntity
  8
0
100
AcDbBlockReference
  2
GLAS30-4X3DK
 10
-50.0
 20
0.0
 30
0.0
  0
LWPOLYLINE
  5
332
100
AcDbEntity
  8
CENTRUM
100
AcDbPolyline
 90
        4
 70
     0
 43
0.0
 10
0.0
 20
57.5
 10
-13.0
 20
57.5
 10
-43.0
 20
57.5
 10
-50.0
 20
57.5
  0
INSERT
  5
333
100
AcDbEntity
  8
0
100
AcDbBlockReference
  2
SP91020
 10
0.0
 20
0.0
 30
0.0
  0
LINE
  5
334
100
AcDbEntity
  8
GLAS_MED_FOGNING
100
AcDbLine
 10
-43.0
 20
57.5
 30
0.0
 11
-43.0
 21
49.0
 31
0.0
  0
LINE
  5
335
100
AcDbEntity
  8
GLAS_MED_FOGNING
100
AcDbLine
 10
-13.0
 20
57.5
 30
0.0
 11
-13.0
 21
49.0
 31
0.0
  0
ENDBLK
  5
337
100
AcDbEntity
  8
0
100
AcDbBlockEnd
  0
BLOCK
  5
3B5
100
AcDbEntity
  8
0
100
AcDbBlockBegin
  2
50_30SP91020
 70
     0
 10
0.0
 20
0.0
 30
0.0
  3
50_30SP91020
  1

  0
INSERT
  5
340
100
AcDbEntity
  8
0
100
AcDbBlockReference
  2
GLAS30-4X3
 10
-50.0
 20
0.0
 30
0.0
  0
LWPOLYLINE
  5
3B1
100
AcDbEntity
  8
CENTRUM
100
AcDbPolyline
 90
        4
 70
     0
 43
0.0
 10
0.0
 20
57.5
 10
-13.0
 20
57.5
 10
-43.0
 20
57.5
 10
-50.0
 20
57.5
  0
INSERT
  5
3B2
100
AcDbEntity
  8
0
100
AcDbBlockReference
  2
SP91020
 10
0.0
 20
0.0
 30
0.0
  0
LINE
  5
3B3
100
AcDbEntity
  8
GLAS_MED_FOGNING
100
AcDbLine
 10
-13.0
 20
57.5
 30
0.0
 11
-13.0
 21
49.0
 31
0.0
  0
LINE
  5
3B4
100
AcDbEntity
  8
GLAS_MED_FOGNING
100
AcDbLine
 10
-43.0
 20
57.5
 30
0.0
 11
-43.0
 21
49.0
 31
0.0
  0
ENDBLK
  5
3B6
100
AcDbEntity
  8
0
100
AcDbBlockEnd
  0
BLOCK
  5
27A
100
AcDbEntity
  8
0
100
AcDbBlockBegin
  2
*X61
 70
     1
 10
0.0
 20
0.0
 30
0.0
  3
*X61
  1

  0
LINE
  5
26D
100
AcDbEntity
  8
0
 62
     0
100
AcDbLine
 10
-46.107517
 20
39.676548
 30
0.0
 11
-46.107517
 21
39.676548
 31
0.0
  0
LINE
  5
26E
100
AcDbEntity
  8
0
 62
     0
100
AcDbLine
 10
-45.729557
 20
28.115606
 30
0.0
 11
-45.729557
 21
28.115606
 31
0.0
  0
LINE
  5
26F
100
AcDbEntity
  8
0
 62
     0
100
AcDbLine
 10
-46.250236
 20
30.159149
 30
0.0
 11
-46.250236
 21
30.159149
 31
0.0
  0
LINE
  5
270
100
AcDbEntity
  8
0
 62
     0
100
AcDbLine
 10
-45.209219
 20
30.296201
 30
0.0
 11
-45.209219
 21
30.296201
 31
0.0
  0
LINE
  5
271
100
AcDbEntity
  8
0
 62
     0
100
AcDbLine
 10
-44.554675
 20
40.738976
 30
0.0
 11
-44.554675
 21
40.738976
 31
0.0
  0
LINE
  5
272
100
AcDbEntity
  8
0
 62
     0
100
AcDbLine
 10
-44.406244
 20
25.223614
 30
0.0
 11
-44.406244
 21
25.223614
 31
0.0
  0
LINE
  5
273
100
AcDbEntity
  8
0
 62
     0
100
AcDbLine
 10
-43.365227
 20
25.360666
 30
0.0
 11
-43.365227
 21
25.360666
 31
0.0
  0
LINE
  5
274
100
AcDbEntity
  8
0
 62
     0
100
AcDbLine
 10
-46.523472
 20
40.009045
 30
0.0
 11
-46.523472
 21
40.009045
 31
0.0
  0
LINE
  5
275
100
AcDbEntity
  8
0
 62
     0
100
AcDbLine
 10
-45.680081
 20
39.471746
 30
0.0
 11
-45.680081
 21
39.471746
 31
0.0
  0
LINE
  5
276
100
AcDbEntity
  8
0
 62
     0
100
AcDbLine
 10
-44.259128
 20
42.545671
 30
0.0
 11
-44.259128
 21
42.545671
 31
0.0
  0
LINE
  5
277
100
AcDbEntity
  8
0
 62
     0
100
AcDbLine
 10
-45.641642
 20
27.50974
 30
0.0
 11
-45.641642
 21
27.50974
 31
0.0
  0
LINE
  5
278
100
AcDbEntity
  8
0
 62
     0
100
AcDbLine
 10
-45.443269
 20
39.386909
 30
0.0
 11
-45.443269
 21
39.386909
 31
0.0
  0
LINE
  5
279
100
AcDbEntity
  8
0
 62
     0
100
AcDbLine
 10
-46.909964
 20
26.201755
 30
0.0
 11
-46.909964
 21
26.201755
 31
0.0
  0
ENDBLK
  5
27B
100
AcDbEntity
  8
0
100
AcDbBlockEnd
  0
BLOCK
  5
287
100
AcDbEntity
  8
0
100
AcDbBlockBegin
  2
FYLLNV
 70
     0
 10
0.0
 20
0.0
 30
0.0
  3
FYLLNV
  1

  0
LWPOLYLINE
  5
269
100
AcDbEntity
  8
SPKONTUR
100
AcDbPolyline
 90
        2
 70
     0
 43
0.0
 10
6.0
 20
29.0
 10
6.0
 20
46.001
  0
LWPOLYLINE
  5
26A
100
AcDbEntity
  8
STALPROFIL
100
AcDbPolyline
 90
        2
 70
     0
 43
2.0
 10
7.0
 20
29.0
 10
7.0
 20
46.001
  0
INSERT
  5
26B
100
AcDbEntity
  8
GLAS_MED_FOGNING
100
AcDbBlockReference
  2
*X61
 10
50.0
 20
0.0
 30
0.0
1001
ACAD
1000
HATCH
1002
{
1070
    16
1000
AR-SAND
1040
2.0
1040
0.0
1002
}
  0
ARC
  5
27C
100
AcDbEntity
  8
GLAS_MED_FOGNING
100
AcDbCircle
 10
12.0
 20
29.0
 30
0.0
 40
6.0
100
AcDbArc
 50
180.0
 51
221.810315
  0
LINE
  5
27D
100
AcDbEntity
  8
GLAS_MED_FOGNING
100
AcDbLine
 10
3.0
 20
35.0
 30
0.0
 11
6.0
 21
35.0
 31
0.0
  0
LINE
  5
27E
100
AcDbEntity
  8
GLAS_MED_FOGNING
100
AcDbLine
 10
3.0
 20
38.0
 30
0.0
 11
6.0
 21
38.0
 31
0.0
  0
LINE
  5
27F
100
AcDbEntity
  8
GLAS_MED_FOGNING
100
AcDbLine
 10
3.0
 20
37.0
 30
0.0
 11
6.0
 21
37.0
 31
0.0
  0
LINE
  5
280
100
AcDbEntity
  8
GLAS_MED_FOGNING
100
AcDbLine
 10
3.0
 20
36.0
 30
0.0
 11
6.0
 21
36.0
 31
0.0
  0
LINE
  5
281
100
AcDbEntity
  8
GLAS_MED_FOGNING
100
AcDbLine
 10
3.0
 20
39.0
 30
0.0
 11
6.0
 21
39.0
 31
0.0
  0
LINE
  5
282
100
AcDbEntity
  8
GLAS_MED_FOGNING
100
AcDbLine
 10
3.0
 20
34.0
 30
0.0
 11
6.0
 21
34.0
 31
0.0
  0
LINE
  5
283
100
AcDbEntity
  8
GLAS_MED_FOGNING
100
AcDbLine
 10
3.0
 20
31.0
 30
0.0
 11
6.0
 21
31.0
 31
0.0
  0
LINE
  5
284
100
AcDbEntity
  8
GLAS_MED_FOGNING
100
AcDbLine
 10
3.0
 20
33.0
 30
0.0
 11
6.0
 21
33.0
 31
0.0
  0
LINE
  5
285
100
AcDbEntity
  8
GLAS_MED_FOGNING
100
AcDbLine
 10
3.0
 20
32.0
 30
0.0
 11
6.0
 21
32.0
 31
0.0
  0
ARC
  5
286
100
AcDbEntity
  8
GLAS_MED_FOGNING
100
AcDbCircle
 10
3.0
 20
46.001
 30
0.0
 40
3.0
100
AcDbArc
 50
270.0
 51
0.0
  0
ENDBLK
  5
288
100
AcDbEntity
  8
0
100
AcDbBlockEnd
  0
BLOCK
  5
2A6
100
AcDbEntity
  8
0
100
AcDbBlockBegin
  2
FYLLNH
 70
     0
 10
0.0
 20
0.0
 30
0.0
  3
FYLLNH
  1

  0
LWPOLYLINE
  5
28B
100
AcDbEntity
  8
SPKONTUR
100
AcDbPolyline
 90
        2
 70
     0
 43
0.0
 10
-4.25
 20
29.0
 10
-4.25
 20
46.001
  0
LWPOLYLINE
  5
28C
100
AcDbEntity
  8
STALPROFIL
100
AcDbPolyline
 90
        2
 70
     0
 43
2.0
 10
-5.25
 20
29.0
 10
-5.25
 20
46.001
  0
INSERT
  5
28D
100
AcDbEntity
  8
GLAS_MED_FOGNING
100
AcDbBlockReference
  2
*X13
 10
0.0
 20
0.0
 30
0.0
1001
ACAD
1000
HATCH
1002
{
1070
    16
1000
AR-SAND
1040
2.0
1040
0.0
1002
}
  0
ARC
  5
29B
100
AcDbEntity
  8
GLAS_MED_FOGNING
100
AcDbCircle
 10
-10.25
 20
29.0
 30
0.0
 40
6.0
100
AcDbArc
 50
332.720387
 51
0.0
  0
LINE
  5
29C
100
AcDbEntity
  8
GLAS_MED_FOGNING
100
AcDbLine
 10
-1.25
 20
31.0
 30
0.0
 11
-4.25
 21
31.0
 31
0.0
  0
LINE
  5
29D
100
AcDbEntity
  8
GLAS_MED_FOGNING
100
AcDbLine
 10
-1.25
 20
33.0
 30
0.0
 11
-4.25
 21
33.0
 31
0.0
  0
LINE
  5
29E
100
AcDbEntity
  8
GLAS_MED_FOGNING
100
AcDbLine
 10
-1.25
 20
32.0
 30
0.0
 11
-4.25
 21
32.0
 31
0.0
  0
LINE
  5
29F
100
AcDbEntity
  8
GLAS_MED_FOGNING
100
AcDbLine
 10
-1.25
 20
34.0
 30
0.0
 11
-4.25
 21
34.0
 31
0.0
  0
LINE
  5
2A0
100
AcDbEntity
  8
GLAS_MED_FOGNING
100
AcDbLine
 10
-1.25
 20
39.0
 30
0.0
 11
-4.25
 21
39.0
 31
0.0
  0
LINE
  5
2A1
100
AcDbEntity
  8
GLAS_MED_FOGNING
100
AcDbLine
 10
-1.25
 20
38.0
 30
0.0
 11
-4.25
 21
38.0
 31
0.0
  0
LINE
  5
2A2
100
AcDbEntity
  8
GLAS_MED_FOGNING
100
AcDbLine
 10
-1.25
 20
37.0
 30
0.0
 11
-4.25
 21
37.0
 31
0.0
  0
LINE
  5
2A3
100
AcDbEntity
  8
GLAS_MED_FOGNING
100
AcDbLine
 10
-1.25
 20
36.0
 30
0.0
 11
-4.25
 21
36.0
 31
0.0
  0
LINE
  5
2A4
100
AcDbEntity
  8
GLAS_MED_FOGNING
100
AcDbLine
 10
-1.25
 20
35.0
 30
0.0
 11
-4.25
 21
35.0
 31
0.0
  0
ARC
  5
2A5
100
AcDbEntity
  8
GLAS_MED_FOGNING
100
AcDbCircle
 10
-2.5
 20
45.5001
 30
0.0
 40
1.75
100
AcDbArc
 50
180.0
 51
270.0
  0
ENDBLK
  5
2A7
100
AcDbEntity
  8
0
100
AcDbBlockEnd
  0
BLOCK
  5
573
100
AcDbEntity
  8
0
100
AcDbBlockBegin
  2
50_SP40052
 70
     0
 10
0.0
 20
0.0
 30
0.0
  3
50_SP40052
  1

  0
HATCH
  5
54F
100
AcDbEntity
  8
GLAS_MED_FOGNING
100
AcDbHatch
 10
0.0
 20
0.0
 30
0.0
210
0.0
220
0.0
230
1.0
  2
ANSI36
 70
     0
 71
     1
 91
        3
 92
        7
 72
     1
 73
     1
 93
       48
 10
28.0
 20
-14.44999999999994
 42
-0.4142135623730872
 10
28.19999999999999
 20
-14.24999999999994
 42
0.0
 10
31.18897773472517
 20
-14.24999999999982
 42
-0.260162543059879
 10
32.46563107451652
 20
-14.96249999999989
 42
0.7274193885212794
 10
48.17717000875044
 20
-11.12256617539202
 42
-0.6594954787119977
 10
48.35100410835114
 20
-11.06274294674308
 42
0.0
 10
49.21653790520137
 20
-12.01792885412027
 42
0.9392182275129403
 10
49.91861841993013
 20
-11.45765554308599
 42
0.0
 10
48.20000000000012
 20
-9.003214072312603
 42
0.0
 10
48.20000000000002
 20
-2.869464002527335
 42
0.0
 10
49.42188091482549
 20
-1.124437209543148
 42
0.0
 10
51.73538096243554
 20
-5.425525677228642
 42
0.9807093936823653
 10
52.44703903332089
 20
-5.060422934167882
 42
0.0
 10
50.18117038868346
 20
-0.4235876194661864
 42
0.5304548527028706
 10
48.8695784940342
 20
-0.2376467357383839
 42
0.0
 10
48.20000000000002
 20
-0.9765802629003133
 42
0.0
 10
47.05480231603342
 20
0.1686174210663902
 42
0.1486704827604945
 10
46.79815202475412
 20
0.3055839478499554
 42
0.1077283451384699
 10
31.20000000000004
 20
0.0000000000001705
 42
0.0
 10
25.0870947374089
 20
0.0000000000001705
 42
0.0
 10
24.30930776906604
 20
-0.188369352199912
 42
0.3756263447500318
 10
24.0197860971033
 20
-0.7959054443943709
 42
0.0
 10
25.00000000000003
 20
-4.17589291466016
 42
0.0
 10
25.00000000000003
 20
-24.99999999999983
 42
0.0
 10
25.0
 20
-45.82410708533968
 42
0.0
 10
24.01978609710317
 20
-49.20409455560583
 42
0.3756263447499222
 10
24.30930776906603
 20
-49.81163064779992
 42
0.0
 10
25.08709473740885
 20
-50.0
 42
0.0
 10
31.20000000000003
 20
-50.0
 42
0.1077283451384696
 10
46.79815202475412
 20
-50.30558394784979
 42
0.1486704827604831
 10
47.05480231603341
 20
-50.16861742106623
 42
0.0
 10
48.20000000000002
 20
-49.02341973709962
 42
0.0
 10
48.86957849403428
 20
-49.76235326426153
 42
0.53045485270285
 10
50.1811703886835
 20
-49.57641238053369
 42
0.0
 10
52.44703903332091
 20
-44.9395770658319
 42
0.980709393682326
 10
51.73538096243554
 20
-44.5744743227712
 42
0.0
 10
49.42188091482549
 20
-48.87556279045679
 42
0.0
 10
48.2
 20
-47.13053599747249
 42
0.0
 10
48.20000000000012
 20
-40.99678592768721
 42
0.0
 10
49.91861841993012
 20
-38.54234445691384
 42
0.939218227512959
 10
49.21653790520139
 20
-37.98207114587953
 42
0.0
 10
48.35100410835104
 20
-38.93725705325675
 42
-0.6594954787120103
 10
48.17717000875043
 20
-38.87743382460784
 42
0.7274193885212666
 10
32.46563107451656
 20
-35.03749999999999
 42
-0.2601625430598747
 10
31.1889777347253
 20
-35.75
 42
0.0
 10
28.20000000000001
 20
-35.74999999999988
 42
-0.4142135623730847
 10
28.00000000000006
 20
-35.54999999999992
 42
0.0
 10
28.00000000000008
 20
-24.99999999999983
 42
0.0
 97
        1
330
553
 92
       22
 72
     1
 73
     1
 93
       12
 10
33.85983360838038
 20
-13.35349899565347
 42
0.2416445711928409
 10
31.66574887874547
 20
-11.71269167180442
 42
-0.3658454474621788
 10
30.00000000000014
 20
-9.740820431601333
 42
0.0
 10
30.00000000000014
 20
-2.629583307612449
 42
-0.3567831256950955
 10
30.16027066923278
 20
-2.433569072729453
 42
0.0
 10
39.50135335531566
 20
-0.5402628851345402
 42
-0.100322986688318
 10
39.8986466634518
 20
-0.5402628852282799
 42
0.0
 10
46.23972933085974
 20
-1.825511232000046
 42
-0.3567831255622806
 10
46.4
 20
-2.021525466864328
 42
0.0
 10
46.4
 20
-11.03804338972485
 42
-0.1266271045766907
 10
46.0272241662284
 20
-12.48638491726133
 42
0.0
 10
45.39231902682828
 20
-13.63807330966156
 42
-0.6073687848520391
 97
       12
330
56B
330
56A
330
562
330
56F
330
56E
330
571
330
572
330
570
330
561
330
56C
330
56D
330
563
 92
       22
 72
     1
 73
     1
 93
       12
 10
45.39231902682835
 20
-36.36192669033845
 42
0.0
 10
46.02722416622851
 20
-37.51361508273881
 42
-0.1266271045766608
 10
46.4
 20
-38.96195661027496
 42
0.0
 10
46.4
 20
-47.97847453313548
 42
-0.3567831255621572
 10
46.23972933085985
 20
-48.17448876799976
 42
0.0
 10
39.89864666345171
 20
-49.45973711477168
 42
-0.1003229866882338
 10
39.5013533553159
 20
-49.45973711486545
 42
0.0
 10
30.16027066923257
 20
-47.56643092727034
 42
-0.3567831256949282
 10
30.00000000000011
 20
-47.37041669238731
 42
0.0
 10
30.00000000000011
 20
-40.25917956839845
 42
-0.3658454474621807
 10
31.66574887874545
 20
-38.28730832819535
 42
0.2416445711928411
 10
33.85983360838038
 20
-36.64650100434634
 42
-0.6073687848520463
 97
       12
330
560
330
55F
330
55B
330
55C
330
55E
330
55D
330
554
330
557
330
556
330
558
330
55A
330
555
 75
     0
 76
     1
 52
-90.0
 41
10.0
 77
     0
 78
     1
 53
315.0
 43
-212.444884
 44
47.6
 45
2.430679560328756
 46
-0.6629126073623888
 79
     4
 49
3.125
 49
-0.625
 49
0.0
 49
-0.625
 47
0.143571
 98
        3
 10
27.227399
 20
-23.162961
 10
27.227399
 20
-23.162961
 10
27.227399
 20
-23.162961
  0
LINE
  5
550
100
AcDbEntity
  8
DIM
100
AcDbLine
 10
31.146113
 20
-32.4
 30
0.0
 11
28.146113
 21
-29.4
 31
0.0
  0
LWPOLYLINE
  5
552
100
AcDbEntity
  8
DIM
100
AcDbPolyline
 90
       10
 70
     1
 43
0.0
 10
28.646113
 20
-34.977396
 10
30.646113
 20
-34.977396
 42
0.414214
 10
31.146113
 20
-34.477396
 10
31.146113
 20
-25.002575
 10
31.146113
 20
-15.527753
 42
0.414214
 10
30.646113
 20
-15.027753
 10
28.646113
 20
-15.027753
 42
0.414214
 10
28.146113
 20
-15.527753
 10
28.146113
 20
-25.002575
 10
28.146113
 20
-34.477396
 42
0.414214
  0
LWPOLYLINE
  5
553
102
{ACAD_REACTORS
330
54F
102
}
100
AcDbEntity
  8
STALPROFIL
100
AcDbPolyline
 90
       52
 70
     1
 43
0.0
 10
24.309308
 20
-0.188369
 10
25.087095
 20
0.0
 10
31.2
 20
0.0
 42
-0.107728
 10
46.798152
 20
0.305584
 42
-0.14867
 10
47.054802
 20
0.168617
 10
48.2
 20
-0.97658
 10
48.869578
 20
-0.237647
 42
-0.530455
 10
50.18117
 20
-0.423588
 10
52.447039
 20
-5.060423
 42
-0.980709
 10
51.735381
 20
-5.425526
 10
49.421881
 20
-1.124437
 10
48.23617
 20
-2.817808
 42
0.153915
 10
48.2
 20
-2.932524
 10
48.2
 20
-8.971684
 42
0.153915
 10
48.218085
 20
-9.029042
 10
49.918618
 20
-11.457656
 42
-0.939218
 10
49.216538
 20
-12.017929
 10
48.351004
 20
-11.062743
 42
0.659495
 10
48.17717
 20
-11.122566
 42
-0.727419
 10
32.465631
 20
-14.9625
 42
0.260163
 10
31.188978
 20
-14.25
 10
28.2
 20
-14.25
 42
0.414214
 10
28.0
 20
-14.45
 10
28.0
 20
-25.0
 10
28.0
 20
-35.55
 42
0.414214
 10
28.2
 20
-35.75
 10
31.188978
 20
-35.75
 42
0.260163
 10
32.465631
 20
-35.0375
 42
-0.727419
 10
48.17717
 20
-38.877434
 42
0.659495
 10
48.351004
 20
-38.937257
 10
49.216538
 20
-37.982071
 42
-0.939218
 10
49.918618
 20
-38.542344
 10
48.218085
 20
-40.970958
 42
0.153915
 10
48.2
 20
-41.028316
 10
48.2
 20
-47.067476
 42
0.153915
 10
48.23617
 20
-47.182192
 10
49.421881
 20
-48.875563
 10
51.735381
 20
-44.574474
 42
-0.980709
 10
52.447039
 20
-44.939577
 10
50.18117
 20
-49.576412
 42
-0.530455
 10
48.869578
 20
-49.762353
 10
48.2
 20
-49.02342
 10
47.054802
 20
-50.168617
 42
-0.14867
 10
46.798152
 20
-50.305584
 42
-0.107728
 10
31.2
 20
-50.0
 10
25.087095
 20
-50.0
 10
24.309308
 20
-49.811631
 42
-0.375626
 10
24.019786
 20
-49.204095
 10
25.0
 20
-45.824107
 10
25.0
 20
-25.0
 10
25.0
 20
-4.175893
 10
24.019786
 20
-0.795905
 42
-0.375626
  0
LINE
  5
554
102
{ACAD_REACTORS
330
54F
102
}
100
AcDbEntity
  8
STALPROFIL
100
AcDbLine
 10
39.501353
 20
-49.459737
 30
0.0
 11
30.160271
 21
-47.566431
 31
0.0
  0
ARC
  5
555
102
{ACAD_REACTORS
330
54F
102
}
100
AcDbEntity
  8
STALPROFIL
100
AcDbCircle
 10
39.7
 20
-39.5
 30
0.0
 40
6.5
100
AcDbArc
 50
28.867159
 51
153.959915
  0
LINE
  5
556
102
{ACAD_REACTORS
330
54F
102
}
100
AcDbEntity
  8
STALPROFIL
100
AcDbLine
 10
30.0
 20
-47.370417
 30
0.0
 11
30.0
 21
-40.25918
 31
0.0
  0
ARC
  5
557
102
{ACAD_REACTORS
330
54F
102
}
100
AcDbEntity
  8
STALPROFIL
100
AcDbCircle
 10
30.2
 20
-47.370417
 30
0.0
 40
0.2
100
AcDbArc
 50
180.0
 51
258.54217
  0
ARC
  5
558
102
{ACAD_REACTORS
330
54F
102
}
100
AcDbEntity
  8
STALPROFIL
100
AcDbCircle
 10
32.0
 20
-40.25918
 30
0.0
 40
2.0
100
AcDbArc
 50
99.620735
 51
180.0
  0
LINE
  5
559
100
AcDbEntity
  8
DIM
100
AcDbLine
 10
31.03624
 20
-34.790127
 30
0.0
 11
28.146113
 21
-31.9
 31
0.0
  0
ARC
  5
55A
102
{ACAD_REACTORS
330
54F
102
}
100
AcDbEntity
  8
STALPROFIL
100
AcDbCircle
 10
31.164372
 20
-35.329501
 30
0.0
 40
3.0
100
AcDbArc
 50
279.620735
 51
333.959915
  0
LINE
  5
55B
102
{ACAD_REACTORS
330
54F
102
}
100
AcDbEntity
  8
STALPROFIL
100
AcDbLine
 10
46.4
 20
-38.961957
 30
0.0
 11
46.4
 21
-47.978475
 31
0.0
  0
ARC
  5
55C
102
{ACAD_REACTORS
330
54F
102
}
100
AcDbEntity
  8
STALPROFIL
100
AcDbCircle
 10
46.2
 20
-47.978475
 30
0.0
 40
0.2
100
AcDbArc
 50
281.45783
 51
360.0
  0
ARC
  5
55D
102
{ACAD_REACTORS
330
54F
102
}
100
AcDbEntity
  8
STALPROFIL
100
AcDbCircle
 10
39.7
 20
-48.479666
 30
0.0
 40
1.0
100
AcDbArc
 50
258.54217
 51
281.45783
  0
LINE
  5
55E
102
{ACAD_REACTORS
330
54F
102
}
100
AcDbEntity
  8
STALPROFIL
100
AcDbLine
 10
39.898647
 20
-49.459737
 30
0.0
 11
46.239729
 21
-48.174489
 31
0.0
  0
ARC
  5
55F
102
{ACAD_REACTORS
330
54F
102
}
100
AcDbEntity
  8
STALPROFIL
100
AcDbCircle
 10
43.4
 20
-38.961957
 30
0.0
 40
3.0
100
AcDbArc
 50
360.0
 51
28.867159
  0
LINE
  5
560
102
{ACAD_REACTORS
330
54F
102
}
100
AcDbEntity
  8
STALPROFIL
100
AcDbLine
 10
45.392319
 20
-36.361927
 30
0.0
 11
46.027224
 21
-37.513615
 31
0.0
  0
LINE
  5
561
102
{ACAD_REACTORS
330
54F
102
}
100
AcDbEntity
  8
STALPROFIL
100
AcDbLine
 10
46.4
 20
-11.038043
 30
0.0
 11
46.4
 21
-2.021525
 31
0.0
  0
LINE
  5
562
102
{ACAD_REACTORS
330
54F
102
}
100
AcDbEntity
  8
STALPROFIL
100
AcDbLine
 10
30.0
 20
-2.629583
 30
0.0
 11
30.0
 21
-9.74082
 31
0.0
  0
ARC
  5
563
102
{ACAD_REACTORS
330
54F
102
}
100
AcDbEntity
  8
STALPROFIL
100
AcDbCircle
 10
39.7
 20
-10.5
 30
0.0
 40
6.5
100
AcDbArc
 50
206.040085
 51
331.132841
  0
LINE
  5
564
100
AcDbEntity
  8
DIM
100
AcDbLine
 10
31.146113
 20
-22.4
 30
0.0
 11
28.146113
 21
-19.4
 31
0.0
  0
LINE
  5
565
100
AcDbEntity
  8
DIM
100
AcDbLine
 10
31.146113
 20
-29.9
 30
0.0
 11
28.146113
 21
-26.9
 31
0.0
  0
LINE
  5
566
100
AcDbEntity
  8
DIM
100
AcDbLine
 10
31.146113
 20
-24.9
 30
0.0
 11
28.146113
 21
-21.9
 31
0.0
  0
LINE
  5
567
100
AcDbEntity
  8
DIM
100
AcDbLine
 10
31.146113
 20
-27.4
 30
0.0
 11
28.146113
 21
-24.4
 31
0.0
  0
LINE
  5
568
100
AcDbEntity
  8
DIM
100
AcDbLine
 10
31.146113
 20
-19.9
 30
0.0
 11
28.146113
 21
-16.9
 31
0.0
  0
LINE
  5
569
100
AcDbEntity
  8
DIM
100
AcDbLine
 10
31.146113
 20
-17.4
 30
0.0
 11
28.777336
 21
-15.031224
 31
0.0
  0
ARC
  5
56A
102
{ACAD_REACTORS
330
54F
102
}
100
AcDbEntity
  8
STALPROFIL
100
AcDbCircle
 10
32.0
 20
-9.74082
 30
0.0
 40
2.0
100
AcDbArc
 50
180.0
 51
260.379265
  0
ARC
  5
56B
102
{ACAD_REACTORS
330
54F
102
}
100
AcDbEntity
  8
STALPROFIL
100
AcDbCircle
 10
31.164372
 20
-14.670499
 30
0.0
 40
3.0
100
AcDbArc
 50
26.040085
 51
80.379265
  0
ARC
  5
56C
102
{ACAD_REACTORS
330
54F
102
}
100
AcDbEntity
  8
STALPROFIL
100
AcDbCircle
 10
43.4
 20
-11.038043
 30
0.0
 40
3.0
100
AcDbArc
 50
331.132841
 51
0.0
  0
LINE
  5
56D
102
{ACAD_REACTORS
330
54F
102
}
100
AcDbEntity
  8
STALPROFIL
100
AcDbLine
 10
45.392319
 20
-13.638073
 30
0.0
 11
46.027224
 21
-12.486385
 31
0.0
  0
LINE
  5
56E
102
{ACAD_REACTORS
330
54F
102
}
100
AcDbEntity
  8
STALPROFIL
100
AcDbLine
 10
39.501353
 20
-0.540263
 30
0.0
 11
30.160271
 21
-2.433569
 31
0.0
  0
ARC
  5
56F
102
{ACAD_REACTORS
330
54F
102
}
100
AcDbEntity
  8
STALPROFIL
100
AcDbCircle
 10
30.2
 20
-2.629583
 30
0.0
 40
0.2
100
AcDbArc
 50
101.45783
 51
180.0
  0
ARC
  5
570
102
{ACAD_REACTORS
330
54F
102
}
100
AcDbEntity
  8
STALPROFIL
100
AcDbCircle
 10
46.2
 20
-2.021525
 30
0.0
 40
0.2
100
AcDbArc
 50
0.0
 51
78.54217
  0
ARC
  5
571
102
{ACAD_REACTORS
330
54F
102
}
100
AcDbEntity
  8
STALPROFIL
100
AcDbCircle
 10
39.7
 20
-1.520334
 30
0.0
 40
1.0
100
AcDbArc
 50
78.54217
 51
101.45783
  0
LINE
  5
572
102
{ACAD_REACTORS
330
54F
102
}
100
AcDbEntity
  8
STALPROFIL
100
AcDbLine
 10
39.898647
 20
-0.540263
 30
0.0
 11
46.239729
 21
-1.825511
 31
0.0
  0
ENDBLK
  5
574
100
AcDbEntity
  8
0
100
AcDbBlockEnd
  0
BLOCK
  5
54A
100
AcDbEntity
  8
0
100
AcDbBlockBegin
  2
*X65
 70
     1
 10
0.0
 20
0.0
 30
0.0
  3
*X65
  1

  0
LINE
  5
514
100
AcDbEntity
  8
0
 62
     0
100
AcDbLine
 10
111.177615
 20
263.205573
 30
0.0
 11
112.253202
 21
264.281159
 31
0.0
  0
LINE
  5
515
100
AcDbEntity
  8
0
 62
     0
100
AcDbLine
 10
112.474172
 20
264.50213
 30
0.0
 11
112.474172
 21
264.50213
 31
0.0
  0
LINE
  5
516
100
AcDbEntity
  8
0
 62
     0
100
AcDbLine
 10
112.695143
 20
264.723101
 30
0.0
 11
113.677615
 21
265.705573
 31
0.0
  0
LINE
  5
517
100
AcDbEntity
  8
0
 62
     0
100
AcDbLine
 10
111.258833
 20
264.170674
 30
0.0
 11
111.258833
 21
264.170674
 31
0.0
  0
LINE
  5
518
100
AcDbEntity
  8
0
 62
     0
100
AcDbLine
 10
111.479803
 20
264.391645
 30
0.0
 11
112.584658
 21
265.496499
 31
0.0
  0
LINE
  5
519
100
AcDbEntity
  8
0
 62
     0
100
AcDbLine
 10
112.805629
 20
265.71747
 30
0.0
 11
112.805629
 21
265.71747
 31
0.0
  0
LINE
  5
51A
100
AcDbEntity
  8
0
 62
     0
100
AcDbLine
 10
113.0266
 20
265.938441
 30
0.0
 11
113.677615
 21
266.589456
 31
0.0
  0
LINE
  5
51B
100
AcDbEntity
  8
0
 62
     0
100
AcDbLine
 10
111.177615
 20
264.97334
 30
0.0
 11
111.369318
 21
265.165043
 31
0.0
  0
LINE
  5
51C
100
AcDbEntity
  8
0
 62
     0
100
AcDbLine
 10
111.590289
 20
265.386014
 30
0.0
 11
111.590289
 21
265.386014
 31
0.0
  0
LINE
  5
51D
100
AcDbEntity
  8
0
 62
     0
100
AcDbLine
 10
111.81126
 20
265.606985
 30
0.0
 11
112.916114
 21
266.711839
 31
0.0
  0
LINE
  5
51E
100
AcDbEntity
  8
0
 62
     0
100
AcDbLine
 10
113.137085
 20
266.93281
 30
0.0
 11
113.137085
 21
266.93281
 31
0.0
  0
LINE
  5
51F
100
AcDbEntity
  8
0
 62
     0
100
AcDbLine
 10
113.358056
 20
267.153781
 30
0.0
 11
113.677615
 21
267.47334
 31
0.0
  0
LINE
  5
520
100
AcDbEntity
  8
0
 62
     0
100
AcDbLine
 10
111.177615
 20
265.857223
 30
0.0
 11
111.700774
 21
266.380383
 31
0.0
  0
LINE
  5
521
100
AcDbEntity
  8
0
 62
     0
100
AcDbLine
 10
111.921745
 20
266.601354
 30
0.0
 11
111.921745
 21
266.601354
 31
0.0
  0
LINE
  5
522
100
AcDbEntity
  8
0
 62
     0
100
AcDbLine
 10
112.142716
 20
266.822324
 30
0.0
 11
113.24757
 21
267.927179
 31
0.0
  0
LINE
  5
523
100
AcDbEntity
  8
0
 62
     0
100
AcDbLine
 10
113.468541
 20
268.14815
 30
0.0
 11
113.468541
 21
268.14815
 31
0.0
  0
LINE
  5
524
100
AcDbEntity
  8
0
 62
     0
100
AcDbLine
 10
111.177615
 20
266.741106
 30
0.0
 11
112.032231
 21
267.595723
 31
0.0
  0
LINE
  5
525
100
AcDbEntity
  8
0
 62
     0
100
AcDbLine
 10
112.253202
 20
267.816693
 30
0.0
 11
112.253202
 21
267.816693
 31
0.0
  0
LINE
  5
526
100
AcDbEntity
  8
0
 62
     0
100
AcDbLine
 10
112.474172
 20
268.037664
 30
0.0
 11
113.579027
 21
269.142519
 31
0.0
  0
LINE
  5
527
100
AcDbEntity
  8
0
 62
     0
100
AcDbLine
 10
111.258833
 20
267.706208
 30
0.0
 11
112.363687
 21
268.811062
 31
0.0
  0
LINE
  5
528
100
AcDbEntity
  8
0
 62
     0
100
AcDbLine
 10
112.584658
 20
269.032033
 30
0.0
 11
112.584658
 21
269.032033
 31
0.0
  0
LINE
  5
529
100
AcDbEntity
  8
0
 62
     0
100
AcDbLine
 10
112.805629
 20
269.253004
 30
0.0
 11
113.677615
 21
270.12499
 31
0.0
  0
LINE
  5
52A
100
AcDbEntity
  8
0
 62
     0
100
AcDbLine
 10
111.369318
 20
268.700577
 30
0.0
 11
111.369318
 21
268.700577
 31
0.0
  0
LINE
  5
52B
100
AcDbEntity
  8
0
 62
     0
100
AcDbLine
 10
111.590289
 20
268.921548
 30
0.0
 11
112.695143
 21
270.026402
 31
0.0
  0
LINE
  5
52C
100
AcDbEntity
  8
0
 62
     0
100
AcDbLine
 10
112.916114
 20
270.247373
 30
0.0
 11
112.916114
 21
270.247373
 31
0.0
  0
LINE
  5
52D
100
AcDbEntity
  8
0
 62
     0
100
AcDbLine
 10
113.137085
 20
270.468344
 30
0.0
 11
113.677615
 21
271.008873
 31
0.0
  0
LINE
  5
52E
100
AcDbEntity
  8
0
 62
     0
100
AcDbLine
 10
111.177615
 20
269.392757
 30
0.0
 11
111.479803
 21
269.694946
 31
0.0
  0
LINE
  5
52F
100
AcDbEntity
  8
0
 62
     0
100
AcDbLine
 10
111.700774
 20
269.915917
 30
0.0
 11
111.700774
 21
269.915917
 31
0.0
  0
LINE
  5
530
100
AcDbEntity
  8
0
 62
     0
100
AcDbLine
 10
111.921745
 20
270.136888
 30
0.0
 11
112.949375
 21
271.164517
 31
0.0
  0
LINE
  5
531
100
AcDbEntity
  8
0
 62
     0
100
AcDbLine
 10
111.177615
 20
270.27664
 30
0.0
 11
111.81126
 21
270.910286
 31
0.0
  0
LINE
  5
532
100
AcDbEntity
  8
0
 62
     0
100
AcDbLine
 10
112.032231
 20
271.131256
 30
0.0
 11
112.032231
 21
271.131256
 31
0.0
  0
LINE
  5
533
100
AcDbEntity
  8
0
 62
     0
100
AcDbLine
 10
111.177615
 20
271.160524
 30
0.0
 11
111.181608
 21
271.164517
 31
0.0
  0
LINE
  5
534
100
AcDbEntity
  8
0
 62
     0
100
AcDbLine
 10
111.177615
 20
262.321689
 30
0.0
 11
111.921745
 21
263.06582
 31
0.0
  0
LINE
  5
535
100
AcDbEntity
  8
0
 62
     0
100
AcDbLine
 10
112.142716
 20
263.286791
 30
0.0
 11
112.142716
 21
263.286791
 31
0.0
  0
LINE
  5
536
100
AcDbEntity
  8
0
 62
     0
100
AcDbLine
 10
112.363687
 20
263.507761
 30
0.0
 11
113.468541
 21
264.612616
 31
0.0
  0
LINE
  5
537
100
AcDbEntity
  8
0
 62
     0
100
AcDbLine
 10
111.177615
 20
261.437806
 30
0.0
 11
111.590289
 21
261.85048
 31
0.0
  0
LINE
  5
538
100
AcDbEntity
  8
0
 62
     0
100
AcDbLine
 10
111.81126
 20
262.071451
 30
0.0
 11
111.81126
 21
262.071451
 31
0.0
  0
LINE
  5
539
100
AcDbEntity
  8
0
 62
     0
100
AcDbLine
 10
112.032231
 20
262.292422
 30
0.0
 11
113.137085
 21
263.397276
 31
0.0
  0
LINE
  5
53A
100
AcDbEntity
  8
0
 62
     0
100
AcDbLine
 10
113.358056
 20
263.618247
 30
0.0
 11
113.358056
 21
263.618247
 31
0.0
  0
LINE
  5
53B
100
AcDbEntity
  8
0
 62
     0
100
AcDbLine
 10
113.579027
 20
263.839218
 30
0.0
 11
113.677615
 21
263.937806
 31
0.0
  0
LINE
  5
53C
100
AcDbEntity
  8
0
 62
     0
100
AcDbLine
 10
111.177615
 20
260.553922
 30
0.0
 11
111.258833
 21
260.63514
 31
0.0
  0
LINE
  5
53D
100
AcDbEntity
  8
0
 62
     0
100
AcDbLine
 10
111.479803
 20
260.856111
 30
0.0
 11
111.479803
 21
260.856111
 31
0.0
  0
LINE
  5
53E
100
AcDbEntity
  8
0
 62
     0
100
AcDbLine
 10
111.700774
 20
261.077082
 30
0.0
 11
112.805629
 21
262.181936
 31
0.0
  0
LINE
  5
53F
100
AcDbEntity
  8
0
 62
     0
100
AcDbLine
 10
113.0266
 20
262.402907
 30
0.0
 11
113.0266
 21
262.402907
 31
0.0
  0
LINE
  5
540
100
AcDbEntity
  8
0
 62
     0
100
AcDbLine
 10
113.24757
 20
262.623878
 30
0.0
 11
113.677615
 21
263.053922
 31
0.0
  0
LINE
  5
541
100
AcDbEntity
  8
0
 62
     0
100
AcDbLine
 10
111.369318
 20
259.861742
 30
0.0
 11
112.474172
 21
260.966596
 31
0.0
  0
LINE
  5
542
100
AcDbEntity
  8
0
 62
     0
100
AcDbLine
 10
112.695143
 20
261.187567
 30
0.0
 11
112.695143
 21
261.187567
 31
0.0
  0
LINE
  5
543
100
AcDbEntity
  8
0
 62
     0
100
AcDbLine
 10
112.916114
 20
261.408538
 30
0.0
 11
113.677615
 21
262.170039
 31
0.0
  0
LINE
  5
544
100
AcDbEntity
  8
0
 62
     0
100
AcDbLine
 10
111.555977
 20
259.164517
 30
0.0
 11
112.142716
 21
259.751257
 31
0.0
  0
LINE
  5
545
100
AcDbEntity
  8
0
 62
     0
100
AcDbLine
 10
112.363687
 20
259.972228
 30
0.0
 11
112.363687
 21
259.972228
 31
0.0
  0
LINE
  5
546
100
AcDbEntity
  8
0
 62
     0
100
AcDbLine
 10
112.584658
 20
260.193198
 30
0.0
 11
113.677615
 21
261.286155
 31
0.0
  0
LINE
  5
547
100
AcDbEntity
  8
0
 62
     0
100
AcDbLine
 10
112.43986
 20
259.164517
 30
0.0
 11
113.358056
 21
260.082713
 31
0.0
  0
LINE
  5
548
100
AcDbEntity
  8
0
 62
     0
100
AcDbLine
 10
113.579027
 20
260.303684
 30
0.0
 11
113.579027
 21
260.303684
 31
0.0
  0
LINE
  5
549
100
AcDbEntity
  8
0
 62
     0
100
AcDbLine
 10
113.468541
 20
259.309315
 30
0.0
 11
113.677615
 21
259.518388
 31
0.0
  0
ENDBLK
  5
54B
100
AcDbEntity
  8
0
100
AcDbBlockEnd
  0
BLOCK
  5
575
100
AcDbEntity
  8
0
100
AcDbBlockBegin
  2
50_SP40052-INTUMEX
 70
     0
 10
0.0
 20
0.0
 30
0.0
  3
50_SP40052-INTUMEX
  1

  0
INSERT
  5
512
100
AcDbEntity
  8
GLAS_MED_FOGNING
100
AcDbBlockReference
  2
*X65
 10
-80.0
 20
-290.0
 30
0.0
1001
ACAD
1000
HATCH
1002
{
1070
    16
1000
ANSI36
1040
5.0
1040
0.0
1002
}
  0
LWPOLYLINE
  5
54C
100
AcDbEntity
  8
GLAS_MED_FOGNING
100
AcDbPolyline
 90
        4
 70
     1
 43
0.0
 10
31.177615
 20
-30.835483
 10
31.177615
 20
-18.835483
 10
33.677615
 20
-18.835483
 10
33.677615
 20
-30.835483
  0
INSERT
  5
54D
100
AcDbEntity
  8
0
100
AcDbBlockReference
  2
50_SP40052
 10
0.0
 20
0.0
 30
0.0
  0
ENDBLK
  5
576
100
AcDbEntity
  8
0
100
AcDbBlockEnd
  0
BLOCK
  5
613
100
AcDbEntity
  8
0
100
AcDbBlockBegin
  2
50_SP92520-2
 70
     0
 10
0.0
 20
0.0
 30
0.0
  3
50_SP92520-2
  1

  0
INSERT
  5
614
100
AcDbEntity
  8
0
100
AcDbBlockReference
  2
SP40020
 10
5.0
 20
-45.0
 30
0.0
  0
LWPOLYLINE
  5
615
100
AcDbEntity
  8
SPKONTUR
100
AcDbPolyline
 90
       14
 70
     0
 43
0.0
 10
-3.196152
 20
-15.0
 10
-4.0
 20
-18.0
 42
0.414214
 10
-2.0
 20
-20.0
 10
-2.0
 20
-20.0
 42
0.414214
 10
0.0
 20
-18.0
 10
0.0
 20
-2.0
 42
0.414214
 10
-2.0
 20
0.0
 10
-23.0
 20
0.0
 42
0.414214
 10
-25.0
 20
-2.0
 10
-25.0
 20
-18.0
 42
0.414214
 10
-23.0
 20
-20.0
 10
-14.0
 20
-20.0
 42
0.414214
 10
-12.0
 20
-18.0
 10
-12.803848
 20
-15.0
  0
LWPOLYLINE
  5
616
100
AcDbEntity
  8
STALPROFIL
100
AcDbPolyline
 90
       14
 70
     0
 43
1.25
 10
-2.592449
 20
-15.161762
 10
-3.372969
 20
-18.074704
 42
0.398381
 10
-2.0
 20
-19.375
 10
-2.0
 20
-19.375
 42
0.414214
 10
-0.625
 20
-18.0
 10
-0.625
 20
-2.0
 42
0.414214
 10
-2.0
 20
-0.625
 10
-23.0
 20
-0.625
 42
0.414214
 10
-24.375
 20
-2.0
 10
-24.375
 20
-18.0
 42
0.414214
 10
-23.0
 20
-19.375
 10
-14.0
 20
-19.375
 42
0.398381
 10
-12.627031
 20
-18.074704
 10
-13.407551
 20
-15.161762
  0
INSERT
  5
617
100
AcDbEntity
  8
0
100
AcDbBlockReference
  2
GLAS11-6X5
 10
-50.0
 20
-45.0
 30
0.0
  0
LWPOLYLINE
  5
618
100
AcDbEntity
  8
CENTRUM
100
AcDbPolyline
 90
        4
 70
     0
 43
0.0
 10
0.0
 20
12.5
 10
-30.0
 20
12.5
 10
-41.0
 20
12.5
 10
-50.0
 20
12.5
  0
LINE
  5
619
100
AcDbEntity
  8
GLAS_MED_FOGNING
100
AcDbLine
 10
-41.0
 20
12.5
 30
0.0
 11
-41.0
 21
4.0
 31
0.0
  0
LINE
  5
61A
100
AcDbEntity
  8
GLAS_MED_FOGNING
100
AcDbLine
 10
-30.0
 20
12.5
 30
0.0
 11
-30.0
 21
4.0
 31
0.0
  0
ENDBLK
  5
61B
100
AcDbEntity
  8
0
100
AcDbBlockEnd
  0
BLOCK
  5
627
100
AcDbEntity
  8
0
100
AcDbBlockBegin
  2
50_SP92520-2DK
 70
     0
 10
0.0
 20
0.0
 30
0.0
  3
50_SP92520-2DK
  1

  0
LWPOLYLINE
  5
628
100
AcDbEntity
  8
CENTRUM
100
AcDbPolyline
 90
        4
 70
     0
 43
0.0
 10
0.0
 20
12.5
 10
-30.0
 20
12.5
 10
-41.0
 20
12.5
 10
-50.0
 20
12.5
  0
INSERT
  5
629
100
AcDbEntity
  8
0
100
AcDbBlockReference
  2
SP40020
 10
5.0
 20
-45.0
 30
0.0
  0
LWPOLYLINE
  5
62A
100
AcDbEntity
  8
SPKONTUR
100
AcDbPolyline
 90
       14
 70
     0
 43
0.0
 10
-3.196152
 20
-15.0
 10
-4.0
 20
-18.0
 42
0.414214
 10
-2.0
 20
-20.0
 10
-2.0
 20
-20.0
 42
0.414214
 10
0.0
 20
-18.0
 10
0.0
 20
-2.0
 42
0.414214
 10
-2.0
 20
0.0
 10
-23.0
 20
0.0
 42
0.414214
 10
-25.0
 20
-2.0
 10
-25.0
 20
-18.0
 42
0.414214
 10
-23.0
 20
-20.0
 10
-14.0
 20
-20.0
 42
0.414214
 10
-12.0
 20
-18.0
 10
-12.803848
 20
-15.0
  0
LWPOLYLINE
  5
62B
100
AcDbEntity
  8
STALPROFIL
100
AcDbPolyline
 90
       14
 70
     0
 43
1.25
 10
-2.592449
 20
-15.161762
 10
-3.372969
 20
-18.074704
 42
0.398381
 10
-2.0
 20
-19.375
 10
-2.0
 20
-19.375
 42
0.414214
 10
-0.625
 20
-18.0
 10
-0.625
 20
-2.0
 42
0.414214
 10
-2.0
 20
-0.625
 10
-23.0
 20
-0.625
 42
0.414214
 10
-24.375
 20
-2.0
 10
-24.375
 20
-18.0
 42
0.414214
 10
-23.0
 20
-19.375
 10
-14.0
 20
-19.375
 42
0.398381
 10
-12.627031
 20
-18.074704
 10
-13.407551
 20
-15.161762
  0
INSERT
  5
62C
100
AcDbEntity
  8
0
100
AcDbBlockReference
  2
GLAS11-6X5DK
 10
-50.0
 20
-45.0
 30
0.0
  0
LINE
  5
62D
100
AcDbEntity
  8
GLAS_MED_FOGNING
100
AcDbLine
 10
-30.0
 20
12.5
 30
0.0
 11
-30.0
 21
4.0
 31
0.0
  0
LINE
  5
62E
100
AcDbEntity
  8
GLAS_MED_FOGNING
100
AcDbLine
 10
-41.0
 20
12.5
 30
0.0
 11
-41.0
 21
4.0
 31
0.0
  0
ENDBLK
  5
62F
100
AcDbEntity
  8
0
100
AcDbBlockEnd
  0
ENDSEC
  0
SECTION
  2
ENTITIES
  0
INSERT
  5
1E
100
AcDbEntity
  8
0
100
AcDbBlockReference
  2
GLAS11-6X5
 10
-5.0
 20
425.0
 30
0.0
  0
INSERT
  5
87
100
AcDbEntity
  8
0
100
AcDbBlockReference
  2
SP91020
 10
-60.0
 20
425.0
 30
0.0
  0
INSERT
  5
97
100
AcDbEntity
  8
0
100
AcDbBlockReference
  2
GLAS30-4X3DK
 10
-125.0
 20
425.0
 30
0.0
  0
INSERT
  5
E0
100
AcDbEntity
  8
0
100
AcDbBlockReference
  2
SP92520
 10
50.0
 20
425.0
 30
0.0
  0
INSERT
  5
FA
100
AcDbEntity
  8
0
100
AcDbBlockReference
  2
SIDA
 10
225.0
 20
360.0
 30
0.0
  0
TEXT
  5
10C
100
AcDbEntity
  8
TEXT
100
AcDbText
 10
-137.652381
 20
438.0
 30
0.0
 40
5.0
  1
%%UGLAS30-4X3DK
 41
0.8
  7
ROMANS
 72
     1
 11
-115.0
 21
438.0
 31
0.0
100
AcDbText
  0
TEXT
  5
10F
100
AcDbEntity
  8
TEXT
100
AcDbText
 10
-72.842857
 20
438.0
 30
0.0
 40
5.0
  1
%%USP91020
 41
0.8
  7
ROMANS
 72
     1
 11
-60.0
 21
438.0
 31
0.0
100
AcDbText
  0
TEXT
  5
110
100
AcDbEntity
  8
TEXT
100
AcDbText
 10
-18.652381
 20
438.0
 30
0.0
 40
5.0
  1
%%UGLAS11-6X5
 41
0.8
  7
ROMANS
 72
     1
 11
0.0
 21
438.0
 31
0.0
100
AcDbText
  0
TEXT
  5
111
100
AcDbEntity
  8
TEXT
100
AcDbText
 10
143.428571
 20
400.0
 30
0.0
 40
5.0
  1
SP 95000  %%UGLASS
 41
0.8
  7
ROMANS
 72
     2
 11
200.0
 21
400.0
 31
0.0
100
AcDbText
  0
TEXT
  5
112
100
AcDbEntity
  8
TEXT
100
AcDbText
 10
132.0
 20
385.0
 30
0.0
 40
5.0
  1
File name  %%U950PAGE7
 41
0.8
  7
ROMANS
 72
     2
 11
200.0
 21
385.0
 31
0.0
100
AcDbText
  0
TEXT
  5
113
100
AcDbEntity
  8
TEXT
100
AcDbText
 10
42.157143
 20
438.0
 30
0.0
 40
5.0
  1
%%USP92520
 41
0.8
  7
ROMANS
 72
     1
 11
55.0
 21
438.0
 31
0.0
100
AcDbText
  0
TEXT
  5
114
100
AcDbEntity
  8
TEXT
100
AcDbText
 10
126.061905
 20
448.0
 30
0.0
 40
5.0
  1
%%U50_SP40052
 41
0.8
  7
ROMANS
 72
     1
 11
145.0
 21
448.0
 31
0.0
100
AcDbText
  0
INSERT
  5
115
100
AcDbEntity
  8
0
100
AcDbBlockReference
  2
50_SP93020
 10
50.0
 20
845.0
 30
0.0
  0
INSERT
  5
16D
100
AcDbEntity
  8
0
100
AcDbBlockReference
  2
50_SP91520
 10
100.0
 20
715.0
 30
0.0
  0
INSERT
  5
1E3
100
AcDbEntity
  8
0
100
AcDbBlockReference
  2
50_SP91520DK
 10
100.0
 20
660.0
 30
0.0
  0
TEXT
  5
233
100
AcDbEntity
  8
TEXT
100
AcDbText
 10
61.061905
 20
723.0
 30
0.0
 40
5.0
  1
%%U50_SP91520
 41
0.8
  7
ROMANS
 72
     1
 11
80.0
 21
723.0
 31
0.0
100
AcDbText
  0
INSERT
  5
235
100
AcDbEntity
  8
0
100
AcDbBlockReference
  2
50_SP93020DK
 10
50.0
 20
790.0
 30
0.0
  0
TEXT
  5
264
100
AcDbEntity
  8
TEXT
100
AcDbText
 10
11.061905
 20
853.0
 30
0.0
 40
5.0
  1
%%U50_SP93020
 41
0.8
  7
ROMANS
 72
     1
 11
30.0
 21
853.0
 31
0.0
100
AcDbText
  0
INSERT
  5
265
100
AcDbEntity
  8
0
100
AcDbBlockReference
  2
50_SP90520FYLLN
 10
50.0
 20
530.0
 30
0.0
  0
TEXT
  5
2B9
100
AcDbEntity
  8
TEXT
100
AcDbText
 10
30.014286
 20
538.0
 30
0.0
 40
5.0
  1
%%UFILLING
 41
0.8
  7
ROMANS
 72
     1
 11
40.0
 21
538.0
 31
0.0
100
AcDbText
  0
INSERT
  5
2BA
100
AcDbEntity
  8
0
100
AcDbBlockReference
  2
SP90520
 10
50.0
 20
585.0
 30
0.0
  0
TEXT
  5
2BB
100
AcDbEntity
  8
TEXT
100
AcDbText
 10
17.157143
 20
593.0
 30
0.0
 40
5.0
  1
%%USP90520
 41
0.8
  7
ROMANS
 72
     1
 11
30.0
 21
593.0
 31
0.0
100
AcDbText
  0
LWPOLYLINE
  5
2BD
100
AcDbEntity
  8
CENTRUM
100
AcDbPolyline
 90
        4
 70
     0
 43
0.0
 10
45.0
 20
487.5
 10
15.0
 20
487.5
 10
4.0
 20
487.5
 10
-5.0
 20
487.5
  0
INSERT
  5
2BE
100
AcDbEntity
  8
0
100
AcDbBlockReference
  2
50_SP92020
 10
10.0
 20
715.0
 30
0.0
  0
LWPOLYLINE
  5
329
100
AcDbEntity
  8
CENTRUM
100
AcDbPolyline
 90
        4
 70
     0
 43
0.0
 10
-75.0
 20
487.5
 10
-88.0
 20
487.5
 10
-118.0
 20
487.5
 10
-125.0
 20
487.5
  0
TEXT
  5
32A
100
AcDbEntity
  8
TEXT
100
AcDbText
 10
-47.747619
 20
495.0
 30
0.0
 40
5.0
  1
%%UEXPLODE
 41
0.8
  7
ROMANS
 72
     1
 11
-35.0
 21
495.0
 31
0.0
100
AcDbText
  0
LINE
  5
32B
100
AcDbEntity
  8
GLAS_MED_FOGNING
100
AcDbLine
 10
-118.0
 20
487.5
 30
0.0
 11
-118.0
 21
479.0
 31
0.0
  0
LINE
  5
32C
100
AcDbEntity
  8
GLAS_MED_FOGNING
100
AcDbLine
 10
-88.0
 20
487.5
 30
0.0
 11
-88.0
 21
479.0
 31
0.0
  0
TEXT
  5
32D
100
AcDbEntity
  8
TEXT
100
AcDbText
 10
-117.747619
 20
593.0
 30
0.0
 40
5.0
  1
%%U50_30SP91020
 41
0.8
  7
ROMANS
 72
     1
 11
-95.0
 21
593.0
 31
0.0
100
AcDbText
  0
INSERT
  5
32F
100
AcDbEntity
  8
0
100
AcDbBlockReference
  2
50_30SP91020DK
 10
-70.0
 20
530.0
 30
0.0
  0
LINE
  5
338
100
AcDbEntity
  8
TEXT
100
AcDbLine
 10
-106.548014
 20
556.075331
 30
0.0
 11
-101.446234
 21
537.001193
 31
0.0
  0
LINE
  5
339
100
AcDbEntity
  8
GLAS_MED_FOGNING
100
AcDbLine
 10
4.0
 20
487.5
 30
0.0
 11
4.0
 21
479.0
 31
0.0
  0
LINE
  5
33A
100
AcDbEntity
  8
GLAS_MED_FOGNING
100
AcDbLine
 10
15.0
 20
487.5
 30
0.0
 11
15.0
 21
479.0
 31
0.0
  0
LINE
  5
33B
100
AcDbEntity
  8
TEXT
100
AcDbLine
 10
18.738344
 20
558.685782
 30
0.0
 11
26.363804
 21
536.999677
 31
0.0
  0
LINE
  5
33C
100
AcDbEntity
  8
TEXT
100
AcDbLine
 10
-26.475184
 20
686.414005
 30
0.0
 11
-21.446234
 21
667.001193
 31
0.0
  0
INSERT
  5
33E
100
AcDbEntity
  8
0
100
AcDbBlockReference
  2
50_30SP91020
 10
-70.0
 20
585.0
 30
0.0
  0
TEXT
  5
3B7
100
AcDbEntity
  8
TEXT
100
AcDbText
 10
-28.938095
 20
723.0
 30
0.0
 40
5.0
  1
%%U50_SP92020
 41
0.8
  7
ROMANS
 72
     1
 11
-10.0
 21
723.0
 31
0.0
100
AcDbText
  0
INSERT
  5
3B8
100
AcDbEntity
  8
0
100
AcDbBlockReference
  2
50_SP92020DK
 10
10.0
 20
660.0
 30
0.0
  0
LINE
  5
3E7
100
AcDbEntity
  8
TEXT
100
AcDbLine
 10
62.716208
 20
685.884811
 30
0.0
 11
68.541063
 21
667.001134
 31
0.0
  0
INSERT
  5
3E8
100
AcDbEntity
  8
0
100
AcDbBlockReference
  2
50_SP93520
 10
-70.0
 20
845.0
 30
0.0
  0
INSERT
  5
441
100
AcDbEntity
  8
0
100
AcDbBlockReference
  2
50_SP93520DK
 10
-70.0
 20
790.0
 30
0.0
  0
TEXT
  5
493
100
AcDbEntity
  8
TEXT
100
AcDbText
 10
-99.938095
 20
798.0
 30
0.0
 40
5.0
  1
%%UDISTANCE BLOCK
 41
0.8
  7
ROMANS
 72
     1
 11
-75.0
 21
798.0
 31
0.0
100
AcDbText
  0
LINE
  5
494
100
AcDbEntity
  8
TEXT
100
AcDbLine
 10
-112.021133
 20
815.978867
 30
0.0
 11
-101.444358
 21
796.998604
 31
0.0
  0
TEXT
  5
495
100
AcDbEntity
  8
TEXT
100
AcDbText
 10
-108.938095
 20
853.0
 30
0.0
 40
5.0
  1
%%U50_SP93520
 41
0.8
  7
ROMANS
 72
     1
 11
-90.0
 21
853.0
 31
0.0
100
AcDbText
  0
LINE
  5
496
100
AcDbEntity
  8
TEXT
100
AcDbLine
 10
10.331298
 20
816.109415
 30
0.0
 11
18.555642
 21
796.998604
 31
0.0
  0
INSERT
  5
497
100
AcDbEntity
  8
0
100
AcDbBlockReference
  2
50_SP91020
 10
185.0
 20
715.0
 30
0.0
  0
INSERT
  5
510
100
AcDbEntity
  8
GLAS_MED_FOGNING
100
AcDbBlockReference
  2
50_SP40052-INTUMEX
 10
110.0
 20
630.0
 30
0.0
  0
INSERT
  5
577
100
AcDbEntity
  8
0
100
AcDbBlockReference
  2
50_SP40052
 10
110.0
 20
515.0
 30
0.0
  0
TEXT
  5
578
100
AcDbEntity
  8
TEXT
100
AcDbText
 10
111.109524
 20
563.0
 30
0.0
 40
5.0
  1
%%U50_SP40052-INTUMEX
 41
0.8
  7
ROMANS
 72
     1
 11
145.0
 21
563.0
 31
0.0
100
AcDbText
  0
LINE
  5
579
100
AcDbEntity
  8
TEXT
100
AcDbLine
 10
146.27689
 20
685.437864
 30
0.0
 11
153.555642
 21
666.998604
 31
0.0
  0
TEXT
  5
57B
100
AcDbEntity
  8
TEXT
100
AcDbText
 10
146.061905
 20
723.0
 30
0.0
 40
5.0
  1
%%U50_SP91020
 41
0.8
  7
ROMANS
 72
     1
 11
165.0
 21
723.0
 31
0.0
100
AcDbText
  0
INSERT
  5
57C
100
AcDbEntity
  8
0
100
AcDbBlockReference
  2
50_SP91020DK
 10
185.0
 20
660.0
 30
0.0
  0
INSERT
  5
5AB
100
AcDbEntity
  8
0
100
AcDbBlockReference
  2
50_SP92520-1
 10
170.0
 20
845.0
 30
0.0
  0
INSERT
  5
5B4
100
AcDbEntity
  8
0
100
AcDbBlockReference
  2
50_SP92520-1DK
 10
170.0
 20
790.0
 30
0.0
  0
LINE
  5
5E4
100
AcDbEntity
  8
TEXT
100
AcDbLine
 10
131.96285
 20
816.34675
 30
0.0
 11
138.555642
 21
796.998604
 31
0.0
  0
TEXT
  5
5E5
100
AcDbEntity
  8
TEXT
100
AcDbText
 10
126.695238
 20
853.0
 30
0.0
 40
5.0
  1
%%U50_SP92520-1
 41
0.8
  7
ROMANS
 72
     1
 11
150.0
 21
853.0
 31
0.0
100
AcDbText
  0
LINE
  5
5F6
100
AcDbEntity
  8
TEXT
100
AcDbLine
 10
-113.03715
 20
686.34675
 30
0.0
 11
-106.444358
 21
666.998604
 31
0.0
  0
TEXT
  5
5F7
100
AcDbEntity
  8
TEXT
100
AcDbText
 10
-118.319048
 20
723.0
 30
0.0
 40
5.0
  1
%%U50_SP92520-2
 41
0.8
  7
ROMANS
 72
     1
 11
-95.0
 21
723.0
 31
0.0
100
AcDbText
  0
INSERT
  5
630
100
AcDbEntity
  8
GLAS_MED_FOGNING
100
AcDbBlockReference
  2
50_SP92520-2
 10
-75.0
 20
760.0
 30
0.0
  0
INSERT
  5
631
100
AcDbEntity
  8
GLAS_MED_FOGNING
100
AcDbBlockReference
  2
50_SP92520-2DK
 10
-75.0
 20
705.0
 30
0.0
  0
TEXT
  5
63E
100
AcDbEntity
  8
TEXT
100
AcDbText
 10
20.061905
 20
798.0
 30
0.0
 40
5.0
  1
%%UDISTANCE BLOCK
 41
0.8
  7
ROMANS
 72
     1
 11
45.0
 21
798.0
 31
0.0
100
AcDbText
  0
TEXT
  5
63F
100
AcDbEntity
  8
TEXT
100
AcDbText
 10
140.061905
 20
798.0
 30
0.0
 40
5.0
  1
%%UDISTANCE BLOCK
 41
0.8
  7
ROMANS
 72
     1
 11
165.0
 21
798.0
 31
0.0
100
AcDbText
  0
TEXT
  5
640
100
AcDbEntity
  8
TEXT
100
AcDbText
 10
155.061905
 20
668.0
 30
0.0
 40
5.0
  1
%%UDISTANCE BLOCK
 41
0.8
  7
ROMANS
 72
     1
 11
180.0
 21
668.0
 31
0.0
100
AcDbText
  0
TEXT
  5
641
100
AcDbEntity
  8
TEXT
100
AcDbText
 10
70.061905
 20
668.0
 30
0.0
 40
5.0
  1
%%UDISTANCE BLOCK
 41
0.8
  7
ROMANS
 72
     1
 11
95.0
 21
668.0
 31
0.0
100
AcDbText
  0
TEXT
  5
642
100
AcDbEntity
  8
TEXT
100
AcDbText
 10
-19.938095
 20
668.0
 30
0.0
 40
5.0
  1
%%UDISTANCE BLOCK
 41
0.8
  7
ROMANS
 72
     1
 11
5.0
 21
668.0
 31
0.0
100
AcDbText
  0
TEXT
  5
643
100
AcDbEntity
  8
TEXT
100
AcDbText
 10
-104.938095
 20
668.0
 30
0.0
 40
5.0
  1
%%UDISTANCE BLOCK
 41
0.8
  7
ROMANS
 72
     1
 11
-80.0
 21
668.0
 31
0.0
100
AcDbText
  0
TEXT
  5
644
100
AcDbEntity
  8
TEXT
100
AcDbText
 10
-99.938095
 20
538.0
 30
0.0
 40
5.0
  1
%%UDISTANCE BLOCK
 41
0.8
  7
ROMANS
 72
     1
 11
-75.0
 21
538.0
 31
0.0
100
AcDbText
  0
ENDSEC
  0
SECTION
  2
OBJECTS
  0
DICTIONARY
  5
1A
100
AcDbDictionary
  3
ACAD_GROUP
350
18
  3
ACAD_LAYOUT
350
637
  3
ACAD_MLINESTYLE
350
19
  3
ACAD_PLOTSETTINGS
350
638
  3
ACAD_PLOTSTYLENAME
350
635
  3
ACDBHEADERROUNDTRIPXREC
350
648
  0
DICTIONARY
  5
646
100
AcDbDictionary
280
     1
  3
ACAD_XREC_ROUNDTRIP
360
647
  0
DICTIONARY
  5
668
100
AcDbDictionary
280
     1
  3
ACAD_LAYOUTSELFREF
360
669
  0
DICTIONARY
  5
66A
100
AcDbDictionary
280
     1
  3
ACAD_LAYOUTSELFREF
360
66B
  0
DICTIONARY
  5
18
102
{ACAD_REACTORS
330
1A
102
}
100
AcDbDictionary
  0
DICTIONARY
  5
637
102
{ACAD_XDICTIONARY
360
68B
102
}
102
{ACAD_REACTORS
330
1A
102
}
100
AcDbDictionary
  3
LAYOUT1
350
63A
  3
MODEL
350
639
  0
DICTIONARY
  5
19
102
{ACAD_REACTORS
330
1A
102
}
100
AcDbDictionary
  3
STANDARD
350
1C
  0
DICTIONARY
  5
638
102
{ACAD_REACTORS
330
1A
102
}
100
AcDbDictionary
  0
ACAD_PROXY_OBJECT
  5
635
102
{ACAD_REACTORS
330
1A
102
}
100
AcDbProxyObject
 90
      499
 91
      502
 93
       86
310
405010041939BDC9B585B0
350
636
340
636
 94
        0
  0
DICTIONARY
  5
648
102
{ACAD_REACTORS
330
1A
102
}
100
AcDbDictionary
  3
CEPSNTYPE
350
652
  3
FINGERPRINTGUID
350
653
  3
HYPERLINKBASE
350
64B
  3
INSUNITS
350
651
  3
LAYOUTDICT
350
64D
  3
LWETCUNION
350
650
  3
PLOTSETDICT
350
64E
  3
PLOTSTYLNAMDICT
350
64F
  3
PSVPSCALE
350
655
  3
PUCSBASE
350
658
  3
PUCSORGBACK
350
65E
  3
PUCSORGBOTTOM
350
65A
  3
PUCSORGFRONT
350
65D
  3
PUCSORGLEFT
350
65B
  3
PUCSORGRIGHT
350
65C
  3
PUCSORGTOP
350
659
  3
PUCSORTHOREF
350
656
  3
PUCSORTHOVIEW
350
657
  3
STYLESHEET
350
64C
  3
TSTACKALIGN
350
649
  3
TSTACKSIZE
350
64A
  3
UCSBASE
350
661
  3
UCSORGBACK
350
667
  3
UCSORGBOTTOM
350
663
  3
UCSORGFRONT
350
666
  3
UCSORGLEFT
350
664
  3
UCSORGRIGHT
350
665
  3
UCSORGTOP
350
662
  3
UCSORTHOREF
350
65F
  3
UCSORTHOVIEW
350
660
  3
VERSIONGUID
350
654
  0
XRECORD
  5
647
102
{ACAD_REACTORS
330
646
102
}
100
AcDbXrecord
102
EXTNAMES
  1
*ACTIVE
  2
*Active
102
UCS
 74
     0
 71
     1
 10
0.0
 20
0.0
 30
0.0
 10
1.0
 20
0.0
 30
0.0
 10
0.0
 20
1.0
 30
0.0
146
0.0
 79
     0
102
VIEW
281
     0
  0
XRECORD
  5
669
102
{ACAD_REACTORS
330
668
102
}
100
AcDbXrecord
340
2
  0
XRECORD
  5
66B
102
{ACAD_REACTORS
330
66A
102
}
100
AcDbXrecord
340
7
  0
DICTIONARY
  5
68B
100
AcDbDictionary
280
     1
  3
ACAD_XREC_ROUNDTRIP
360
68C
  0
ACAD_PROXY_OBJECT
  5
63A
102
{ACAD_REACTORS
330
637
102
}
100
AcDbProxyObject
 90
      499
 91
      504
 93
     1092
310
91D4850204C617365724A65742034562F344D5620506F73745363726970742C00AAAAAA416AA591069074C61796F75743140501A800000000000000000000000000000000000000000101E900000000000241C902A6A6A10232D5E076BC5510408CB5781DAF154410232D5E076BC5510408CB5781DAF15C410232D5E076BC5
310
710408CB5781DAF15C40
330
7
330
0
340
0
340
0
 94
        0
  0
ACAD_PROXY_OBJECT
  5
639
102
{ACAD_REACTORS
330
637
102
}
100
AcDbProxyObject
 90
      499
 91
      504
 93
      668
310
91D4850204C617365724A65742034562F344D5620506F73745363726970742C01AAAAAAAAA5A69054D6F64656C901A800000000000000000000000000000000000000000000A1000000000000008902A6A6AAAA0
330
2
330
0
340
0
340
0
 94
        0
  0
MLINESTYLE
  5
1C
102
{ACAD_REACTORS
330
19
102
}
100
AcDbMlineStyle
  2
STANDARD
 70
     0
  3

 62
     0
 51
90.0
 52
90.0
 71
     2
 49
0.5
 62
   256
  6
BYLAYER
 49
-0.5
 62
   256
  6
BYLAYER
  0
ACAD_PROXY_OBJECT
  5
636
102
{ACAD_REACTORS
330
635
102
}
100
AcDbProxyObject
 90
      499
 91
      503
 93
        0
 94
        0
  0
XRECORD
  5
652
102
{ACAD_REACTORS
330
648
102
}
100
AcDbXrecord
 90
        0
  0
XRECORD
  5
653
102
{ACAD_REACTORS
330
648
102
}
100
AcDbXrecord
  1
{DCFA0ABE-0BE8-11D6-AA0B-00D0B7E2A69D}
  0
XRECORD
  5
64B
102
{ACAD_REACTORS
330
648
102
}
100
AcDbXrecord
  1

  0
XRECORD
  5
651
102
{ACAD_REACTORS
330
648
102
}
100
AcDbXrecord
 90
        0
  0
XRECORD
  5
64D
102
{ACAD_REACTORS
330
648
102
}
100
AcDbXrecord
340
637
  0
XRECORD
  5
650
102
{ACAD_REACTORS
330
648
102
}
100
AcDbXrecord
 90
    14877
  0
XRECORD
  5
64E
102
{ACAD_REACTORS
330
648
102
}
100
AcDbXrecord
340
638
  0
XRECORD
  5
64F
102
{ACAD_REACTORS
330
648
102
}
100
AcDbXrecord
340
635
  0
XRECORD
  5
655
102
{ACAD_REACTORS
330
648
102
}
100
AcDbXrecord
 40
0.0
  0
XRECORD
  5
658
102
{ACAD_REACTORS
330
648
102
}
100
AcDbXrecord
340
0
  0
XRECORD
  5
65E
102
{ACAD_REACTORS
330
648
102
}
100
AcDbXrecord
 10
0.0
 20
0.0
 30
0.0
  0
XRECORD
  5
65A
102
{ACAD_REACTORS
330
648
102
}
100
AcDbXrecord
 10
0.0
 20
0.0
 30
0.0
  0
XRECORD
  5
65D
102
{ACAD_REACTORS
330
648
102
}
100
AcDbXrecord
 10
0.0
 20
0.0
 30
0.0
  0
XRECORD
  5
65B
102
{ACAD_REACTORS
330
648
102
}
100
AcDbXrecord
 10
0.0
 20
0.0
 30
0.0
  0
XRECORD
  5
65C
102
{ACAD_REACTORS
330
648
102
}
100
AcDbXrecord
 10
0.0
 20
0.0
 30
0.0
  0
XRECORD
  5
659
102
{ACAD_REACTORS
330
648
102
}
100
AcDbXrecord
 10
0.0
 20
0.0
 30
0.0
  0
XRECORD
  5
656
102
{ACAD_REACTORS
330
648
102
}
100
AcDbXrecord
340
0
  0
XRECORD
  5
657
102
{ACAD_REACTORS
330
648
102
}
100
AcDbXrecord
 70
     0
  0
XRECORD
  5
64C
102
{ACAD_REACTORS
330
648
102
}
100
AcDbXrecord
  1

  0
XRECORD
  5
649
102
{ACAD_REACTORS
330
648
102
}
100
AcDbXrecord
 90
        1
  0
XRECORD
  5
64A
102
{ACAD_REACTORS
330
648
102
}
100
AcDbXrecord
 90
       70
  0
XRECORD
  5
661
102
{ACAD_REACTORS
330
648
102
}
100
AcDbXrecord
340
0
  0
XRECORD
  5
667
102
{ACAD_REACTORS
330
648
102
}
100
AcDbXrecord
 10
0.0
 20
0.0
 30
0.0
  0
XRECORD
  5
663
102
{ACAD_REACTORS
330
648
102
}
100
AcDbXrecord
 10
0.0
 20
0.0
 30
0.0
  0
XRECORD
  5
666
102
{ACAD_REACTORS
330
648
102
}
100
AcDbXrecord
 10
0.0
 20
0.0
 30
0.0
  0
XRECORD
  5
664
102
{ACAD_REACTORS
330
648
102
}
100
AcDbXrecord
 10
0.0
 20
0.0
 30
0.0
  0
XRECORD
  5
665
102
{ACAD_REACTORS
330
648
102
}
100
AcDbXrecord
 10
0.0
 20
0.0
 30
0.0
  0
XRECORD
  5
662
102
{ACAD_REACTORS
330
648
102
}
100
AcDbXrecord
 10
0.0
 20
0.0
 30
0.0
  0
XRECORD
  5
65F
102
{ACAD_REACTORS
330
648
102
}
100
AcDbXrecord
340
0
  0
XRECORD
  5
660
102
{ACAD_REACTORS
330
648
102
}
100
AcDbXrecord
 70
     0
  0
XRECORD
  5
654
102
{ACAD_REACTORS
330
648
102
}
100
AcDbXrecord
  1
{DCFA0AC0-0BE8-11D6-AA0B-00D0B7E2A69D}
  0
XRECORD
  5
68C
102
{ACAD_REACTORS
330
68B
102
}
100
AcDbXrecord
102
EXTNAMES
  1
LAYOUT1
  2
Layout1
  1
MODEL
  2
Model
  0
ENDSEC
  0
EOF
