  0
SECTION
  2
HEADER
  9
$ACADVER
  1
AC1014
  9
$ACADMAINTVER
 70
     0
  9
$DWGCODEPAGE
  3
ANSI_1252
  9
$INSBASE
 10
-5.0
 20
20.0
 30
0.0
  9
$EXTMIN
 10
-745.0
 20
24.0
 30
0.0
  9
$EXTMAX
 10
-20.0
 20
560.0
 30
0.0
  9
$LIMMIN
 10
0.0
 20
0.0
  9
$LIMMAX
 10
840.0
 20
600.0
  9
$ORTHOMODE
 70
     0
  9
$REGENMODE
 70
     1
  9
$FILLMODE
 70
     1
  9
$QTEXTMODE
 70
     0
  9
$MIRRTEXT
 70
     1
  9
$DRAGMODE
 70
     2
  9
$LTSCALE
 40
5.0
  9
$OSMODE
 70
   547
  9
$ATTMODE
 70
     1
  9
$TEXTSIZE
 40
3.15
  9
$TRACEWID
 40
0.05
  9
$TEXTSTYLE
  7
STANDARD
  9
$CLAYER
  8
0
  9
$CELTYPE
  6
BYLAYER
  9
$CECOLOR
 62
   256
  9
$CELTSCALE
 40
1.0
  9
$DELOBJ
 70
     1
  9
$DISPSILH
 70
     0
  9
$DIMSCALE
 40
1.0
  9
$DIMASZ
 40
0.0
  9
$DIMEXO
 40
1.0
  9
$DIMDLI
 40
10.0
  9
$DIMRND
 40
0.0
  9
$DIMDLE
 40
0.0
  9
$DIMEXE
 40
2.0
  9
$DIMTP
 40
0.0
  9
$DIMTM
 40
0.0
  9
$DIMTXT
 40
3.5
  9
$DIMCEN
 40
2.5
  9
$DIMTSZ
 40
1.0
  9
$DIMTOL
 70
     0
  9
$DIMLIM
 70
     0
  9
$DIMTIH
 70
     0
  9
$DIMTOH
 70
     0
  9
$DIMSE1
 70
     0
  9
$DIMSE2
 70
     0
  9
$DIMTAD
 70
     1
  9
$DIMZIN
 70
     8
  9
$DIMBLK
  1

  9
$DIMASO
 70
     1
  9
$DIMSHO
 70
     1
  9
$DIMPOST
  1

  9
$DIMAPOST
  1

  9
$DIMALT
 70
     0
  9
$DIMALTD
 70
     2
  9
$DIMALTF
 40
25.4
  9
$DIMLFAC
 40
1.0
  9
$DIMTOFL
 70
     1
  9
$DIMTVP
 40
0.0
  9
$DIMTIX
 70
     0
  9
$DIMSOXD
 70
     0
  9
$DIMSAH
 70
     0
  9
$DIMBLK1
  1

  9
$DIMBLK2
  1

  9
$DIMSTYLE
  2
STANDARD
  9
$DIMCLRD
 70
     0
  9
$DIMCLRE
 70
     0
  9
$DIMCLRT
 70
     6
  9
$DIMTFAC
 40
1.0
  9
$DIMGAP
 40
0.1
  9
$DIMJUST
 70
     0
  9
$DIMSD1
 70
     0
  9
$DIMSD2
 70
     0
  9
$DIMTOLJ
 70
     1
  9
$DIMTZIN
 70
     0
  9
$DIMALTZ
 70
     0
  9
$DIMALTTZ
 70
     0
  9
$DIMFIT
 70
     3
  9
$DIMUPT
 70
     0
  9
$DIMUNIT
 70
     2
  9
$DIMDEC
 70
     4
  9
$DIMTDEC
 70
     4
  9
$DIMALTU
 70
     2
  9
$DIMALTTD
 70
     2
  9
$DIMTXSTY
  7
STANDARD
  9
$DIMAUNIT
 70
     0
  9
$LUNITS
 70
     2
  9
$LUPREC
 70
     2
  9
$SKETCHINC
 40
0.1
  9
$FILLETRAD
 40
0.5
  9
$AUNITS
 70
     0
  9
$AUPREC
 70
     4
  9
$MENU
  1
acad
  9
$ELEVATION
 40
0.0
  9
$PELEVATION
 40
0.0
  9
$THICKNESS
 40
0.0
  9
$LIMCHECK
 70
     0
  9
$BLIPMODE
 70
     0
  9
$CHAMFERA
 40
10.0
  9
$CHAMFERB
 40
10.0
  9
$CHAMFERC
 40
0.0
  9
$CHAMFERD
 40
0.0
  9
$SKPOLY
 70
     0
  9
$TDCREATE
 40
2450609.894492708
  9
$TDUPDATE
 40
2452293.561384838
  9
$TDINDWG
 40
0.0103819444
  9
$TDUSRTIMER
 40
0.0103819444
  9
$USRTIMER
 70
     1
  9
$ANGBASE
 50
0.0
  9
$ANGDIR
 70
     0
  9
$PDMODE
 70
    35
  9
$PDSIZE
 40
0.0
  9
$PLINEWID
 40
0.0
  9
$COORDS
 70
     1
  9
$SPLFRAME
 70
     0
  9
$SPLINETYPE
 70
     6
  9
$SPLINESEGS
 70
     8
  9
$ATTDIA
 70
     0
  9
$ATTREQ
 70
     1
  9
$HANDLING
 70
     1
  9
$HANDSEED
  5
201
  9
$SURFTAB1
 70
     6
  9
$SURFTAB2
 70
     6
  9
$SURFTYPE
 70
     6
  9
$SURFU
 70
     6
  9
$SURFV
 70
     6
  9
$UCSNAME
  2

  9
$UCSORG
 10
0.0
 20
0.0
 30
0.0
  9
$UCSXDIR
 10
1.0
 20
0.0
 30
0.0
  9
$UCSYDIR
 10
0.0
 20
1.0
 30
0.0
  9
$PUCSNAME
  2

  9
$PUCSORG
 10
0.0
 20
0.0
 30
0.0
  9
$PUCSXDIR
 10
1.0
 20
0.0
 30
0.0
  9
$PUCSYDIR
 10
0.0
 20
1.0
 30
0.0
  9
$USERI1
 70
     0
  9
$USERI2
 70
     0
  9
$USERI3
 70
     0
  9
$USERI4
 70
     0
  9
$USERI5
 70
     0
  9
$USERR1
 40
0.0
  9
$USERR2
 40
0.0
  9
$USERR3
 40
0.0
  9
$USERR4
 40
0.0
  9
$USERR5
 40
0.0
  9
$WORLDVIEW
 70
     1
  9
$SHADEDGE
 70
     3
  9
$SHADEDIF
 70
    70
  9
$TILEMODE
 70
     1
  9
$MAXACTVP
 70
    16
  9
$PINSBASE
 10
0.0
 20
0.0
 30
0.0
  9
$PLIMCHECK
 70
     0
  9
$PEXTMIN
 10
1.000000E+20
 20
1.000000E+20
 30
1.000000E+20
  9
$PEXTMAX
 10
-1.000000E+20
 20
-1.000000E+20
 30
-1.000000E+20
  9
$PLIMMIN
 10
0.0
 20
0.0
  9
$PLIMMAX
 10
420.0
 20
297.0
  9
$UNITMODE
 70
     0
  9
$VISRETAIN
 70
     0
  9
$PLINEGEN
 70
     0
  9
$PSLTSCALE
 70
     1
  9
$TREEDEPTH
 70
  3020
  9
$PICKSTYLE
 70
     1
  9
$CMLSTYLE
  2
STANDARD
  9
$CMLJUST
 70
     0
  9
$CMLSCALE
 40
1.0
  9
$PROXYGRAPHICS
 70
     1
  9
$MEASUREMENT
 70
     0
  0
ENDSEC
  0
SECTION
  2
CLASSES
  0
CLASS
  1
LWPOLYLINE
  2
AcDbPolyline
  3
"AutoCAD"
 90
        0
280
     0
281
     1
  0
CLASS
  1
ACDBDICTIONARYWDFLT
  2
AcDbDictionaryWithDefault
  3
AutoCAD 2000
 90
        0
280
     0
281
     0
  0
CLASS
  1
ACDBPLACEHOLDER
  2
AcDbPlaceHolder
  3
AutoCAD 2000
 90
        0
280
     0
281
     0
  0
CLASS
  1
LAYOUT
  2
AcDbLayout
  3
AutoCAD 2000
 90
        0
280
     0
281
     0
  0
CLASS
  1
LONG_TRANSACTION
  2
AcDbLongTransaction
  3
AutoCAD 2000
 90
        0
280
     0
281
     0
  0
CLASS
  1
LWPOLYLINE
  2
AcDbPolyline
  3
"AutoCAD"
 90
        0
280
     0
281
     1
  0
CLASS
  1
HATCH
  2
AcDbHatch
  3
"ACAD_SEDONA"
 90
        0
280
     0
281
     1
  0
CLASS
  1
XRECORD
  2
AcDbXrecord
  3
"<Built In>"
 90
        0
280
     0
281
     0
  0
ENDSEC
  0
SECTION
  2
TABLES
  0
TABLE
  2
VPORT
  5
12
100
AcDbSymbolTable
 70
     1
  0
VPORT
  5
1C5
102
{ACAD_XDICTIONARY
360
1C6
102
}
100
AcDbSymbolTableRecord
100
AcDbViewportTableRecord
  2
*ACTIVE
 70
     0
 10
0.0
 20
0.0
 11
1.0
 21
1.0
 12
-365.471359
 22
274.698142
 13
0.0
 23
0.0
 14
5.0
 24
5.0
 15
10.0
 25
10.0
 16
0.0
 26
0.0
 36
1.0
 17
0.0
 27
0.0
 37
0.0
 40
646.340265
 41
1.630435
 42
50.0
 43
0.0
 44
0.0
 50
0.0
 51
0.0
 71
     0
 72
   100
 73
     1
 74
     1
 75
     1
 76
     0
 77
     0
 78
     0
  0
ENDTAB
  0
TABLE
  2
LTYPE
  5
D
100
AcDbSymbolTable
 70
     2
  0
LTYPE
  5
E
100
AcDbSymbolTableRecord
100
AcDbLinetypeTableRecord
  2
BYBLOCK
 70
     0
  3

 72
    65
 73
     0
 40
0.0
  0
LTYPE
  5
F
100
AcDbSymbolTableRecord
100
AcDbLinetypeTableRecord
  2
BYLAYER
 70
     0
  3

 72
    65
 73
     0
 40
0.0
  0
LTYPE
  5
5
100
AcDbSymbolTableRecord
100
AcDbLinetypeTableRecord
  2
CONTINUOUS
 70
     0
  3
Solid line
 72
    65
 73
     0
 40
0.0
  0
LTYPE
  5
22
100
AcDbSymbolTableRecord
100
AcDbLinetypeTableRecord
  2
DASHDOT
 70
     0
  3
__ . __ . __ . __ . __ . __ . __ . __ . __ . __
 72
    65
 73
     4
 40
1.0
 49
0.5
 74
     0
 49
-0.25
 74
     0
 49
0.0
 74
     0
 49
-0.25
 74
     0
  0
ENDTAB
  0
TABLE
  2
LAYER
  5
A
100
AcDbSymbolTable
 70
     6
  0
LAYER
  5
4
100
AcDbSymbolTableRecord
100
AcDbLayerTableRecord
  2
0
 70
     0
 62
     7
  6
CONTINUOUS
  0
LAYER
  5
82
100
AcDbSymbolTableRecord
100
AcDbLayerTableRecord
  2
STALPROFIL
 70
     0
 62
     1
  6
CONTINUOUS
  0
LAYER
  5
80
100
AcDbSymbolTableRecord
100
AcDbLayerTableRecord
  2
SPKONTUR
 70
     0
 62
     7
  6
CONTINUOUS
  0
LAYER
  5
33
100
AcDbSymbolTableRecord
100
AcDbLayerTableRecord
  2
GLAS_MED_FOGNING
 70
     0
 62
     2
  6
CONTINUOUS
  0
LAYER
  5
8A
100
AcDbSymbolTableRecord
100
AcDbLayerTableRecord
  2
TEXT
 70
     0
 62
     6
  6
CONTINUOUS
  0
LAYER
  5
20
100
AcDbSymbolTableRecord
100
AcDbLayerTableRecord
  2
RAM
 70
     0
 62
     5
  6
CONTINUOUS
  0
ENDTAB
  0
TABLE
  2
STYLE
  5
B
100
AcDbSymbolTable
 70
     2
  0
STYLE
  5
C
100
AcDbSymbolTableRecord
100
AcDbTextStyleTableRecord
  2
STANDARD
 70
     0
 40
0.0
 41
1.0
 50
0.0
 71
     0
 42
5.0
  3
txt
  4

  0
STYLE
  5
8B
100
AcDbSymbolTableRecord
100
AcDbTextStyleTableRecord
  2
ROMANS
 70
     0
 40
0.0
 41
0.8
 50
0.0
 71
     0
 42
5.0
  3
romans
  4

  0
ENDTAB
  0
TABLE
  2
VIEW
  5
10
100
AcDbSymbolTable
 70
     0
  0
ENDTAB
  0
TABLE
  2
UCS
  5
11
100
AcDbSymbolTable
 70
     0
  0
ENDTAB
  0
TABLE
  2
APPID
  5
14
100
AcDbSymbolTable
 70
     3
  0
APPID
  5
15
100
AcDbSymbolTableRecord
100
AcDbRegAppTableRecord
  2
ACAD
 70
     0
  0
APPID
  5
15E
100
AcDbSymbolTableRecord
100
AcDbRegAppTableRecord
  2
CONTENTBLOCKDESCRIPTION
 70
     0
  0
APPID
  5
15F
100
AcDbSymbolTableRecord
100
AcDbRegAppTableRecord
  2
CONTENTBLOCKICON
 70
     0
  0
ENDTAB
  0
TABLE
  2
DIMSTYLE
  5
16
100
AcDbSymbolTable
 70
     1
  0
DIMSTYLE
105
1C
100
AcDbSymbolTableRecord
100
AcDbDimStyleTableRecord
  2
STANDARD
 70
     0
  3

  4

  5

  6

  7

 40
1.0
 41
0.18
 42
0.0625
 43
0.38
 44
0.18
 45
0.0
 46
0.0
 47
0.0
 48
0.0
140
0.18
141
0.09
142
0.0
143
25.4
144
1.0
145
0.0
146
1.0
147
0.09
 71
     0
 72
     0
 73
     1
 74
     1
 75
     0
 76
     0
 77
     0
 78
     0
170
     0
171
     2
172
     0
173
     0
174
     0
175
     0
176
     0
177
     0
178
     0
270
     2
271
     4
272
     4
273
     2
274
     2
340
C
275
     0
280
     0
281
     0
282
     0
283
     1
284
     0
285
     0
286
     0
287
     3
288
     0
  0
ENDTAB
  0
TABLE
  2
BLOCK_RECORD
  5
1
100
AcDbSymbolTable
 70
    22
  0
BLOCK_RECORD
  5
2
102
{ACAD_XDICTIONARY
360
1E8
102
}
100
AcDbSymbolTableRecord
100
AcDbBlockTableRecord
  2
*MODEL_SPACE
  0
BLOCK_RECORD
  5
7
102
{ACAD_XDICTIONARY
360
1EA
102
}
100
AcDbSymbolTableRecord
100
AcDbBlockTableRecord
  2
*PAPER_SPACE
  0
BLOCK_RECORD
  5
1E
100
AcDbSymbolTableRecord
100
AcDbBlockTableRecord
  2
SIDA
  0
BLOCK_RECORD
  5
99
100
AcDbSymbolTableRecord
100
AcDbBlockTableRecord
  2
*X1
  0
BLOCK_RECORD
  5
96
100
AcDbSymbolTableRecord
100
AcDbBlockTableRecord
  2
SP40010
  0
BLOCK_RECORD
  5
34
100
AcDbSymbolTableRecord
100
AcDbBlockTableRecord
  2
*X3
  0
BLOCK_RECORD
  5
BB
100
AcDbSymbolTableRecord
100
AcDbBlockTableRecord
  2
*X4
  0
BLOCK_RECORD
  5
11B
100
AcDbSymbolTableRecord
100
AcDbBlockTableRecord
  2
SP976510
1001
CONTENTBLOCKICON
1071
        0
1004
2800000020000000200000000100040000000000000200000000000000000000000000000000000000000000000080000080000000808000800000008000800080800000C0C0C000808080000000FF0000FF000000FFFF00FF000000FF00FF00FFFF0000FFFFFF00FFFFFFFFFFFFFFFFFFFFFFFFFFFFFFFFFFFFFFFFFFFFFF
1004
FFFFFFFFFFFFFFFFFFFFFFFFFFFFFFFFFFFFFFFFFFFFFFFFFFFFFFFFFFFFFFFFFFFFFFFFFFFFFFFFFF0F00000000BBBBBBBBBBBB000000000F0999999999FBFBFFFFBBFB999999999F0FFFFFFFF90BFFFFBFFFF9FFFFFFFF900FFFFFFFF90FBFBFFFFBB9FFFFFFFF900FFFFFFFF90BFFFBFBFFF9FFFFFFFF900FFFFFFFF90F
1004
FBBFFFFBF9FFFFFFFF900FFFFFFFF90BBFFBFBFFF9FFFFFFFF900FFFFFFFF90FFBFBFFFFB9FFFFFFFF900FFFFFFFF90FBFFFBFBFF9FFFFFFFF900FFFFFFFF90FFFBFBFFFF9FFFFFFFF900FFFFFFFF90FBFFFFBFBF9FFFFFFFF900FFFFFFFF90FFFFBBFFFF9FFFFFFFF900FFFFFFFF90BFBFFFFBBF9FFFFFFFF900FFFFFFFF9
1004
0FFFFFBBFFB9FFFFFFFF900FFFFFFFF90FBFBFFFBFB9FFFFFFFF900FFFFFFFF90BFFFFBFBFF9FFFFFFFF900FFFFFFFF90FBFBFFFFBB9FFFFFFFF900FFFFFFFF90FBFFFFBFFF9FFFFFFF90F0FFFFFFFF90FFBFBFFFFB9FFFFF990FF0FFFFFFFF90BFBFFFFBFF9FFFFF90BFF0FFFFFFFF90FFFBFBFFFB9F99BB9BBFF0FFFFFFF
1004
F90FBBFFBFBFF9F90BBBBBFF0FFFFFFFF90FFFFBBFFFF9FF0BBBBBFF0FFFFFFFF00FFBFFFBFBFB0FF999BFFFF00000000FBBBBBBBBBBBB99999FFFFFFFFFFFFFFFFFFFFFFFFFFFFFFFFFFFFFFFFFFFFFFFFFFFFFFFFFFFFFFFFFFFFFFFFFFFFFFFFFFFFFFFFFFFFFFFFFFFFF
  0
BLOCK_RECORD
  5
127
100
AcDbSymbolTableRecord
100
AcDbBlockTableRecord
  2
SP976511
1001
CONTENTBLOCKICON
1071
        0
1004
2800000020000000200000000100040000000000000200000000000000000000000000000000000000000000000080000080000000808000800000008000800080800000C0C0C000808080000000FF0000FF000000FFFF00FF000000FF00FF00FFFF0000FFFFFF00F0F0000000BBBBBBBBBBBBF0000000FFF999999999FFBB
1004
FFFFBBFB99999999FFF9FFFFFFF90FFFBFBFFFB9FFFFFFF90FF9FFFFFFF90FBFBFFFBFF9FFFFFFF90FF9FFFFFFF9BFFFFBFBFFF9FFFFFFF90FF9FFFFFFF90BFBFFFBFBF9FFFFFFF90FF9FFFFFFF90BFFFBFBFFB9FFFFFFF90FF9FFFFFFF90FBFBFFFBBF9FFFFFFF90FF9FFFFFFF9BBFFBFBFFFB9FFFFFFF90FF9FFFFFFF90F
1004
BFBFFFFBB9FFFFFFF90FF9FFFFFFF90BFFFBFBFFF9FFFFFFF90FF9FFFFFFF90FFBBFFBFBF9FFFFFFF90FF9FFFFFFF90BFFFFBBFFF9FFFFFFF90FF9FFFFFFF90FBFBFFFBFB9FFFFFFF90FF9FFFFFFF9BBFFFFBBFFF9FFFFFFF90FF9FFFFFFF90FFBBFFFFBB9FFFFFFF90FF9FFFFFFF90BBFFBFBFFF9FFFFFF90FFF9FFFFFFF9
1004
0FFBFBFFFBF9FFFF90FFFFF9FFFFFFF90BFFFFBFBFF9FF0F9BBFFFF9FFFFFFF90FFFBFFFBFB9F9BBBBBFFFF9FFFFFFF9BFBFFFBFBFF9F0BBBBBFFFF9FFFFFFF90FFBFBFFFBFBF9999BFFFFF999999999BBBBBBBBBBBB999990FFFFF990FFFFFFFFFFFFFFFFFFFFFFFFFFFFF990FFFFFFFFFFFFFFFFFFFFFFFFFFFFF990FFFF
1004
FFFFFFFFFFFFFFFFFFFFFFFFF990FFFFFFFFFFFFFFFFFFFFFFFFFFFFF990FFFFFFFFFFFFFFFFFFFFFFFFFFFFF990FFFFFFFFFFFFFFFFFFFFFFFFFFFFF990FFFFFFFFFFFFFFFFFFFFFFFFFFFFF990FFFFFFFFFFFFFFFFFFFFFFFFFFFFF990FFFFFFFFFFFFFFFFFFFFFFFFFFFF
  0
BLOCK_RECORD
  5
AD
100
AcDbSymbolTableRecord
100
AcDbBlockTableRecord
  2
SP976512
1001
CONTENTBLOCKICON
1071
        0
1004
2800000020000000200000000100040000000000000200000000000000000000000000000000000000000000000080000080000000808000800000008000800080800000C0C0C000808080000000FF0000FF000000FFFF00FF000000FF00FF00FFFF0000FFFFFF00FFFF00FFFFFFFFFFFFFFFFFFFFFFFFFFFFFF90FFFFFFFF
1004
FFFFFFFFFFFFFFFFFFFFFF90FFFFFFFFFFFFFFFFFFFFFFFFFFFFFF90FFFFFFFFFFFFFFFFFFFFFFFFFFFFFF90FFFFFFFFFFFFFFFFFFFFFFFFFFFFFF90FFFFFFFFFFFFFFFFFFFFFFFFFFFFFF90FFFFFFFFFFFFFFFFFFFFFFFFFFFFFF9000000BBBBBBBBB0000000FFFFFFFFF99999990BFFFBBFB999999FFFFFFFFFF9FFFFF90
1004
FBBFFFB9FFFFFF0FFFFFFFFF9FFFFF9BFFFBBFB9FFFFFF0FFFFFFFFF9FFFFF90BBFFFBF9FFFFFF0FFFFFFFFF9FFFFF90FFBBFBF9FFFFFF0FFFFFFFFF9FFFFF9BBFBFBFF9FFFFFF0FFFFFFFFF9FFFFF9BFBFFBFB9FFFFFF0FFFFFFFFF9FFFFF90FBFBFFB9FFFFFF0FFFFFFFFF9FFFFF90BFFBFBF9FFFFFF0FFFFFFFFF9FFFFF
1004
90FBBFFBF9FFFFFF0FFFFFFFFF9FFFFF9BFFBFBFF9FFFFFF0FFFFFFFFF9FFFFF90BBFFBFB9FFFFFF0FFFFFFFFF9FFFFF90FFBBFFB9FFFF90FFFFFFFFFF9FFFFF90BFFBFBF9F9B0BBFFFFFFFFFF9FFFFF90FBBFBBF9F0BBBBFFFFFFFFFF9FFFFF9BFFFBFFBBF9BBBBFFFFFFFFFF9999999BBBBBBBBB99990FFFFFFFFFFF90FF
1004
FFFFFFFFFFFFFFFFFFFFFFFFFFFF90FFFFFFFFFFFFFFFFFFFFFFFFFFFFFF90FFFFFFFFFFFFFFFFFFFFFFFFFFFFFF90FFFFFFFFFFFFFFFFFFFFFFFFFFFFFF90FFFFFFFFFFFFFFFFFFFFFFFFFFFFFF90FFFFFFFFFFFFFFFFFFFFFFFFFFFFFF90FFFFFFFFFFFFFFFFFFFFFFFFFF
  0
BLOCK_RECORD
  5
8D
100
AcDbSymbolTableRecord
100
AcDbBlockTableRecord
  2
SP976513
1001
CONTENTBLOCKICON
1071
        0
1004
2800000020000000200000000100040000000000000200000000000000000000000000000000000000000000000080000080000000808000800000008000800080800000C0C0C000808080000000FF0000FF000000FFFF00FF000000FF00FF00FFFF0000FFFFFF00FFFFFFFFFFFFFFFFFFFFFFFFF00FFFFFFFFFFFFFFFFFFF
1004
FFFFFFFFFFF0FFFFFFFFFFFFFFFFFFFFFFFFFFFFFFF00FFFFFFFFFFFFFFFFFFFFFFFFFFFFFF00FFFFFFFFFFFFFFFFFFFFFFFFFFFFFF00FFFFFFFFFFFFFFFFFFFFFFFFFFFFFF00FFFFFFFFFFFFFFFFFFFFFFFFFFFFFF00FFFFFFFFF0F00000BBBBBBBBB0000000FFFFFFFFF0999999FBFFFBBFB99999F0FFFFFFFFF0FFFFF90
1004
FBBFFFB0FFFFFF0FFFFFFFFF0FFFFF90FFFBBFB0FFFFFF0FFFFFFFFF0FFFFF90BBFFFBF0FFFFFF0FFFFFFFFF0FFFFF90FFBBFBF0FFFFFF0FFFFFFFFF0FFFFF90BFBFBFF0FFFFFF0FFFFFFFFF0FFFFF90FBFFBFB0FFFFFF0FFFFFFFFF0FFFFF90FBFBFFB0FFFFFF0FFFFFFFFF0FFFFF90BFFBFBF0FFFFFF0FFFFFFFFF0FFFFF
1004
90FBBFFBF0FFFFFF0FFFFFFFFF0FFFFF90FFBFBFF0FFFFFF0FFFFFFFFF0FFFFF90BBFFBFB0FFFFFF0FFFFFFFFF0FFFFF90FFBBFFB0FFFF00FFFFFFFFFF0FFFFF90BFFBFBF0F9B0BBFFFFFFFFFF0FFFFF90FBBFBBF0F0BBBBFFFFFFFFFF0FFFFF90FFFBFFBBF9BBBBFFFFFFFFFF0000009BBBBBBBBB00000FFFFFFFFFFF00FF
1004
FFFFFFFFFFFFFFFFFFFFFFFFFFFF00FFFFFFFFFFFFFFFFFFFFFFFFFFFFFF00FFFFFFFFFFFFFFFFFFFFFFFFFFFFFF00FFFFFFFFFFFFFFFFFFFFFFFFFFFFFF00FFFFFFFFFFFFFFFFFFFFFFFFFFFFFF90FFFFFFFFFFFFFFFFFFFFFFFFFFFFFF00FFFFFFFFFFFFFFFFFFFFFFFFFF
  0
BLOCK_RECORD
  5
10F
100
AcDbSymbolTableRecord
100
AcDbBlockTableRecord
  2
SP976514
1001
CONTENTBLOCKICON
1071
        0
1004
2800000020000000200000000100040000000000000200000000000000000000000000000000000000000000000080000080000000808000800000008000800080800000C0C0C000808080000000FF0000FF000000FFFF00FF000000FF00FF00FFFF0000FFFFFF00F000FFFFFFFFFFFFFFFFFFFFFFFFFFFFF090FFFFFFFFFF
1004
FFFFFFFFFFFFFFFFFFF090FFFFFFFFFFFFFFFFFFFFFFFFFFFFF090FFFFFFFFFFFFFFFFFFFFFFFFFFFFF090FFFFFFFFFFFFFFFFFFFFFFFFFFFFF090FFFFFFFFFFFFFFFFFFFFFFFFFFFFF090FFFFFFFFFFFFFFFFFFFFFFFFFFFFF090FFFFFFFFFFFFFFFFFFFFFFFFFFFFF090FFFFFFFFFFFFFFFFFFFFFFFFFFFFF090000000BB
1004
BBBBBBBBBBF0000000FFF0F99999990FBBFFBFBFFB99999999FFF0FFFFFFF90FFFBBFFFFB0FFFFFFF90FF0FFFFFFF90FBFFFFBBFF0FFFFFFF90FF0FFFFFFF90FFFFBBFFBF0FFFFFFF90FF0FFFFFFF90BFBFFFBBFF0FFFFFFF90FF0FFFFFFF90BFFBBFFFFB0FFFFFFF90FF0FFFFFFF90FBBFFFFBFF0FFFFFFF90FF0FFFFFFF9
1004
0FFFBFBFFFB0FFFFFFF90FF0FFFFFFF90FBFFFFBFBF0FFFFFFF90FF0FFFFFFF90BFFFBBFFFF0FFFFFFF90FF0FFFFFFF90BFBFFFBFBF0FFFFFFF90FF0FFFFFFF90BFFFFBFFFB0FFFFFFF90FF0FFFFFFF90FBFBFFFBBF0FFFFFFF90FF0FFFFFFF90FFFBFBFFFF0FFFFFFF90FF0FFFFFFF90FFBBFFFFBF0FFFFFFF90FF0FFFFFF
1004
F90BFFFBFBFFF0FFFFF000FFF0FFFFFFF90FFBFFFFBBF0FFFF90BFFFF0FFFFFFF90BFFFFBBFFB0F9BB9BBFFFF0FFFFFFF90FBFBFFFBBF0F0BBBBBFFFF0FFFFFFF90FBFFBBFFFF0F9BBBBBFFFF0FFFFFFF90FFBBFFFFBBBF9999BFFFFF000000000BBBBBBBBBBBB000090FFFF
  0
BLOCK_RECORD
  5
134
100
AcDbSymbolTableRecord
100
AcDbBlockTableRecord
  2
SP976515
1001
CONTENTBLOCKICON
1071
        0
1004
2800000020000000200000000100040000000000000200000000000000000000000000000000000000000000000080000080000000808000800000008000800080800000C0C0C000808080000000FF0000FF000000FFFF00FF000000FF00FF00FFFF0000FFFFFF00FFFFFFFFFFFFFFFFFFFFFFFFFFFF00FFFFFFFFFFFFFFFF
1004
FFFFFFFFFFFFFF99FFFFFFFFFFFFFFFFFFFFFFFFFFFFFF990FFFFFFFFFFFFFFFFFFFFFFFFFFFFF990FFFFFFFFFFFFFFFFFFFFFFFFFFFFF990FFFFFFFFFFFFFFFFFFFFFFFFFFFFF990FFFFFFFFFFFFFFFFFFFFFFFFFFFFF990FFFFFFFFFFFFFFFFFFFFFFFFFFFFF990FFFFFFFFFFFFFFFFFFFFFFFFFFFFF990FF0F0000000BB
1004
BBBBBBBBBBF00000990FF099999999FFBBFFBFBFFB999999F90FF0FFFFFFF90FFFBBFFFFB9FFFFFFF90FF0FFFFFFF90FBFFFFBBFF9FFFFFFF90FF0FFFFFFF90FFFFBBFFBF9FFFFFFF90FF0FFFFFFF90BFBFFFBBFF9FFFFFFF90FF0FFFFFFF90BFFBBFFFFB9FFFFFFF90FF0FFFFFFF90FBBFFFFBFF9FFFFFFF90FF0FFFFFFF9
1004
0FFFBFBFFFB9FFFFFFF90FF0FFFFFFF90FBFFFFBFBF9FFFFFFF90FF0FFFFFFF90BFFFBBFFFF9FFFFFFF90FF0FFFFFFF90BFBFFFBFBF9FFFFFFF90FF0FFFFFFF90BFFFFBFFFB9FFFFFFF90FF0FFFFFFF90FBFBFFFBBF9FFFFFFF90FF0FFFFFFF90FFFBFBFFFF9FFFFFFF90FF0FFFFFFF90FFBBFFFFBF9FFFFFFF90FF0FFFFFF
1004
F90BFFFBFBFFF9FFFFF990FFF0FFFFFFF90FFBFFFFBBF9FFFF90BFFFF0FFFFFFF90BFFFFBBFFB9F9BB9BBFFFF0FFFFFFF90FBFBFFFBBF9F0BBBBBFFFF0FFFFFFF90FBFFBBFFFF9F9BBBBBFFFF9FFFFFFF90FFBBFFFFBBBF9999BFFFFF000000009BBBBBBBBBBBB999990FFFF
  0
BLOCK_RECORD
  5
E8
100
AcDbSymbolTableRecord
100
AcDbBlockTableRecord
  2
SP976520
1001
CONTENTBLOCKICON
1071
        0
1004
2800000020000000200000000100040000000000000200000000000000000000000000000000000000000000000080000080000000808000800000008000800080800000C0C0C000808080000000FF0000FF000000FFFF00FF000000FF00FF00FFFF0000FFFFFF00FFFFFFFFFFFFFFFFFFFFFFFFFFFFFFFFFFFFFFFFFFFFFF
1004
FFFFFFFFFFFFFFFFFFFFFFFFFFFFFFFFFFFFFFFFFFFFFFFFFFFFFFFFFFFFFFFFFFFFFFFFFFFFFFFFFF0F00000000BBBBBBBBBBBB00000000009999999999FBFBFFFFBBFB999999999F9FFFFFFFF90BFFFFBFFFF9FFFFFFFF909FFFFFFFF90FBFBFFFFBB9FFFFFFFF909FFFFFFFF90FBFFBFBFFF9FFFFFFFF909FFFFFFFF90F
1004
FBBFFFFBF9FFFFFFFF909FFFFFFFF90BBFFFBBFFF9FFFFFFFF909FFFFFFFF90FFFBBFFFFB9FFFFFFFF909FFFFFFFF90FBFFFBFBFF9FFFFFFFF909FFFFFFFF90FFFBFBFFFF9FFFFFFFF909FFFFFFFF90FBFFFFBFBF9FFFFFFFF909FFFFFFFF90FFFFBBFFFF9FFFFFFFF909FFFFFFFF90FFBFFFFBFB9FFFFFFFF909FFFFFFFF9
1004
0BFFFFBBFFF9FFFFFFFF909FFFFFFFF90FBFBFFFBFB9FFFFFFFF909FFFFFFFF90BFFFFBFBFF9FFFFFFFF909FFFFFFFF90FBFBFFFFBF9FFFFFFFF909FFFFFFFF90BBFFFFBBFF9FFFFFFFF909FFFFFFFF90FFBFBFFFFB9FFFFFFFF909FFFFFFFF90BFBFFFFBBF9FFFFFFFF909FFFFFFFF90FFFBFBFFFF9FFFFFFFF909FFFFFFF
1004
F90FBBFFFFFBF9FFFFFFFF909FFFFFFFF90FFFFBFBFFF9FFFFFFFF909FFFFFFFF90FFBBFFFFBFBFFFFFFFF909999999990BBBBBBBBBBBB9999999990FFFFFFFFFFFFFFFFFFFFFFFFFFFFFFFFFFFFFFFFFFFFFFFFFFFFFFFFFFFFFFFFFFFFFFFFFFFFFFFFFFFFFFFFFFFFFFFF
  0
BLOCK_RECORD
  5
B9
100
AcDbSymbolTableRecord
100
AcDbBlockTableRecord
  2
SP976520-20
1001
CONTENTBLOCKICON
1071
        0
1004
2800000020000000200000000100040000000000000200000000000000000000000000000000000000000000000080000080000000808000800000008000800080800000C0C0C000808080000000FF0000FF000000FFFF00FF000000FF00FF00FFFF0000FFFFFF00FFFFFFFFFFFFFFFFFFFFFFFFFFFFFFFFFFFFFFFFFFFFFF
1004
FFFFFFFFFFFFFFFFFFFFFFFFFFFFFFFFFFFFFFFFFFFFFFFFFFFFFFFFFFFFFFFFFFFFFFFFFFFFFFFFFFFFFFFFFFFFFFFFFFFFFFFFFFFFFFFFFFFFFFFFFFFFFFFFFFFFFFFFFFFFFFFFFFFFFFFFFFFFFFFFFFFFFFFFFFFFFFFFFFFFFFFFFFFFFFFFFFFFFFFFFFFFFFFFFFFFFFFFFFFFFFFFFFFFFFFFFFFFFFFFFFFFFFFFFFFFFF
1004
FFFFFFFFFFFFFFFFFFFFFFFFFFFFFFFFFFFFFFFFFFFFFFFFFFFF0F00000000BBBBBBBBBBBB00000000000999999999FFBFFFBFBFFB999999999F0FFFFFFFF90FFFBFBFFFF0FFFFFFFF900FFFFFFFF90FBFFFFBFBF0FFFFFFFF900FFFFFFFF90FFFFBBFFFF0FFFFFFFF900FFFFFFFF90BFBFFFFBFB0FFFFFFFF900FFFFFFFF9
1004
0FFFFFBBFFB0FFFFFFFF900FFFFFFFF90FBFBFFFBFB0FFFFFFFF900FFFFFFFF90BFFFFBFBFF0FFFFFFFF900FFFFFFFF00FBFBFFFFBBB0FFFFFFF90F00000000FBBBBBBBBBBBB00000000FFFFFFFFFFFFFFFFFFFFFFFFFFFFFFFFFFFFFFFFFFFFFFFFFFFFFFFFFFFFFFFFFFFFFFFFFFFFFFFFFFFFFFFFFFFFFFFFFFFFFFFFFF
1004
FFFFFFFFFFFFFFFFFFFFFFFFFFFFFFFFFFFFFFFFFFFFFFFFFFFFFFFFFFFFFFFFFFFFFFFFFFFFFFFFFFFFFFFFFFFFFFFFFFFFFFFFFFFFFFFFFFFFFFFFFFFFFFFFFFFFFFFFFFFFFFFFFFFFFFFFFFFFFFFFFFFFFFFFFFFFFFFFFFFFFFFFFFFFFFFFFFFFFFFFFFFFFFFFFFFFFFFF
  0
BLOCK_RECORD
  5
31
100
AcDbSymbolTableRecord
100
AcDbBlockTableRecord
  2
SP976521
1001
CONTENTBLOCKICON
1071
        0
1004
2800000020000000200000000100040000000000000200000000000000000000000000000000000000000000000080000080000000808000800000008000800080800000C0C0C000808080000000FF0000FF000000FFFF00FF000000FF00FF00FFFF0000FFFFFF00F0F0000000BBBBBBBBBBBBF0000000FFF099999999FFBB
1004
FFFFBBFB99999999FFF0FFFFFFF90FFFBFBFFFB9FFFFFFF90FF0FFFFFFF90FBFBFFFBFF9FFFFFFF90FF0FFFFFFF90FFFFBFBFFF9FFFFFFF90FF0FFFFFFF90BFBFFFBFBF9FFFFFFF90FF0FFFFFFF90BFFFBFBFFB9FFFFFFF90FF0FFFFFFF90FBFBFFFBBF9FFFFFFF90FF0FFFFFFF90BFFBFBFFFB9FFFFFFF90FF0FFFFFFF90F
1004
BFBFFFFBB9FFFFFFF90FF0FFFFFFF90BFFFBFBFFF9FFFFFFF90FF0FFFFFFF90FFBBFFBFBF9FFFFFFF90FF0FFFFFFF90BFFFFBBFFF9FFFFFFF90FF0FFFFFFF90FBFBFFFBFB9FFFFFFF90FF0FFFFFFF90BFFFFBBFFF9FFFFFFF90FF0FFFFFFF90FFBBFFFFBB9FFFFFFF90FF0FFFFFFF90BBFFBFBFFF9FFFFFFF90FF0FFFFFFF9
1004
0FFBFBFFFBF9FFFFFFF90FF0FFFFFFF90BFFFFBFBFF9FFFFFFF90FF0FFFFFFF90FFFBFFFBFB9FFFFFFF90FF0FFFFFFF90FBFFFBFBFF9FFFFFFF90FF0FFFFFFF90FFBFBFFFBFBFFFFFFF90FF090000009BBBBBBBBBBBB99999990FFF090FFFFFFFFFFFFFFFFFFFFFFFFFFFFF090FFFFFFFFFFFFFFFFFFFFFFFFFFFFF090FFFF
1004
FFFFFFFFFFFFFFFFFFFFFFFFF090FFFFFFFFFFFFFFFFFFFFFFFFFFFFF090FFFFFFFFFFFFFFFFFFFFFFFFFFFFF090FFFFFFFFFFFFFFFFFFFFFFFFFFFFF090FFFFFFFFFFFFFFFFFFFFFFFFFFFFF990FFFFFFFFFFFFFFFFFFFFFFFFFFFFF000FFFFFFFFFFFFFFFFFFFFFFFFFFFF
  0
BLOCK_RECORD
  5
142
100
AcDbSymbolTableRecord
100
AcDbBlockTableRecord
  2
SP976522
1001
CONTENTBLOCKICON
1071
        0
1004
2800000020000000200000000100040000000000000200000000000000000000000000000000000000000000000080000080000000808000800000008000800080800000C0C0C000808080000000FF0000FF000000FFFF00FF000000FF00FF00FFFF0000FFFFFF00FFFF00FFFFFFFFFFFFFFFFFFFFFFFFFFFFFF00FFFFFFFF
1004
FFFFFFFFFFFFFFFFFFFFFF00FFFFFFFFFFFFFFFFFFFFFFFFFFFFFF00FFFFFFFFFFFFFFFFFFFFFFFFFFFFFF00FFFFFFFFFFFFFFFFFFFFFFFFFFFFFF00FFFFFFFFFFFFFFFFFFFFFFFFFFFFFF00FFFFFFFFFFFFFFFFFFFFFFFFFFFFFF0000000BBBBBBBBB0000000FFFFFFFFF09999990BFFFBBFB999999FFFFFFFFFF0FFFFF90
1004
FBBFFFB0FFFFFF0FFFFFFFFF0FFFFF90FFFBBFB0FFFFFF0FFFFFFFFF0FFFFF90BBFFFBF0FFFFFF0FFFFFFFFF0FFFFF90FFBBFBF0FFFFFF0FFFFFFFFF0FFFFF90BFBFBFF0FFFFFF0FFFFFFFFF0FFFFF90FBFFBFB0FFFFFF0FFFFFFFFF0FFFFF90FBFBFFB0FFFFFF0FFFFFFFFF0FFFFF90BFFBFBF0FFFFFF0FFFFFFFFF0FFFFF
1004
90FBBFFBF0FFFFFF0FFFFFFFFF0FFFFF90FFBFBFF0FFFFFF0FFFFFFFFF0FFFFF90BBFFBFB0FFFFFF0FFFFFFFFF0FFFFF90FFBBFFB0FFFFFF0FFFFFFFFF0FFFFF90BFFBFBF0FFFFFF0FFFFFFFFF0FFFFF90FBBFBBF0FFFFFF0FFFFFFFFF0FFFFF90FFFBFFBBFFFFFF0FFFFFFFFF0000000BBBBBBBBB0000000FFFFFFFFF00FF
1004
FFFFFFFFFFFFFFFFFFFFFFFFFFFF00FFFFFFFFFFFFFFFFFFFFFFFFFFFFFF00FFFFFFFFFFFFFFFFFFFFFFFFFFFFFF00FFFFFFFFFFFFFFFFFFFFFFFFFFFFFF00FFFFFFFFFFFFFFFFFFFFFFFFFFFFFF00FFFFFFFFFFFFFFFFFFFFFFFFFFFFFF00FFFFFFFFFFFFFFFFFFFFFFFFFF
  0
BLOCK_RECORD
  5
14D
100
AcDbSymbolTableRecord
100
AcDbBlockTableRecord
  2
SP976523
1001
CONTENTBLOCKICON
1071
        0
1004
2800000020000000200000000100040000000000000200000000000000000000000000000000000000000000000080000080000000808000800000008000800080800000C0C0C000808080000000FF0000FF000000FFFF00FF000000FF00FF00FFFF0000FFFFFF00FFFFFFFFFFFFFFFFFFFFFFFFF00FFFFFFFFFFFFFFFFFFF
1004
FFFFFFFFFFF0FFFFFFFFFFFFFFFFFFFFFFFFFFFFFFF00FFFFFFFFFFFFFFFFFFFFFFFFFFFFFF00FFFFFFFFFFFFFFFFFFFFFFFFFFFFFF00FFFFFFFFFFFFFFFFFFFFFFFFFFFFFF00FFFFFFFFFFFFFFFFFFFFFFFFFFFFFF00FFFFFFFFF0F00000BBBBBBBBB0000000FFFFFFFFF9999999FBFFFBBFB99999F0FFFFFFFFF9FFFFF90
1004
FBBFFFBBFFFFFF0FFFFFFFFF9FFFFF9BFFFBBFBBFFFFFF0FFFFFFFFF9FFFFF90BBFFFBF0FFFFFF0FFFFFFFFF9FFFFF90FFBBFBFBFFFFFF0FFFFFFFFF9FFFFF9BBFBFBFFBFFFFFF0FFFFFFFFF9FFFFF9BFBFFBFB0FFFFFF0FFFFFFFFF9FFFFF90FBFBFFBBFFFFFF0FFFFFFFFF9FFFFF90BFFBFBF0FFFFFF0FFFFFFFFF9FFFFF
1004
90FBBFFBFBFFFFFF0FFFFFFFFF9FFFFF9BFFBFBFFBFFFFFF0FFFFFFFFF9FFFFF90BBFFBFB0FFFFFF0FFFFFFFFF9FFFFF90FFBBFFBBFFFFFF0FFFFFFFFF9FFFFF90BFFBFBFBFFFFFF0FFFFFFFFF9FFFFF90FBBFBBF0FFFFFF0FFFFFFFFF9FFFFF9BFFFBFFBBFFFFFF0FFFFFFFFF9999999BBBBBBBBB0000000FFFFFFFFF90FF
1004
FFFFFFFFFFFFFFFFFFFFFFFFFFFF90FFFFFFFFFFFFFFFFFFFFFFFFFFFFFF90FFFFFFFFFFFFFFFFFFFFFFFFFFFFFF90FFFFFFFFFFFFFFFFFFFFFFFFFFFFFF90FFFFFFFFFFFFFFFFFFFFFFFFFFFFFF90FFFFFFFFFFFFFFFFFFFFFFFFFFFFFF90FFFFFFFFFFFFFFFFFFFFFFFFFF
  0
BLOCK_RECORD
  5
101
100
AcDbSymbolTableRecord
100
AcDbBlockTableRecord
  2
SP976524
1001
CONTENTBLOCKICON
1071
        0
1004
2800000020000000200000000100040000000000000200000000000000000000000000000000000000000000000080000080000000808000800000008000800080800000C0C0C000808080000000FF0000FF000000FFFF00FF000000FF00FF00FFFF0000FFFFFF00F0F0000000BBBBBBBBBBBB00000000FFF099999999FFBB
1004
FFFFBBFB999999990FF0FFFFFFF90FFFBFBFFFB9FFFFFFF90FF0FFFFFFF90FBFBFFFBFF9FFFFFFF90FF0FFFFFFF90FFFFBFBFFFBFFFFFFF90FF0FFFFFFF90BFBFFFBFBF9FFFFFFF90FF0FFFFFFF90BFFFBFBFFB9FFFFFFF90FF0FFFFFFF90FBFBFFFBBF9FFFFFFF90FF0FFFFFFF90BFFBFBFFFB9FFFFFFF90FF0FFFFFFF90F
1004
BFBFFFFBB9FFFFFFF90FF0FFFFFFF90BFFFBFBFFFBFFFFFFF90FF0FFFFFFF90FFBBFFBFBF9FFFFFFF90FF0FFFFFFF90BFFFFBBFFF9FFFFFFF90FF0FFFFFFF90FBFBFFFBFB9FFFFFFF90FF0FFFFFFF90BFFFFBBFFFBFFFFFFF90FF0FFFFFFF90FFBBFFFFBB9FFFFFFF90FF0FFFFFFF90BBFFBFBFFF9FFFFFFF90FF0FFFFFFF9
1004
0FFBFBFFFBFBFFFFFFF90FF0FFFFFFF90BFFFFBFBFF9FFFFFFF90FF0FFFFFFF90FFFBFFFBFB9FFFFFFF90FF0FFFFFFF90FBFFFBFBFF9FFFFFFF90FF0FFFFFFF90FFBFBFFFBFBFFFFFFF90FF090000009BBBBBBBBBBBB999999990FF090FFFFFFFFFFFFFFFFFFFFFFFF990FF090FFFFFFFFFFFFFFFFFFFFFFFF990FF090FFFF
1004
FFFFFFFFFFFFFFFFFFFF990FF090FFFFFFFFFFFFFFFFFFFFFFFF990FF090FFFFFFFFFFFFFFFFFFFFFFFF990FF090FFFFFFFFFFFFFFFFFFFFFFFF990FF090FFFFFFFFFFFFFFFFFFFFFFFF990FF990FFFFFFFFFFFFFFFFFFFFFFFF990FF000FFFFFFFFFFFFFFFFFFFFFFFF90FF
  0
BLOCK_RECORD
  5
F4
100
AcDbSymbolTableRecord
100
AcDbBlockTableRecord
  2
SP976525
1001
CONTENTBLOCKICON
1071
        0
1004
2800000020000000200000000100040000000000000200000000000000000000000000000000000000000000000080000080000000808000800000008000800080800000C0C0C000808080000000FF0000FF000000FFFF00FF000000FF00FF00FFFF0000FFFFFF00FFFF00FFFFFFFFFFFFFFFFFFFFFFFFFFFFFF90FFFFFFFF
1004
FFFFFFFFFFFFFFFFFFFFFF90FFFFFFFFFFFFFFFFFFFFFFFFFFFFFF90FFFFFFFFFFFFFFFFFFFFFFFFFFFFFF90FFFFFFFFFFFFFFFFFFFFFFFFFFFFFF90FFFFFFFFFFFFFFFFFFFFFFFFFFFFFF90FFFFFFFFFFFFFFFFFFFFFFFFFFFFFF9000000BBBBBBBBB0000000FFFFFFFFF99999990BFFFBBFB9999990FFFFFFFFF9FFFFF90
1004
FBBFFFB0FFFFFF0FFFFFFFFF9FFFFF90FFFBBFB0FFFFFF0FFFFFFFFF9FFFFF90BBFFFBF0FFFFFF0FFFFFFFFF9FFFFF90FFBBFBF0FFFFFF0FFFFFFFFF9FFFFF90BFBFBFF0FFFFFF0FFFFFFFFF9FFFFF90FBFFBFB0FFFFFF0FFFFFFFFF9FFFFF90FBFBFFB0FFFFFF0FFFFFFFFF9FFFFF90BFFBFBF0FFFFFF0FFFFFFFFF9FFFFF
1004
90FBBFFBF0FFFFFF0FFFFFFFFF9FFFFF90FFBFBFF0FFFFFF0FFFFFFFFF9FFFFF90BBFFBFB0FFFFFF0FFFFFFFFF9FFFFF90FFBBFFB0FFFFFF0FFFFFFFFF9FFFFF90BFFBFBF0FFFFFF0FFFFFFFFF9FFFFF90FBBFBBF0FFFFFF0FFFFFFFFF9FFFFF90FFFBFFBBFFFFFF0FFFFFFFFF9999999BBBBBBBBB0000000FFFFFFFFF90FF
1004
FFFFFFFFFFFFFFFFF00FFFFFFFFF90FFFFFFFFFFFFFFFFFFF00FFFFFFFFF90FFFFFFFFFFFFFFFFFFF00FFFFFFFFF90FFFFFFFFFFFFFFFFFFF00FFFFFFFFF90FFFFFFFFFFFFFFFFFFF00FFFFFFFFF90FFFFFFFFFFFFFFFFFFF00FFFFFFFFF90FFFFFFFFFFFFFFFFFFF00FFFFF
  0
BLOCK_RECORD
  5
165
100
AcDbSymbolTableRecord
100
AcDbBlockTableRecord
  2
*X18
  0
BLOCK_RECORD
  5
18F
100
AcDbSymbolTableRecord
100
AcDbBlockTableRecord
  2
SP976521_720_32
1001
CONTENTBLOCKICON
1071
        0
1004
2800000020000000200000000100040000000000000200000000000000000000000000000000000000000000000080000080000000808000800000008000800080800000C0C0C000808080000000FF0000FF000000FFFF00FF000000FF00FF00FFFF0000FFFFFF00FFFFFF0000000000000000000FFFFFFFFFFFFF9BBBBBBB
1004
BBB99999999FFFFFFFFFFFFFBFFFFBFBFBBFFFFFFFFFFFFFFFFFFFFFBBFBFFFBFBBFFFFFFFFFFFFFFFFFFFFFBFFFFBFFBFBFFFFFFFFFFFFFFFFFFFFFBBFBFFBFFFBFFFFFFFFFFFFFFFFFFFFFBFFFFFFFBFBFFFFFFFFFFFFFFFFFFFFFBFBFBFBFFFBFFFFFFFFFFFFFFFFFFFFFBFFFFFFFBFBFFFFFFFFFFFFFFFFFFFFFBFBFBF
1004
BFFFBFFFFFFFFFFFFFFFFFFFFFBFFFBFBFBBBFFFFFFFFFFFFFFFFFFFFFBFBFFBFBFFBFFFFFFFFFFFFFFFFFFFFFBFFFFFFFFBBFFFFFFFFFFFFFFFFFFFFFBFFFFBFBFFBFFFFFFFFFFFFFFFFFFFFFBBFBFFFFFBBFFFFFFFFFFFFFFFFFFFFFBFFFFBFBFFBFFFFFFFFFFFFFFFFFFFFFBBFBFFFFFFBFFFFFFFFFFFFFFFFFFFFF0BBB
1004
BBBBBBBFFFFFFFFFFFFFFFFFFFFF0FFFFFFFF90FFFFFFFFFFFFFFFFFFFFF0FFFFFFFF90FFFFFFFFFFFFFFFFFFFFF0FFFFFFFF90FFFFFFFFFFFFFFFFFFFFF0FFFFFFFF90FFFFFFFFFFFFFFFFFFFFF0FFFFFFFF90FFFFFFFFFFFFFFFFFFFFF0FFFFFFFF90FFFFFFFFFFFFFFFFFFFFF0FFFFFFFF90FFFFFFFFFFFFFFFFFFFFF0F
1004
FFFFFFF90FFFFFFFFFFFFFFFFFFFFF0FFFFFFFF90FFFFFFFFFFFFFFFFFFFFF0FFFFFFFF90FFFFFFFFFFFFFFFFFFFFF0FFFFFFFF90FFFFFFFFFFFFFFFFFFFFF0FFFFFFFF90FFFFFFFFFFFFFFFFFFFFF9FFFFFFFF90FFFFFFFFFFFFFFFFFFFFF0000000000FFFFFFFFFFFFFFFF
  0
BLOCK_RECORD
  5
19C
100
AcDbSymbolTableRecord
100
AcDbBlockTableRecord
  2
SP976522_720_32
1001
CONTENTBLOCKICON
1071
        0
1004
2800000020000000200000000100040000000000000200000000000000000000000000000000000000000000000080000080000000808000800000008000800080800000C0C0C000808080000000FF0000FF000000FFFF00FF000000FF00FF00FFFF0000FFFFFF00F0000000000000000000000000000FFFF9999999999BBB
1004
BBBBBBB99999999FFFFFFFFFFFFFBFFFFBFFBFBFFFFFFFFFFFFFFFFFFFFFBBFBFFFFFFBFFFFFFFFFFFFFFFFFFFFFBBFFFFFFBFBFFFFFFFFFFFFFFFFFFFFFBFBFBFBFFFBFFFFFFFFFFFFFFFFFFFFFBFFFFFFFBFBFFFFFFFFFFFFFFFFFFFFFBFBFBFBFBFBFFFFFFFFFFFFFFFFFFFFFBFFFFFBFFBBFFFFFFFFFFFFFFFFFFFFFBF
1004
BFBFFBFFBFFFFFFFFFFFFFFFFFFFFFBFFFFFFFFBBFFFFFFFFFFFFFFFFFFFFFBFFBFBFBFFBFFFFFFFFFFFFFFFFFFFFFBBFFFFFFFBBFFFFFFFFFFFFFFFFFFFFFBFFFFBFBFFBFFFFFFFFFFFFFFFFFFFFFBBFBFBFBFBBFFFFFFFFFFFFFFFFFFFFFBFFBFFBFBFBFFFFFFFFFFFFFFFFFFFFFBBFFBFFFFFBFFFFFFFFFFFFFFFFFFFFF
1004
00000000000FFFFFFFFFFFFFFFFFFFFF0FFFFFFFF90FFFFFFFFFFFFFFFFFFFFF0FFFFFFFF90FFFFFFFFFFFFFFFFFFFFF0FFFFFFFF90FFFFFFFFFFFFFFFFFFFFF0FFFFFFFF90FFFFFFFFFFFFFFFFFFFFF0FFFFFFFF90FFFFFFFFFFFFFFFFFFFFF0FFFFFFFF90FFFFFFFFFFFFFFFFFFFFF0FFFFFFFF90FFFFFFFFFFFFFFFFFFF
1004
FF0FFFFFFFF90FFFFFFFFFFFFFFFFFFFFF0FFFFFFFF90FFFFFFFFFFFFFFFFFFFFF0FFFFFFFF90FFFFFFFFFFFFFFFFFFFFF0FFFFFFFF90FFFFFFFFFFFFFFFFFFFFF0FFFFFFFF90FFFFFFFFFFFFFFFFFFFFF9FFFFFFFF90FFFFFFFFFFFFFFFFFFFFFF0000000090FFFFFFFFFFF
  0
BLOCK_RECORD
  5
1A9
100
AcDbSymbolTableRecord
100
AcDbBlockTableRecord
  2
A$C0DC63504
  0
ENDTAB
  0
ENDSEC
  0
SECTION
  2
BLOCKS
  0
BLOCK
  5
3
100
AcDbEntity
  8
0
100
AcDbBlockBegin
  2
*MODEL_SPACE
 70
     0
 10
0.0
 20
0.0
 30
0.0
  3
*MODEL_SPACE
  1

  0
ENDBLK
  5
6
100
AcDbEntity
  8
0
100
AcDbBlockEnd
  0
BLOCK
  5
8
100
AcDbEntity
 67
     1
  8
0
100
AcDbBlockBegin
  2
*PAPER_SPACE
 70
     0
 10
0.0
 20
0.0
 30
0.0
  3
*PAPER_SPACE
  1

  0
ENDBLK
  5
9
100
AcDbEntity
 67
     1
  8
0
100
AcDbBlockEnd
  0
BLOCK
  5
2E
100
AcDbEntity
  8
0
100
AcDbBlockBegin
  2
SIDA
 70
     0
 10
0.0
 20
0.0
 30
0.0
  3
SIDA
  1

  0
LWPOLYLINE
  5
1F
100
AcDbEntity
  8
RAM
 62
     5
100
AcDbPolyline
 90
        4
 70
     1
 43
0.0
 10
-20.0
 20
35.0
 10
-20.0
 20
560.0
 10
-380.0
 20
560.0
 10
-380.0
 20
35.0
  0
LINE
  5
21
100
AcDbEntity
  8
RAM
  6
DASHDOT
 62
     6
100
AcDbLine
 10
-260.0
 20
307.5
 30
0.0
 11
-260.0
 21
287.5
 31
0.0
  0
LINE
  5
23
100
AcDbEntity
  8
RAM
  6
DASHDOT
 62
     6
100
AcDbLine
 10
-270.0
 20
167.5
 30
0.0
 11
-250.0
 21
167.5
 31
0.0
  0
LINE
  5
24
100
AcDbEntity
  8
RAM
  6
DASHDOT
 62
     6
100
AcDbLine
 10
-260.0
 20
177.5
 30
0.0
 11
-260.0
 21
157.5
 31
0.0
  0
LINE
  5
25
100
AcDbEntity
  8
RAM
  6
DASHDOT
 62
     6
100
AcDbLine
 10
-270.0
 20
297.5
 30
0.0
 11
-250.0
 21
297.5
 31
0.0
  0
LINE
  5
26
100
AcDbEntity
  8
RAM
  6
DASHDOT
 62
     6
100
AcDbLine
 10
-270.0
 20
427.5
 30
0.0
 11
-250.0
 21
427.5
 31
0.0
  0
LINE
  5
27
100
AcDbEntity
  8
RAM
  6
DASHDOT
 62
     6
100
AcDbLine
 10
-260.0
 20
437.5
 30
0.0
 11
-260.0
 21
417.5
 31
0.0
  0
LINE
  5
28
100
AcDbEntity
  8
RAM
  6
DASHDOT
 62
     6
100
AcDbLine
 10
-140.0
 20
307.5
 30
0.0
 11
-140.0
 21
287.5
 31
0.0
  0
LINE
  5
29
100
AcDbEntity
  8
RAM
  6
DASHDOT
 62
     6
100
AcDbLine
 10
-140.0
 20
177.5
 30
0.0
 11
-140.0
 21
157.5
 31
0.0
  0
LINE
  5
2A
100
AcDbEntity
  8
RAM
  6
DASHDOT
 62
     6
100
AcDbLine
 10
-150.0
 20
167.5
 30
0.0
 11
-130.0
 21
167.5
 31
0.0
  0
LINE
  5
2B
100
AcDbEntity
  8
RAM
  6
DASHDOT
 62
     6
100
AcDbLine
 10
-150.0
 20
297.5
 30
0.0
 11
-130.0
 21
297.5
 31
0.0
  0
LINE
  5
2C
100
AcDbEntity
  8
RAM
  6
DASHDOT
 62
     6
100
AcDbLine
 10
-150.0
 20
427.5
 30
0.0
 11
-130.0
 21
427.5
 31
0.0
  0
LINE
  5
2D
100
AcDbEntity
  8
RAM
  6
DASHDOT
 62
     6
100
AcDbLine
 10
-140.0
 20
437.5
 30
0.0
 11
-140.0
 21
417.5
 31
0.0
  0
ENDBLK
  5
2F
100
AcDbEntity
  8
0
100
AcDbBlockEnd
  0
BLOCK
  5
A4
100
AcDbEntity
  8
0
100
AcDbBlockBegin
  2
*X1
 70
     1
 10
0.0
 20
0.0
 30
0.0
  3
*X1
  1

  0
LINE
  5
9A
100
AcDbEntity
  8
0
 62
     0
100
AcDbLine
 10
418.490967
 20
310.1066
 30
0.0
 11
421.167604
 21
313.296491
 31
0.0
  0
LINE
  5
9B
100
AcDbEntity
  8
0
 62
     0
100
AcDbLine
 10
423.349042
 20
315.896228
 30
0.0
 11
424.080112
 21
316.767482
 31
0.0
  0
LINE
  5
9C
100
AcDbEntity
  8
0
 62
     0
100
AcDbLine
 10
422.064957
 20
314.365914
 30
0.0
 11
422.918328
 21
315.382923
 31
0.0
  0
LINE
  5
9D
100
AcDbEntity
  8
0
 62
     0
100
AcDbLine
 10
418.226804
 20
311.736438
 30
0.0
 11
420.663771
 21
314.640701
 31
0.0
  0
LINE
  5
9E
100
AcDbEntity
  8
0
 62
     0
100
AcDbLine
 10
421.575811
 20
315.727628
 30
0.0
 11
422.569739
 21
316.912145
 31
0.0
  0
LINE
  5
9F
100
AcDbEntity
  8
0
 62
     0
100
AcDbLine
 10
417.857133
 20
313.240535
 30
0.0
 11
420.696467
 21
316.624321
 31
0.0
  0
LINE
  5
A0
100
AcDbEntity
  8
0
 62
     0
100
AcDbLine
 10
416.898348
 20
314.042554
 30
0.0
 11
418.169933
 21
315.55797
 31
0.0
  0
LINE
  5
A1
100
AcDbEntity
  8
0
 62
     0
100
AcDbLine
 10
418.751032
 20
308.471878
 30
0.0
 11
420.838188
 21
310.959254
 31
0.0
  0
LINE
  5
A2
100
AcDbEntity
  8
0
 62
     0
100
AcDbLine
 10
419.246616
 20
307.117837
 30
0.0
 11
421.130916
 21
309.363458
 31
0.0
  0
LINE
  5
A3
100
AcDbEntity
  8
0
 62
     0
100
AcDbLine
 10
421.204244
 20
307.506193
 30
0.0
 11
422.301392
 21
308.813723
 31
0.0
  0
ENDBLK
  5
A5
100
AcDbEntity
  8
0
100
AcDbBlockEnd
  0
BLOCK
  5
A6
100
AcDbEntity
  8
0
100
AcDbBlockBegin
  2
SP40010
 70
     0
 10
0.0
 20
0.0
 30
0.0
  3
SP40010
  1

  0
LWPOLYLINE
  5
97
100
AcDbEntity
  8
GLAS_MED_FOGNING
100
AcDbPolyline
 90
       27
 70
     0
 43
0.0
 10
-8.905528
 20
18.626989
 10
-11.04147
 20
18.263989
 42
0.47758
 10
-11.422076
 20
17.585713
 10
-11.282581
 20
17.236207
 42
-1.066974
 10
-12.209806
 20
16.934105
 10
-12.855648
 20
19.46147
 10
-12.95764
 20
20.795213
 42
-0.851446
 10
-12.019738
 20
21.021209
 42
0.34625
 10
-11.479327
 20
20.720659
 10
-7.420891
 20
21.324081
 42
0.253088
 10
-6.015863
 20
22.369183
 10
-5.627377
 20
23.238611
 42
-0.653084
 10
-5.261375
 20
23.225047
 10
-4.446993
 20
21.166246
 42
0.887127
 10
-4.490032
 20
20.572081
 42
-0.212108
 10
-4.15725
 20
20.339586
 42
-0.212173
 10
-3.459619
 20
14.779472
 42
-0.418069
 10
-3.711416
 20
14.646619
 10
-4.293984
 20
14.830968
 42
-0.397156
 10
-4.360758
 20
14.950843
 42
0.194939
 10
-4.977068
 20
19.415768
 42
1.053912
 10
-5.578133
 20
19.061579
 10
-4.456808
 20
16.774085
 42
-0.459605
 10
-4.576654
 20
16.495183
 10
-5.081649
 20
16.337131
 42
-0.312484
 10
-5.190355
 20
16.371046
 42
0.373013
 10
-9.071884
 20
18.598717
  0
INSERT
  5
98
100
AcDbEntity
  8
GLAS_MED_FOGNING
100
AcDbBlockReference
  2
*X1
 10
-314.5231
 20
443.46412
 30
0.0
 50
269.250599
1001
ACAD
1000
HATCH
1002
{
1070
    16
1000
ANSI31
1040
10.0
1040
0.087266
1002
}
  0
ENDBLK
  5
A7
100
AcDbEntity
  8
0
100
AcDbBlockEnd
  0
BLOCK
  5
7D
100
AcDbEntity
  8
0
100
AcDbBlockBegin
  2
*X3
 70
     1
 10
0.0
 20
0.0
 30
0.0
  3
*X3
  1

  0
LINE
  5
35
100
AcDbEntity
  8
0
 62
     0
100
AcDbLine
 10
-20.0
 20
-23.659281
 30
0.0
 11
-20.207178
 21
-23.214986
 31
0.0
  0
LINE
  5
36
100
AcDbEntity
  8
0
 62
     0
100
AcDbLine
 10
-21.52786
 20
-20.382774
 30
0.0
 11
-22.848542
 21
-17.550562
 31
0.0
  0
LINE
  5
37
100
AcDbEntity
  8
0
 62
     0
100
AcDbLine
 10
-24.169224
 20
-14.71835
 30
0.0
 11
-25.489907
 21
-11.886139
 31
0.0
  0
LINE
  5
38
100
AcDbEntity
  8
0
 62
     0
100
AcDbLine
 10
-26.810589
 20
-9.053927
 30
0.0
 11
-28.131271
 21
-6.221715
 31
0.0
  0
LINE
  5
39
100
AcDbEntity
  8
0
 62
     0
100
AcDbLine
 10
-29.451953
 20
-3.389503
 30
0.0
 11
-30.772635
 21
-0.557291
 31
0.0
  0
LINE
  5
3A
100
AcDbEntity
  8
0
 62
     0
100
AcDbLine
 10
-32.093317
 20
2.274921
 30
0.0
 11
-33.413999
 21
5.107132
 31
0.0
  0
LINE
  5
3B
100
AcDbEntity
  8
0
 62
     0
100
AcDbLine
 10
-34.734681
 20
7.939344
 30
0.0
 11
-36.055363
 21
10.771556
 31
0.0
  0
LINE
  5
3C
100
AcDbEntity
  8
0
 62
     0
100
AcDbLine
 10
-37.376045
 20
13.603768
 30
0.0
 11
-38.696727
 21
16.43598
 31
0.0
  0
LINE
  5
3D
100
AcDbEntity
  8
0
 62
     0
100
AcDbLine
 10
-40.017409
 20
19.268192
 30
0.0
 11
-41.338091
 21
22.100403
 31
0.0
  0
LINE
  5
3E
100
AcDbEntity
  8
0
 62
     0
100
AcDbLine
 10
-42.658773
 20
24.932615
 30
0.0
 11
-42.690195
 21
25.0
 31
0.0
  0
LINE
  5
3F
100
AcDbEntity
  8
0
 62
     0
100
AcDbLine
 10
-23.03939
 20
-24.535668
 30
0.0
 11
-24.360072
 21
-21.703456
 31
0.0
  0
LINE
  5
40
100
AcDbEntity
  8
0
 62
     0
100
AcDbLine
 10
-25.680754
 20
-18.871244
 30
0.0
 11
-27.001436
 21
-16.039033
 31
0.0
  0
LINE
  5
41
100
AcDbEntity
  8
0
 62
     0
100
AcDbLine
 10
-28.322118
 20
-13.206821
 30
0.0
 11
-29.6428
 21
-10.374609
 31
0.0
  0
LINE
  5
42
100
AcDbEntity
  8
0
 62
     0
100
AcDbLine
 10
-30.963482
 20
-7.542397
 30
0.0
 11
-32.284165
 21
-4.710185
 31
0.0
  0
LINE
  5
43
100
AcDbEntity
  8
0
 62
     0
100
AcDbLine
 10
-33.604847
 20
-1.877973
 30
0.0
 11
-34.925529
 21
0.954238
 31
0.0
  0
LINE
  5
44
100
AcDbEntity
  8
0
 62
     0
100
AcDbLine
 10
-36.246211
 20
3.78645
 30
0.0
 11
-37.566893
 21
6.618662
 31
0.0
  0
LINE
  5
45
100
AcDbEntity
  8
0
 62
     0
100
AcDbLine
 10
-38.887575
 20
9.450874
 30
0.0
 11
-40.208257
 21
12.283086
 31
0.0
  0
LINE
  5
46
100
AcDbEntity
  8
0
 62
     0
100
AcDbLine
 10
-41.528939
 20
15.115298
 30
0.0
 11
-42.849621
 21
17.947509
 31
0.0
  0
LINE
  5
47
100
AcDbEntity
  8
0
 62
     0
100
AcDbLine
 10
-44.170303
 20
20.779721
 30
0.0
 11
-45.0
 21
22.559012
 31
0.0
  0
LINE
  5
48
100
AcDbEntity
  8
0
 62
     0
100
AcDbLine
 10
-27.192284
 20
-23.024138
 30
0.0
 11
-28.512966
 21
-20.191926
 31
0.0
  0
LINE
  5
49
100
AcDbEntity
  8
0
 62
     0
100
AcDbLine
 10
-29.833648
 20
-17.359715
 30
0.0
 11
-31.15433
 21
-14.527503
 31
0.0
  0
LINE
  5
4A
100
AcDbEntity
  8
0
 62
     0
100
AcDbLine
 10
-32.475012
 20
-11.695291
 30
0.0
 11
-33.795694
 21
-8.863079
 31
0.0
  0
LINE
  5
4B
100
AcDbEntity
  8
0
 62
     0
100
AcDbLine
 10
-35.116376
 20
-6.030867
 30
0.0
 11
-36.437058
 21
-3.198655
 31
0.0
  0
LINE
  5
4C
100
AcDbEntity
  8
0
 62
     0
100
AcDbLine
 10
-37.757741
 20
-0.366444
 30
0.0
 11
-39.078423
 21
2.465768
 31
0.0
  0
LINE
  5
4D
100
AcDbEntity
  8
0
 62
     0
100
AcDbLine
 10
-40.399105
 20
5.29798
 30
0.0
 11
-41.719787
 21
8.130192
 31
0.0
  0
LINE
  5
4E
100
AcDbEntity
  8
0
 62
     0
100
AcDbLine
 10
-43.040469
 20
10.962404
 30
0.0
 11
-44.361151
 21
13.794616
 31
0.0
  0
LINE
  5
4F
100
AcDbEntity
  8
0
 62
     0
100
AcDbLine
 10
-29.718981
 20
-25.0
 30
0.0
 11
-30.024496
 21
-24.34482
 31
0.0
  0
LINE
  5
50
100
AcDbEntity
  8
0
 62
     0
100
AcDbLine
 10
-31.345178
 20
-21.512608
 30
0.0
 11
-32.66586
 21
-18.680397
 31
0.0
  0
LINE
  5
51
100
AcDbEntity
  8
0
 62
     0
100
AcDbLine
 10
-33.986542
 20
-15.848185
 30
0.0
 11
-35.307224
 21
-13.015973
 31
0.0
  0
LINE
  5
52
100
AcDbEntity
  8
0
 62
     0
100
AcDbLine
 10
-36.627906
 20
-10.183761
 30
0.0
 11
-37.948588
 21
-7.351549
 31
0.0
  0
LINE
  5
53
100
AcDbEntity
  8
0
 62
     0
100
AcDbLine
 10
-39.26927
 20
-4.519337
 30
0.0
 11
-40.589952
 21
-1.687126
 31
0.0
  0
LINE
  5
54
100
AcDbEntity
  8
0
 62
     0
100
AcDbLine
 10
-41.910634
 20
1.145086
 30
0.0
 11
-43.231316
 21
3.977298
 31
0.0
  0
LINE
  5
55
100
AcDbEntity
  8
0
 62
     0
100
AcDbLine
 10
-44.551999
 20
6.80951
 30
0.0
 11
-45.0
 21
7.770252
 31
0.0
  0
LINE
  5
56
100
AcDbEntity
  8
0
 62
     0
100
AcDbLine
 10
-33.167037
 20
-25.0
 30
0.0
 11
-34.17739
 21
-22.833291
 31
0.0
  0
LINE
  5
57
100
AcDbEntity
  8
0
 62
     0
100
AcDbLine
 10
-35.498072
 20
-20.001079
 30
0.0
 11
-36.818754
 21
-17.168867
 31
0.0
  0
LINE
  5
58
100
AcDbEntity
  8
0
 62
     0
100
AcDbLine
 10
-38.139436
 20
-14.336655
 30
0.0
 11
-39.460118
 21
-11.504443
 31
0.0
  0
LINE
  5
59
100
AcDbEntity
  8
0
 62
     0
100
AcDbLine
 10
-40.7808
 20
-8.672231
 30
0.0
 11
-42.101482
 21
-5.84002
 31
0.0
  0
LINE
  5
5A
100
AcDbEntity
  8
0
 62
     0
100
AcDbLine
 10
-43.422164
 20
-3.007808
 30
0.0
 11
-44.742846
 21
-0.175596
 31
0.0
  0
LINE
  5
5B
100
AcDbEntity
  8
0
 62
     0
100
AcDbLine
 10
-37.009602
 20
-24.153973
 30
0.0
 11
-38.330284
 21
-21.321761
 31
0.0
  0
LINE
  5
5C
100
AcDbEntity
  8
0
 62
     0
100
AcDbLine
 10
-39.650966
 20
-18.489549
 30
0.0
 11
-40.971648
 21
-15.657337
 31
0.0
  0
LINE
  5
5D
100
AcDbEntity
  8
0
 62
     0
100
AcDbLine
 10
-42.29233
 20
-12.825125
 30
0.0
 11
-43.613012
 21
-9.992913
 31
0.0
  0
LINE
  5
5E
100
AcDbEntity
  8
0
 62
     0
100
AcDbLine
 10
-44.933694
 20
-7.160702
 30
0.0
 11
-45.0
 21
-7.018508
 31
0.0
  0
LINE
  5
5F
100
AcDbEntity
  8
0
 62
     0
100
AcDbLine
 10
-41.162495
 20
-22.642443
 30
0.0
 11
-42.483178
 21
-19.810231
 31
0.0
  0
LINE
  5
60
100
AcDbEntity
  8
0
 62
     0
100
AcDbLine
 10
-43.80386
 20
-16.978019
 30
0.0
 11
-45.0
 21
-14.412888
 31
0.0
  0
LINE
  5
61
100
AcDbEntity
  8
0
 62
     0
100
AcDbLine
 10
-43.511204
 20
-25.0
 30
0.0
 11
-43.994707
 21
-23.963125
 31
0.0
  0
LINE
  5
62
100
AcDbEntity
  8
0
 62
     0
100
AcDbLine
 10
-20.016331
 20
-16.22988
 30
0.0
 11
-21.337013
 21
-13.397668
 31
0.0
  0
LINE
  5
63
100
AcDbEntity
  8
0
 62
     0
100
AcDbLine
 10
-22.657695
 20
-10.565457
 30
0.0
 11
-23.978377
 21
-7.733245
 31
0.0
  0
LINE
  5
64
100
AcDbEntity
  8
0
 62
     0
100
AcDbLine
 10
-25.299059
 20
-4.901033
 30
0.0
 11
-26.619741
 21
-2.068821
 31
0.0
  0
LINE
  5
65
100
AcDbEntity
  8
0
 62
     0
100
AcDbLine
 10
-27.940423
 20
0.763391
 30
0.0
 11
-29.261105
 21
3.595603
 31
0.0
  0
LINE
  5
66
100
AcDbEntity
  8
0
 62
     0
100
AcDbLine
 10
-30.581787
 20
6.427814
 30
0.0
 11
-31.902469
 21
9.260026
 31
0.0
  0
LINE
  5
67
100
AcDbEntity
  8
0
 62
     0
100
AcDbLine
 10
-33.223151
 20
12.092238
 30
0.0
 11
-34.543833
 21
14.92445
 31
0.0
  0
LINE
  5
68
100
AcDbEntity
  8
0
 62
     0
100
AcDbLine
 10
-35.864515
 20
17.756662
 30
0.0
 11
-37.185197
 21
20.588874
 31
0.0
  0
LINE
  5
69
100
AcDbEntity
  8
0
 62
     0
100
AcDbLine
 10
-38.505879
 20
23.421085
 30
0.0
 11
-39.242139
 21
25.0
 31
0.0
  0
LINE
  5
6A
100
AcDbEntity
  8
0
 62
     0
100
AcDbLine
 10
-21.146165
 20
-6.412563
 30
0.0
 11
-22.466847
 21
-3.580351
 31
0.0
  0
LINE
  5
6B
100
AcDbEntity
  8
0
 62
     0
100
AcDbLine
 10
-23.787529
 20
-0.748139
 30
0.0
 11
-25.108211
 21
2.084073
 31
0.0
  0
LINE
  5
6C
100
AcDbEntity
  8
0
 62
     0
100
AcDbLine
 10
-26.428893
 20
4.916285
 30
0.0
 11
-27.749575
 21
7.748497
 31
0.0
  0
LINE
  5
6D
100
AcDbEntity
  8
0
 62
     0
100
AcDbLine
 10
-29.070257
 20
10.580708
 30
0.0
 11
-30.390939
 21
13.41292
 31
0.0
  0
LINE
  5
6E
100
AcDbEntity
  8
0
 62
     0
100
AcDbLine
 10
-31.711621
 20
16.245132
 30
0.0
 11
-33.032304
 21
19.077344
 31
0.0
  0
LINE
  5
6F
100
AcDbEntity
  8
0
 62
     0
100
AcDbLine
 10
-34.352986
 20
21.909556
 30
0.0
 11
-35.673668
 21
24.741768
 31
0.0
  0
LINE
  5
70
100
AcDbEntity
  8
0
 62
     0
100
AcDbLine
 10
-20.0
 20
-1.476141
 30
0.0
 11
-20.955317
 21
0.572543
 31
0.0
  0
LINE
  5
71
100
AcDbEntity
  8
0
 62
     0
100
AcDbLine
 10
-22.275999
 20
3.404755
 30
0.0
 11
-23.596681
 21
6.236967
 31
0.0
  0
LINE
  5
72
100
AcDbEntity
  8
0
 62
     0
100
AcDbLine
 10
-24.917363
 20
9.069179
 30
0.0
 11
-26.238045
 21
11.90139
 31
0.0
  0
LINE
  5
73
100
AcDbEntity
  8
0
 62
     0
100
AcDbLine
 10
-27.558728
 20
14.733602
 30
0.0
 11
-28.87941
 21
17.565814
 31
0.0
  0
LINE
  5
74
100
AcDbEntity
  8
0
 62
     0
100
AcDbLine
 10
-30.200092
 20
20.398026
 30
0.0
 11
-31.520774
 21
23.230238
 31
0.0
  0
LINE
  5
75
100
AcDbEntity
  8
0
 62
     0
100
AcDbLine
 10
-20.76447
 20
7.557649
 30
0.0
 11
-22.085152
 21
10.389861
 31
0.0
  0
LINE
  5
76
100
AcDbEntity
  8
0
 62
     0
100
AcDbLine
 10
-23.405834
 20
13.222073
 30
0.0
 11
-24.726516
 21
16.054284
 31
0.0
  0
LINE
  5
77
100
AcDbEntity
  8
0
 62
     0
100
AcDbLine
 10
-26.047198
 20
18.886496
 30
0.0
 11
-27.36788
 21
21.718708
 31
0.0
  0
LINE
  5
78
100
AcDbEntity
  8
0
 62
     0
100
AcDbLine
 10
-28.688562
 20
24.55092
 30
0.0
 11
-28.897971
 21
25.0
 31
0.0
  0
LINE
  5
79
100
AcDbEntity
  8
0
 62
     0
100
AcDbLine
 10
-20.0
 20
13.312619
 30
0.0
 11
-20.573622
 21
14.542755
 31
0.0
  0
LINE
  5
7A
100
AcDbEntity
  8
0
 62
     0
100
AcDbLine
 10
-21.894304
 20
17.374966
 30
0.0
 11
-23.214986
 21
20.207178
 31
0.0
  0
LINE
  5
7B
100
AcDbEntity
  8
0
 62
     0
100
AcDbLine
 10
-24.535668
 20
23.03939
 30
0.0
 11
-25.449915
 21
25.0
 31
0.0
  0
LINE
  5
7C
100
AcDbEntity
  8
0
 62
     0
100
AcDbLine
 10
-20.382774
 20
21.52786
 30
0.0
 11
-21.703456
 21
24.360072
 31
0.0
  0
ENDBLK
  5
7E
100
AcDbEntity
  8
0
100
AcDbBlockEnd
  0
BLOCK
  5
DB
100
AcDbEntity
  8
0
100
AcDbBlockBegin
  2
*X4
 70
     1
 10
0.0
 20
0.0
 30
0.0
  3
*X4
  1

  0
LINE
  5
BC
100
AcDbEntity
  8
0
 62
     0
100
AcDbLine
 10
-26.810589
 20
-9.053927
 30
0.0
 11
-28.131271
 21
-6.221715
 31
0.0
  0
LINE
  5
BD
100
AcDbEntity
  8
0
 62
     0
100
AcDbLine
 10
-29.451953
 20
-3.389503
 30
0.0
 11
-30.772635
 21
-0.557291
 31
0.0
  0
LINE
  5
BE
100
AcDbEntity
  8
0
 62
     0
100
AcDbLine
 10
-32.093317
 20
2.274921
 30
0.0
 11
-33.413999
 21
5.107132
 31
0.0
  0
LINE
  5
BF
100
AcDbEntity
  8
0
 62
     0
100
AcDbLine
 10
-34.734681
 20
7.939344
 30
0.0
 11
-35.695581
 21
10.0
 31
0.0
  0
LINE
  5
C0
100
AcDbEntity
  8
0
 62
     0
100
AcDbLine
 10
-30.963482
 20
-7.542397
 30
0.0
 11
-32.284165
 21
-4.710185
 31
0.0
  0
LINE
  5
C1
100
AcDbEntity
  8
0
 62
     0
100
AcDbLine
 10
-33.604847
 20
-1.877973
 30
0.0
 11
-34.925529
 21
0.954238
 31
0.0
  0
LINE
  5
C2
100
AcDbEntity
  8
0
 62
     0
100
AcDbLine
 10
-36.246211
 20
3.78645
 30
0.0
 11
-37.566893
 21
6.618662
 31
0.0
  0
LINE
  5
C3
100
AcDbEntity
  8
0
 62
     0
100
AcDbLine
 10
-38.887575
 20
9.450874
 30
0.0
 11
-39.143637
 21
10.0
 31
0.0
  0
LINE
  5
C4
100
AcDbEntity
  8
0
 62
     0
100
AcDbLine
 10
-33.265539
 20
-10.0
 30
0.0
 11
-33.795694
 21
-8.863079
 31
0.0
  0
LINE
  5
C5
100
AcDbEntity
  8
0
 62
     0
100
AcDbLine
 10
-35.116376
 20
-6.030867
 30
0.0
 11
-36.437058
 21
-3.198655
 31
0.0
  0
LINE
  5
C6
100
AcDbEntity
  8
0
 62
     0
100
AcDbLine
 10
-37.757741
 20
-0.366444
 30
0.0
 11
-39.078423
 21
2.465768
 31
0.0
  0
LINE
  5
C7
100
AcDbEntity
  8
0
 62
     0
100
AcDbLine
 10
-40.399105
 20
5.29798
 30
0.0
 11
-41.719787
 21
8.130192
 31
0.0
  0
LINE
  5
C8
100
AcDbEntity
  8
0
 62
     0
100
AcDbLine
 10
-36.713595
 20
-10.0
 30
0.0
 11
-37.948588
 21
-7.351549
 31
0.0
  0
LINE
  5
C9
100
AcDbEntity
  8
0
 62
     0
100
AcDbLine
 10
-39.26927
 20
-4.519337
 30
0.0
 11
-40.589952
 21
-1.687126
 31
0.0
  0
LINE
  5
CA
100
AcDbEntity
  8
0
 62
     0
100
AcDbLine
 10
-41.910634
 20
1.145086
 30
0.0
 11
-43.231316
 21
3.977298
 31
0.0
  0
LINE
  5
CB
100
AcDbEntity
  8
0
 62
     0
100
AcDbLine
 10
-44.551999
 20
6.80951
 30
0.0
 11
-45.0
 21
7.770252
 31
0.0
  0
LINE
  5
CC
100
AcDbEntity
  8
0
 62
     0
100
AcDbLine
 10
-40.7808
 20
-8.672231
 30
0.0
 11
-42.101482
 21
-5.84002
 31
0.0
  0
LINE
  5
CD
100
AcDbEntity
  8
0
 62
     0
100
AcDbLine
 10
-43.422164
 20
-3.007808
 30
0.0
 11
-44.742846
 21
-0.175596
 31
0.0
  0
LINE
  5
CE
100
AcDbEntity
  8
0
 62
     0
100
AcDbLine
 10
-43.609707
 20
-10.0
 30
0.0
 11
-43.613012
 21
-9.992913
 31
0.0
  0
LINE
  5
CF
100
AcDbEntity
  8
0
 62
     0
100
AcDbLine
 10
-44.933694
 20
-7.160702
 30
0.0
 11
-45.0
 21
-7.018508
 31
0.0
  0
LINE
  5
D0
100
AcDbEntity
  8
0
 62
     0
100
AcDbLine
 10
-22.921371
 20
-10.0
 30
0.0
 11
-23.978377
 21
-7.733245
 31
0.0
  0
LINE
  5
D1
100
AcDbEntity
  8
0
 62
     0
100
AcDbLine
 10
-25.299059
 20
-4.901033
 30
0.0
 11
-26.619741
 21
-2.068821
 31
0.0
  0
LINE
  5
D2
100
AcDbEntity
  8
0
 62
     0
100
AcDbLine
 10
-27.940423
 20
0.763391
 30
0.0
 11
-29.261105
 21
3.595603
 31
0.0
  0
LINE
  5
D3
100
AcDbEntity
  8
0
 62
     0
100
AcDbLine
 10
-30.581787
 20
6.427814
 30
0.0
 11
-31.902469
 21
9.260026
 31
0.0
  0
LINE
  5
D4
100
AcDbEntity
  8
0
 62
     0
100
AcDbLine
 10
-21.146165
 20
-6.412563
 30
0.0
 11
-22.466847
 21
-3.580351
 31
0.0
  0
LINE
  5
D5
100
AcDbEntity
  8
0
 62
     0
100
AcDbLine
 10
-23.787529
 20
-0.748139
 30
0.0
 11
-25.108211
 21
2.084073
 31
0.0
  0
LINE
  5
D6
100
AcDbEntity
  8
0
 62
     0
100
AcDbLine
 10
-26.428893
 20
4.916285
 30
0.0
 11
-27.749575
 21
7.748497
 31
0.0
  0
LINE
  5
D7
100
AcDbEntity
  8
0
 62
     0
100
AcDbLine
 10
-20.0
 20
-1.476141
 30
0.0
 11
-20.955317
 21
0.572543
 31
0.0
  0
LINE
  5
D8
100
AcDbEntity
  8
0
 62
     0
100
AcDbLine
 10
-22.275999
 20
3.404755
 30
0.0
 11
-23.596681
 21
6.236967
 31
0.0
  0
LINE
  5
D9
100
AcDbEntity
  8
0
 62
     0
100
AcDbLine
 10
-24.917363
 20
9.069179
 30
0.0
 11
-25.351413
 21
10.0
 31
0.0
  0
LINE
  5
DA
100
AcDbEntity
  8
0
 62
     0
100
AcDbLine
 10
-20.76447
 20
7.557649
 30
0.0
 11
-21.903357
 21
10.0
 31
0.0
  0
ENDBLK
  5
DC
100
AcDbEntity
  8
0
100
AcDbBlockEnd
  0
BLOCK
  5
124
100
AcDbEntity
  8
0
100
AcDbBlockBegin
  2
SP976510
 70
     0
 10
0.0
 20
0.0
 30
0.0
  3
SP976510
  1

  0
INSERT
  5
11C
100
AcDbEntity
  8
GLAS_MED_FOGNING
100
AcDbBlockReference
  2
*X3
 10
0.0
 20
0.0
 30
0.0
1001
ACAD
1000
HATCH
1002
{
1070
    16
1000
DASH
1040
25.0
1040
2.007129
1002
}
  0
LWPOLYLINE
  5
11D
100
AcDbEntity
  8
SPKONTUR
100
AcDbPolyline
 90
       25
 70
     0
 43
0.0
 10
-8.1
 20
18.4
 10
-8.114719
 20
18.4
 10
-8.1
 20
18.4
 42
-0.414214
 10
-5.6
 20
15.9
 10
-5.6
 20
13.8
 42
0.414214
 10
-3.8
 20
12.0
 10
-3.6
 20
12.0
 42
-0.414214
 10
0.0
 20
8.4
 10
0.0
 20
-23.2
 42
-0.414214
 10
-1.8
 20
-25.0
 10
-18.2
 20
-25.0
 42
-0.414214
 10
-20.0
 20
-23.2
 10
-20.0
 20
23.2
 42
-0.414214
 10
-18.2
 20
25.0
 10
-7.9
 20
25.0
 42
-0.414214
 10
-6.1
 20
23.2
 10
-6.1
 20
23.199
 42
-0.414214
 10
-7.899
 20
21.4
 10
-12.6
 20
21.4
 42
0.414214
 10
-14.4
 20
19.6
 10
-14.4
 20
18.2
 42
0.414214
 10
-12.6
 20
16.4
 42
0.198912
 10
-10.47868
 20
17.27868
 10
-10.236039
 20
17.52132
 42
-0.198912
 10
-8.114719
 20
18.4
  0
LWPOLYLINE
  5
11E
100
AcDbEntity
  8
STALPROFIL
100
AcDbPolyline
 90
       22
 70
     1
 43
1.8
 10
-8.114719
 20
17.5
 10
-8.1
 20
17.5
 42
-0.414214
 10
-6.5
 20
15.9
 10
-6.5
 20
13.8
 42
0.414214
 10
-3.8
 20
11.1
 10
-3.6
 20
11.1
 42
-0.414214
 10
-0.9
 20
8.4
 10
-0.9
 20
-23.2
 42
-0.414214
 10
-1.8
 20
-24.1
 10
-18.2
 20
-24.1
 42
-0.414214
 10
-19.1
 20
-23.2
 10
-19.1
 20
23.2
 42
-0.414214
 10
-18.2
 20
24.1
 10
-7.9
 20
24.1
 42
-0.414214
 10
-7.0
 20
23.199
 42
-0.414214
 10
-7.899
 20
22.3
 10
-12.6
 20
22.3
 42
0.414214
 10
-15.3
 20
19.6
 10
-15.3
 20
18.2
 42
0.414214
 10
-12.6
 20
15.5
 42
0.198912
 10
-9.842284
 20
16.642284
 10
-9.599643
 20
16.884924
 42
-0.198912
  0
LWPOLYLINE
  5
11F
100
AcDbEntity
  8
STALPROFIL
100
AcDbPolyline
 90
        8
 70
     1
 43
1.8
 10
-64.1
 20
23.2
 42
-0.414214
 10
-63.2
 20
24.1
 10
-46.8
 20
24.1
 42
-0.414214
 10
-45.9
 20
23.2
 10
-45.9
 20
-23.2
 42
-0.414214
 10
-46.8
 20
-24.1
 10
-63.2
 20
-24.1
 42
-0.414214
 10
-64.1
 20
-23.2
  0
LWPOLYLINE
  5
120
100
AcDbEntity
  8
SPKONTUR
100
AcDbPolyline
 90
        8
 70
     1
 43
0.0
 10
-65.0
 20
23.2
 42
-0.414214
 10
-63.2
 20
25.0
 10
-46.8
 20
25.0
 42
-0.414214
 10
-45.0
 20
23.2
 10
-45.0
 20
-23.2
 42
-0.414214
 10
-46.8
 20
-25.0
 10
-63.2
 20
-25.0
 42
-0.414214
 10
-65.0
 20
-23.2
  0
LWPOLYLINE
  5
121
100
AcDbEntity
  8
GLAS_MED_FOGNING
100
AcDbPolyline
 90
        4
 70
     0
 43
0.0
 10
-20.0
 20
-23.2
 10
-20.0
 20
-25.0
 10
-45.0
 20
-25.0
 10
-45.0
 20
-23.2
  0
LWPOLYLINE
  5
122
100
AcDbEntity
  8
GLAS_MED_FOGNING
100
AcDbPolyline
 90
        4
 70
     0
 43
0.0
 10
-20.0
 20
23.2
 10
-20.0
 20
25.0
 10
-45.0
 20
25.0
 10
-45.0
 20
23.2
  0
INSERT
  5
123
100
AcDbEntity
  8
GLAS_MED_FOGNING
100
AcDbBlockReference
  2
SP40010
 10
0.0
 20
0.0
 30
0.0
  0
ENDBLK
  5
125
100
AcDbEntity
  8
0
100
AcDbBlockEnd
  0
BLOCK
  5
130
100
AcDbEntity
  8
0
100
AcDbBlockBegin
  2
SP976511
 70
     0
 10
0.0
 20
0.0
 30
0.0
  3
SP976511
  1

  0
LWPOLYLINE
  5
128
100
AcDbEntity
  8
SPKONTUR
100
AcDbPolyline
 90
       11
 70
     1
 43
0.0
 10
-61.4
 20
25.0
 10
-46.8
 20
25.0
 42
-0.414214
 10
-45.0
 20
23.2
 10
-45.0
 20
-23.2
 42
-0.414214
 10
-46.8
 20
-25.0
 10
-63.2
 20
-25.0
 42
-0.414214
 10
-65.0
 20
-23.2
 10
-65.0
 20
43.2
 42
-0.414214
 10
-63.2
 20
45.0
 10
-63.199
 20
45.0
 42
-0.414214
 10
-61.4
 20
43.201
  0
LWPOLYLINE
  5
129
100
AcDbEntity
  8
STALPROFIL
100
AcDbPolyline
 90
       11
 70
     1
 43
1.8
 10
-61.4
 20
24.1
 10
-46.8
 20
24.1
 42
-0.414214
 10
-45.9
 20
23.2
 10
-45.9
 20
-23.2
 42
-0.414214
 10
-46.8
 20
-24.1
 10
-63.2
 20
-24.1
 42
-0.414214
 10
-64.1
 20
-23.2
 10
-64.1
 20
43.2
 42
-0.414214
 10
-63.199
 20
44.1
 42
-0.414214
 10
-62.3
 20
43.201
 10
-62.3
 20
25.0
 42
0.414214
  0
INSERT
  5
12A
100
AcDbEntity
  8
GLAS_MED_FOGNING
100
AcDbBlockReference
  2
*X3
 10
0.0
 20
0.0
 30
0.0
1001
ACAD
1000
HATCH
1002
{
1070
    16
1000
DASH
1040
25.0
1040
2.007129
1002
}
  0
LWPOLYLINE
  5
12B
100
AcDbEntity
  8
SPKONTUR
100
AcDbPolyline
 90
       25
 70
     0
 43
0.0
 10
-8.1
 20
18.4
 10
-8.114719
 20
18.4
 10
-8.1
 20
18.4
 42
-0.414214
 10
-5.6
 20
15.9
 10
-5.6
 20
13.8
 42
0.414214
 10
-3.8
 20
12.0
 10
-3.6
 20
12.0
 42
-0.414214
 10
0.0
 20
8.4
 10
0.0
 20
-23.2
 42
-0.414214
 10
-1.8
 20
-25.0
 10
-18.2
 20
-25.0
 42
-0.414214
 10
-20.0
 20
-23.2
 10
-20.0
 20
23.2
 42
-0.414214
 10
-18.2
 20
25.0
 10
-7.9
 20
25.0
 42
-0.414214
 10
-6.1
 20
23.2
 10
-6.1
 20
23.199
 42
-0.414214
 10
-7.899
 20
21.4
 10
-12.6
 20
21.4
 42
0.414214
 10
-14.4
 20
19.6
 10
-14.4
 20
18.2
 42
0.414214
 10
-12.6
 20
16.4
 42
0.198912
 10
-10.47868
 20
17.27868
 10
-10.236039
 20
17.52132
 42
-0.198912
 10
-8.114719
 20
18.4
  0
LWPOLYLINE
  5
12C
100
AcDbEntity
  8
STALPROFIL
100
AcDbPolyline
 90
       22
 70
     1
 43
1.8
 10
-8.114719
 20
17.5
 10
-8.1
 20
17.5
 42
-0.414214
 10
-6.5
 20
15.9
 10
-6.5
 20
13.8
 42
0.414214
 10
-3.8
 20
11.1
 10
-3.6
 20
11.1
 42
-0.414214
 10
-0.9
 20
8.4
 10
-0.9
 20
-23.2
 42
-0.414214
 10
-1.8
 20
-24.1
 10
-18.2
 20
-24.1
 42
-0.414214
 10
-19.1
 20
-23.2
 10
-19.1
 20
23.2
 42
-0.414214
 10
-18.2
 20
24.1
 10
-7.9
 20
24.1
 42
-0.414214
 10
-7.0
 20
23.199
 42
-0.414214
 10
-7.899
 20
22.3
 10
-12.6
 20
22.3
 42
0.414214
 10
-15.3
 20
19.6
 10
-15.3
 20
18.2
 42
0.414214
 10
-12.6
 20
15.5
 42
0.198912
 10
-9.842284
 20
16.642284
 10
-9.599643
 20
16.884924
 42
-0.198912
  0
LWPOLYLINE
  5
12D
100
AcDbEntity
  8
GLAS_MED_FOGNING
100
AcDbPolyline
 90
        4
 70
     0
 43
0.0
 10
-20.0
 20
-23.2
 10
-20.0
 20
-25.0
 10
-45.0
 20
-25.0
 10
-45.0
 20
-23.2
  0
LWPOLYLINE
  5
12E
100
AcDbEntity
  8
GLAS_MED_FOGNING
100
AcDbPolyline
 90
        4
 70
     0
 43
0.0
 10
-20.0
 20
23.2
 10
-20.0
 20
25.0
 10
-45.0
 20
25.0
 10
-45.0
 20
23.2
  0
INSERT
  5
12F
100
AcDbEntity
  8
GLAS_MED_FOGNING
100
AcDbBlockReference
  2
SP40010
 10
0.0
 20
0.0
 30
0.0
  0
ENDBLK
  5
131
100
AcDbEntity
  8
0
100
AcDbBlockEnd
  0
BLOCK
  5
B6
100
AcDbEntity
  8
0
100
AcDbBlockBegin
  2
SP976512
 70
     0
 10
0.0
 20
0.0
 30
0.0
  3
SP976512
  1

  0
LWPOLYLINE
  5
AE
100
AcDbEntity
  8
SPKONTUR
100
AcDbPolyline
 90
       16
 70
     1
 43
0.0
 10
-65.0
 20
0.0
 10
-65.0
 20
-43.2
 42
0.414214
 10
-63.2
 20
-45.0
 10
-63.199
 20
-45.0
 42
0.414214
 10
-61.4
 20
-43.201
 10
-61.4
 20
-25.0
 10
-46.8
 20
-25.0
 42
0.414214
 10
-45.0
 20
-23.2
 10
-45.0
 20
0.0
 10
-45.0
 20
23.2
 42
0.414214
 10
-46.8
 20
25.0
 10
-61.4
 20
25.0
 10
-61.4
 20
43.201
 42
0.414214
 10
-63.199
 20
45.0
 10
-63.2
 20
45.0
 42
0.414214
 10
-65.0
 20
43.2
  0
LWPOLYLINE
  5
AF
100
AcDbEntity
  8
STALPROFIL
100
AcDbPolyline
 90
       16
 70
     1
 43
1.8
 10
-64.1
 20
0.0
 10
-64.1
 20
-43.2
 42
0.414214
 10
-63.199
 20
-44.1
 42
0.414214
 10
-62.3
 20
-43.201
 10
-62.3
 20
-25.0
 42
-0.414214
 10
-61.4
 20
-24.1
 10
-46.8
 20
-24.1
 42
0.414214
 10
-45.9
 20
-23.2
 10
-45.9
 20
0.0
 10
-45.9
 20
23.2
 42
0.414214
 10
-46.8
 20
24.1
 10
-61.4
 20
24.1
 42
-0.414214
 10
-62.3
 20
25.0
 10
-62.3
 20
43.201
 42
0.414214
 10
-63.2
 20
44.1
 42
0.414214
 10
-64.1
 20
43.2
  0
INSERT
  5
B0
100
AcDbEntity
  8
GLAS_MED_FOGNING
100
AcDbBlockReference
  2
*X3
 10
0.0
 20
0.0
 30
0.0
1001
ACAD
1000
HATCH
1002
{
1070
    16
1000
DASH
1040
25.0
1040
2.007129
1002
}
  0
LWPOLYLINE
  5
B1
100
AcDbEntity
  8
SPKONTUR
100
AcDbPolyline
 90
       25
 70
     0
 43
0.0
 10
-8.1
 20
18.4
 10
-8.114719
 20
18.4
 10
-8.1
 20
18.4
 42
-0.414214
 10
-5.6
 20
15.9
 10
-5.6
 20
13.8
 42
0.414214
 10
-3.8
 20
12.0
 10
-3.6
 20
12.0
 42
-0.414214
 10
0.0
 20
8.4
 10
0.0
 20
-23.2
 42
-0.414214
 10
-1.8
 20
-25.0
 10
-18.2
 20
-25.0
 42
-0.414214
 10
-20.0
 20
-23.2
 10
-20.0
 20
23.2
 42
-0.414214
 10
-18.2
 20
25.0
 10
-7.9
 20
25.0
 42
-0.414214
 10
-6.1
 20
23.2
 10
-6.1
 20
23.199
 42
-0.414214
 10
-7.899
 20
21.4
 10
-12.6
 20
21.4
 42
0.414214
 10
-14.4
 20
19.6
 10
-14.4
 20
18.2
 42
0.414214
 10
-12.6
 20
16.4
 42
0.198912
 10
-10.47868
 20
17.27868
 10
-10.236039
 20
17.52132
 42
-0.198912
 10
-8.114719
 20
18.4
  0
LWPOLYLINE
  5
B2
100
AcDbEntity
  8
STALPROFIL
100
AcDbPolyline
 90
       22
 70
     1
 43
1.8
 10
-8.114719
 20
17.5
 10
-8.1
 20
17.5
 42
-0.414214
 10
-6.5
 20
15.9
 10
-6.5
 20
13.8
 42
0.414214
 10
-3.8
 20
11.1
 10
-3.6
 20
11.1
 42
-0.414214
 10
-0.9
 20
8.4
 10
-0.9
 20
-23.2
 42
-0.414214
 10
-1.8
 20
-24.1
 10
-18.2
 20
-24.1
 42
-0.414214
 10
-19.1
 20
-23.2
 10
-19.1
 20
23.2
 42
-0.414214
 10
-18.2
 20
24.1
 10
-7.9
 20
24.1
 42
-0.414214
 10
-7.0
 20
23.199
 42
-0.414214
 10
-7.899
 20
22.3
 10
-12.6
 20
22.3
 42
0.414214
 10
-15.3
 20
19.6
 10
-15.3
 20
18.2
 42
0.414214
 10
-12.6
 20
15.5
 42
0.198912
 10
-9.842284
 20
16.642284
 10
-9.599643
 20
16.884924
 42
-0.198912
  0
INSERT
  5
B3
100
AcDbEntity
  8
GLAS_MED_FOGNING
100
AcDbBlockReference
  2
SP40010
 10
0.0
 20
0.0
 30
0.0
  0
LWPOLYLINE
  5
B4
100
AcDbEntity
  8
GLAS_MED_FOGNING
100
AcDbPolyline
 90
        4
 70
     0
 43
0.0
 10
-20.0
 20
-23.2
 10
-20.0
 20
-25.0
 10
-45.0
 20
-25.0
 10
-45.0
 20
-23.2
  0
LWPOLYLINE
  5
B5
100
AcDbEntity
  8
GLAS_MED_FOGNING
100
AcDbPolyline
 90
        4
 70
     0
 43
0.0
 10
-20.0
 20
23.2
 10
-20.0
 20
25.0
 10
-45.0
 20
25.0
 10
-45.0
 20
23.2
  0
ENDBLK
  5
B7
100
AcDbEntity
  8
0
100
AcDbBlockEnd
  0
BLOCK
  5
A8
100
AcDbEntity
  8
0
100
AcDbBlockBegin
  2
SP976513
 70
     0
 10
0.0
 20
0.0
 30
0.0
  3
SP976513
  1

  0
INSERT
  5
8E
100
AcDbEntity
  8
GLAS_MED_FOGNING
100
AcDbBlockReference
  2
*X3
 10
0.0
 20
0.0
 30
0.0
1001
ACAD
1000
HATCH
1002
{
1070
    16
1000
DASH
1040
25.0
1040
2.007129
1002
}
  0
LWPOLYLINE
  5
8F
100
AcDbEntity
  8
STALPROFIL
100
AcDbPolyline
 90
       25
 70
     1
 43
1.8
 10
-8.114719
 20
17.5
 10
-8.1
 20
17.5
 42
-0.414214
 10
-6.5
 20
15.9
 10
-6.5
 20
13.8
 42
0.414214
 10
-3.8
 20
11.1
 10
-3.6
 20
11.1
 42
-0.414214
 10
-0.9
 20
8.4
 10
-0.9
 20
-43.2
 42
-0.414214
 10
-1.801
 20
-44.1
 42
-0.414214
 10
-2.7
 20
-43.201
 10
-2.7
 20
-25.0
 42
0.414214
 10
-3.6
 20
-24.1
 10
-18.2
 20
-24.1
 42
-0.414214
 10
-19.1
 20
-23.2
 10
-19.1
 20
23.2
 42
-0.414214
 10
-18.2
 20
24.1
 10
-7.9
 20
24.1
 42
-0.414214
 10
-7.0
 20
23.199
 42
-0.414214
 10
-7.899
 20
22.3
 10
-12.6
 20
22.3
 42
0.414214
 10
-15.3
 20
19.6
 10
-15.3
 20
18.2
 42
0.414214
 10
-12.6
 20
15.5
 42
0.198912
 10
-9.842284
 20
16.642284
 10
-9.599643
 20
16.884924
 42
-0.198912
  0
LWPOLYLINE
  5
90
100
AcDbEntity
  8
SPKONTUR
100
AcDbPolyline
 90
       28
 70
     0
 43
0.0
 10
-8.1
 20
18.4
 10
-8.114719
 20
18.4
 10
-8.1
 20
18.4
 42
-0.414214
 10
-5.6
 20
15.9
 10
-5.6
 20
13.8
 42
0.414214
 10
-3.8
 20
12.0
 10
-3.6
 20
12.0
 42
-0.414214
 10
0.0
 20
8.4
 10
0.0
 20
-43.2
 42
-0.414214
 10
-1.8
 20
-45.0
 10
-1.801
 20
-45.0
 42
-0.414214
 10
-3.6
 20
-43.201
 10
-3.6
 20
-25.0
 10
-18.2
 20
-25.0
 42
-0.414214
 10
-20.0
 20
-23.2
 10
-20.0
 20
23.2
 42
-0.414214
 10
-18.2
 20
25.0
 10
-7.9
 20
25.0
 42
-0.414214
 10
-6.1
 20
23.2
 10
-6.1
 20
23.199
 42
-0.414214
 10
-7.899
 20
21.4
 10
-12.6
 20
21.4
 42
0.414214
 10
-14.4
 20
19.6
 10
-14.4
 20
18.2
 42
0.414214
 10
-12.6
 20
16.4
 42
0.198912
 10
-10.47868
 20
17.27868
 10
-10.236039
 20
17.52132
 42
-0.198912
 10
-8.114719
 20
18.4
  0
LWPOLYLINE
  5
91
100
AcDbEntity
  8
STALPROFIL
100
AcDbPolyline
 90
       11
 70
     1
 43
1.8
 10
-61.4
 20
24.1
 10
-46.8
 20
24.1
 42
-0.414214
 10
-45.9
 20
23.2
 10
-45.9
 20
-23.2
 42
-0.414214
 10
-46.8
 20
-24.1
 10
-63.2
 20
-24.1
 42
-0.414214
 10
-64.1
 20
-23.2
 10
-64.1
 20
43.2
 42
-0.414214
 10
-63.199
 20
44.1
 42
-0.414214
 10
-62.3
 20
43.201
 10
-62.3
 20
25.0
 42
0.414214
  0
LWPOLYLINE
  5
92
100
AcDbEntity
  8
SPKONTUR
100
AcDbPolyline
 90
       11
 70
     1
 43
0.0
 10
-61.4
 20
25.0
 10
-46.8
 20
25.0
 42
-0.414214
 10
-45.0
 20
23.2
 10
-45.0
 20
-23.2
 42
-0.414214
 10
-46.8
 20
-25.0
 10
-63.2
 20
-25.0
 42
-0.414214
 10
-65.0
 20
-23.2
 10
-65.0
 20
43.2
 42
-0.414214
 10
-63.2
 20
45.0
 10
-63.199
 20
45.0
 42
-0.414214
 10
-61.4
 20
43.201
  0
LWPOLYLINE
  5
93
100
AcDbEntity
  8
GLAS_MED_FOGNING
100
AcDbPolyline
 90
        4
 70
     0
 43
0.0
 10
-20.0
 20
-23.2
 10
-20.0
 20
-25.0
 10
-45.0
 20
-25.0
 10
-45.0
 20
-23.2
  0
LWPOLYLINE
  5
94
100
AcDbEntity
  8
GLAS_MED_FOGNING
100
AcDbPolyline
 90
        4
 70
     0
 43
0.0
 10
-20.0
 20
23.2
 10
-20.0
 20
25.0
 10
-45.0
 20
25.0
 10
-45.0
 20
23.2
  0
INSERT
  5
95
100
AcDbEntity
  8
GLAS_MED_FOGNING
100
AcDbBlockReference
  2
SP40010
 10
0.0
 20
0.0
 30
0.0
  0
ENDBLK
  5
A9
100
AcDbEntity
  8
0
100
AcDbBlockEnd
  0
BLOCK
  5
118
100
AcDbEntity
  8
0
100
AcDbBlockBegin
  2
SP976514
 70
     0
 10
0.0
 20
0.0
 30
0.0
  3
SP976514
  1

  0
INSERT
  5
110
100
AcDbEntity
  8
GLAS_MED_FOGNING
100
AcDbBlockReference
  2
*X3
 10
0.0
 20
0.0
 30
0.0
1001
ACAD
1000
HATCH
1002
{
1070
    16
1000
DASH
1040
25.0
1040
2.007129
1002
}
  0
LWPOLYLINE
  5
111
100
AcDbEntity
  8
STALPROFIL
100
AcDbPolyline
 90
       22
 70
     1
 43
1.8
 10
-8.114719
 20
17.5
 10
-8.1
 20
17.5
 42
-0.414214
 10
-6.5
 20
15.9
 10
-6.5
 20
13.8
 42
0.414214
 10
-3.8
 20
11.1
 10
-3.6
 20
11.1
 42
-0.414214
 10
-0.9
 20
8.4
 10
-0.9
 20
-23.2
 42
-0.414214
 10
-1.8
 20
-24.1
 10
-18.2
 20
-24.1
 42
-0.414214
 10
-19.1
 20
-23.2
 10
-19.1
 20
23.2
 42
-0.414214
 10
-18.2
 20
24.1
 10
-7.9
 20
24.1
 42
-0.414214
 10
-7.0
 20
23.199
 42
-0.414214
 10
-7.899
 20
22.3
 10
-12.6
 20
22.3
 42
0.414214
 10
-15.3
 20
19.6
 10
-15.3
 20
18.2
 42
0.414214
 10
-12.6
 20
15.5
 42
0.198912
 10
-9.842284
 20
16.642284
 10
-9.599643
 20
16.884924
 42
-0.198912
  0
LWPOLYLINE
  5
112
100
AcDbEntity
  8
SPKONTUR
100
AcDbPolyline
 90
       25
 70
     0
 43
0.0
 10
-8.1
 20
18.4
 10
-8.114719
 20
18.4
 10
-8.1
 20
18.4
 42
-0.414214
 10
-5.6
 20
15.9
 10
-5.6
 20
13.8
 42
0.414214
 10
-3.8
 20
12.0
 10
-3.6
 20
12.0
 42
-0.414214
 10
0.0
 20
8.4
 10
0.0
 20
-23.2
 42
-0.414214
 10
-1.8
 20
-25.0
 10
-18.2
 20
-25.0
 42
-0.414214
 10
-20.0
 20
-23.2
 10
-20.0
 20
23.2
 42
-0.414214
 10
-18.2
 20
25.0
 10
-7.9
 20
25.0
 42
-0.414214
 10
-6.1
 20
23.2
 10
-6.1
 20
23.199
 42
-0.414214
 10
-7.899
 20
21.4
 10
-12.6
 20
21.4
 42
0.414214
 10
-14.4
 20
19.6
 10
-14.4
 20
18.2
 42
0.414214
 10
-12.6
 20
16.4
 42
0.198912
 10
-10.47868
 20
17.27868
 10
-10.236039
 20
17.52132
 42
-0.198912
 10
-8.114719
 20
18.4
  0
LWPOLYLINE
  5
113
100
AcDbEntity
  8
STALPROFIL
100
AcDbPolyline
 90
       11
 70
     1
 43
1.8
 10
-61.4
 20
-24.1
 10
-46.8
 20
-24.1
 42
0.414214
 10
-45.9
 20
-23.2
 10
-45.9
 20
23.2
 42
0.414214
 10
-46.8
 20
24.1
 10
-63.2
 20
24.1
 42
0.414214
 10
-64.1
 20
23.2
 10
-64.1
 20
-43.2
 42
0.414214
 10
-63.199
 20
-44.1
 42
0.414214
 10
-62.3
 20
-43.201
 10
-62.3
 20
-25.0
 42
-0.414214
  0
LWPOLYLINE
  5
114
100
AcDbEntity
  8
SPKONTUR
100
AcDbPolyline
 90
       11
 70
     1
 43
0.0
 10
-61.4
 20
-25.0
 10
-46.8
 20
-25.0
 42
0.414214
 10
-45.0
 20
-23.2
 10
-45.0
 20
23.2
 42
0.414214
 10
-46.8
 20
25.0
 10
-63.2
 20
25.0
 42
0.414214
 10
-65.0
 20
23.2
 10
-65.0
 20
-43.2
 42
0.414214
 10
-63.2
 20
-45.0
 10
-63.199
 20
-45.0
 42
0.414214
 10
-61.4
 20
-43.201
  0
LWPOLYLINE
  5
115
100
AcDbEntity
  8
GLAS_MED_FOGNING
100
AcDbPolyline
 90
        4
 70
     0
 43
0.0
 10
-20.0
 20
-23.2
 10
-20.0
 20
-25.0
 10
-45.0
 20
-25.0
 10
-45.0
 20
-23.2
  0
LWPOLYLINE
  5
116
100
AcDbEntity
  8
GLAS_MED_FOGNING
100
AcDbPolyline
 90
        4
 70
     0
 43
0.0
 10
-20.0
 20
23.2
 10
-20.0
 20
25.0
 10
-45.0
 20
25.0
 10
-45.0
 20
23.2
  0
INSERT
  5
117
100
AcDbEntity
  8
GLAS_MED_FOGNING
100
AcDbBlockReference
  2
SP40010
 10
0.0
 20
0.0
 30
0.0
  0
ENDBLK
  5
119
100
AcDbEntity
  8
0
100
AcDbBlockEnd
  0
BLOCK
  5
13D
100
AcDbEntity
  8
0
100
AcDbBlockBegin
  2
SP976515
 70
     0
 10
0.0
 20
0.0
 30
0.0
  3
SP976515
  1

  0
INSERT
  5
135
100
AcDbEntity
  8
GLAS_MED_FOGNING
100
AcDbBlockReference
  2
*X3
 10
0.0
 20
0.0
 30
0.0
1001
ACAD
1000
HATCH
1002
{
1070
    16
1000
DASH
1040
25.0
1040
2.007129
1002
}
  0
LWPOLYLINE
  5
136
100
AcDbEntity
  8
SPKONTUR
100
AcDbPolyline
 90
       28
 70
     0
 43
0.0
 10
-8.1
 20
18.4
 10
-8.114719
 20
18.4
 10
-8.1
 20
18.4
 42
-0.414214
 10
-5.6
 20
15.9
 10
-5.6
 20
13.8
 42
0.414214
 10
-3.8
 20
12.0
 10
-3.6
 20
12.0
 42
-0.414214
 10
0.0
 20
8.4
 10
0.0
 20
-43.2
 42
-0.414214
 10
-1.8
 20
-45.0
 10
-1.801
 20
-45.0
 42
-0.414214
 10
-3.6
 20
-43.201
 10
-3.6
 20
-25.0
 10
-18.2
 20
-25.0
 42
-0.414214
 10
-20.0
 20
-23.2
 10
-20.0
 20
23.2
 42
-0.414214
 10
-18.2
 20
25.0
 10
-7.9
 20
25.0
 42
-0.414214
 10
-6.1
 20
23.2
 10
-6.1
 20
23.199
 42
-0.414214
 10
-7.899
 20
21.4
 10
-12.6
 20
21.4
 42
0.414214
 10
-14.4
 20
19.6
 10
-14.4
 20
18.2
 42
0.414214
 10
-12.6
 20
16.4
 42
0.198912
 10
-10.47868
 20
17.27868
 10
-10.236039
 20
17.52132
 42
-0.198912
 10
-8.114719
 20
18.4
  0
LWPOLYLINE
  5
137
100
AcDbEntity
  8
STALPROFIL
100
AcDbPolyline
 90
       25
 70
     1
 43
1.8
 10
-8.114719
 20
17.5
 10
-8.1
 20
17.5
 42
-0.414214
 10
-6.5
 20
15.9
 10
-6.5
 20
13.8
 42
0.414214
 10
-3.8
 20
11.1
 10
-3.6
 20
11.1
 42
-0.414214
 10
-0.9
 20
8.4
 10
-0.9
 20
-43.2
 42
-0.414214
 10
-1.801
 20
-44.1
 42
-0.414214
 10
-2.7
 20
-43.201
 10
-2.7
 20
-25.0
 42
0.414214
 10
-3.6
 20
-24.1
 10
-18.2
 20
-24.1
 42
-0.414214
 10
-19.1
 20
-23.2
 10
-19.1
 20
23.2
 42
-0.414214
 10
-18.2
 20
24.1
 10
-7.9
 20
24.1
 42
-0.414214
 10
-7.0
 20
23.199
 42
-0.414214
 10
-7.899
 20
22.3
 10
-12.6
 20
22.3
 42
0.414214
 10
-15.3
 20
19.6
 10
-15.3
 20
18.2
 42
0.414214
 10
-12.6
 20
15.5
 42
0.198912
 10
-9.842284
 20
16.642284
 10
-9.599643
 20
16.884924
 42
-0.198912
  0
LWPOLYLINE
  5
138
100
AcDbEntity
  8
STALPROFIL
100
AcDbPolyline
 90
        8
 70
     1
 43
1.8
 10
-64.1
 20
23.2
 42
-0.414214
 10
-63.2
 20
24.1
 10
-46.8
 20
24.1
 42
-0.414214
 10
-45.9
 20
23.2
 10
-45.9
 20
-23.2
 42
-0.414214
 10
-46.8
 20
-24.1
 10
-63.2
 20
-24.1
 42
-0.414214
 10
-64.1
 20
-23.2
  0
LWPOLYLINE
  5
139
100
AcDbEntity
  8
SPKONTUR
100
AcDbPolyline
 90
        8
 70
     1
 43
0.0
 10
-65.0
 20
23.2
 42
-0.414214
 10
-63.2
 20
25.0
 10
-46.8
 20
25.0
 42
-0.414214
 10
-45.0
 20
23.2
 10
-45.0
 20
-23.2
 42
-0.414214
 10
-46.8
 20
-25.0
 10
-63.2
 20
-25.0
 42
-0.414214
 10
-65.0
 20
-23.2
  0
LWPOLYLINE
  5
13A
100
AcDbEntity
  8
GLAS_MED_FOGNING
100
AcDbPolyline
 90
        4
 70
     0
 43
0.0
 10
-20.0
 20
-23.2
 10
-20.0
 20
-25.0
 10
-45.0
 20
-25.0
 10
-45.0
 20
-23.2
  0
LWPOLYLINE
  5
13B
100
AcDbEntity
  8
GLAS_MED_FOGNING
100
AcDbPolyline
 90
        4
 70
     0
 43
0.0
 10
-20.0
 20
23.2
 10
-20.0
 20
25.0
 10
-45.0
 20
25.0
 10
-45.0
 20
23.2
  0
INSERT
  5
13C
100
AcDbEntity
  8
GLAS_MED_FOGNING
100
AcDbBlockReference
  2
SP40010
 10
0.0
 20
0.0
 30
0.0
  0
ENDBLK
  5
13E
100
AcDbEntity
  8
0
100
AcDbBlockEnd
  0
BLOCK
  5
F0
100
AcDbEntity
  8
0
100
AcDbBlockBegin
  2
SP976520
 70
     0
 10
0.0
 20
0.0
 30
0.0
  3
SP976520
  1

  0
INSERT
  5
E9
100
AcDbEntity
  8
GLAS_MED_FOGNING
100
AcDbBlockReference
  2
*X3
 10
0.0
 20
0.0
 30
0.0
1001
ACAD
1000
HATCH
1002
{
1070
    16
1000
DASH
1040
25.0
1040
2.007129
1002
}
  0
LWPOLYLINE
  5
EA
100
AcDbEntity
  8
SPKONTUR
100
AcDbPolyline
 90
        8
 70
     1
 43
0.0
 10
-20.0
 20
23.2
 42
-0.414214
 10
-18.2
 20
25.0
 10
-1.8
 20
25.0
 42
-0.414214
 10
0.0
 20
23.2
 10
0.0
 20
-23.2
 42
-0.414214
 10
-1.8
 20
-25.0
 10
-18.2
 20
-25.0
 42
-0.414214
 10
-20.0
 20
-23.2
  0
LWPOLYLINE
  5
EB
100
AcDbEntity
  8
STALPROFIL
100
AcDbPolyline
 90
        8
 70
     1
 43
1.8
 10
-19.1
 20
23.2
 42
-0.414214
 10
-18.2
 20
24.1
 10
-1.8
 20
24.1
 42
-0.414214
 10
-0.9
 20
23.2
 10
-0.9
 20
-23.2
 42
-0.414214
 10
-1.8
 20
-24.1
 10
-18.2
 20
-24.1
 42
-0.414214
 10
-19.1
 20
-23.2
  0
LWPOLYLINE
  5
EC
100
AcDbEntity
  8
SPKONTUR
100
AcDbPolyline
 90
        8
 70
     1
 43
0.0
 10
-65.0
 20
23.2
 42
-0.414214
 10
-63.2
 20
25.0
 10
-46.8
 20
25.0
 42
-0.414214
 10
-45.0
 20
23.2
 10
-45.0
 20
-23.2
 42
-0.414214
 10
-46.8
 20
-25.0
 10
-63.2
 20
-25.0
 42
-0.414214
 10
-65.0
 20
-23.2
  0
LWPOLYLINE
  5
ED
100
AcDbEntity
  8
STALPROFIL
100
AcDbPolyline
 90
        8
 70
     1
 43
1.8
 10
-64.1
 20
23.2
 42
-0.414214
 10
-63.2
 20
24.1
 10
-46.8
 20
24.1
 42
-0.414214
 10
-45.9
 20
23.2
 10
-45.9
 20
-23.2
 42
-0.414214
 10
-46.8
 20
-24.1
 10
-63.2
 20
-24.1
 42
-0.414214
 10
-64.1
 20
-23.2
  0
LWPOLYLINE
  5
EE
100
AcDbEntity
  8
GLAS_MED_FOGNING
100
AcDbPolyline
 90
        4
 70
     0
 43
0.0
 10
-20.0
 20
-23.2
 10
-20.0
 20
-25.0
 10
-45.0
 20
-25.0
 10
-45.0
 20
-23.2
  0
LWPOLYLINE
  5
EF
100
AcDbEntity
  8
GLAS_MED_FOGNING
100
AcDbPolyline
 90
        4
 70
     0
 43
0.0
 10
-20.0
 20
23.2
 10
-20.0
 20
25.0
 10
-45.0
 20
25.0
 10
-45.0
 20
23.2
  0
ENDBLK
  5
F1
100
AcDbEntity
  8
0
100
AcDbBlockEnd
  0
BLOCK
  5
E3
100
AcDbEntity
  8
0
100
AcDbBlockBegin
  2
SP976520-20
 70
     0
 10
0.0
 20
0.0
 30
0.0
  3
SP976520-20
  1

  0
INSERT
  5
BA
100
AcDbEntity
  8
GLAS_MED_FOGNING
100
AcDbBlockReference
  2
*X4
 10
0.0
 20
0.0
 30
0.0
1001
ACAD
1000
HATCH
1002
{
1070
    16
1000
DASH
1040
25.0
1040
2.007129
1002
}
  0
LWPOLYLINE
  5
DD
100
AcDbEntity
  8
STALPROFIL
100
AcDbPolyline
 90
        8
 70
     1
 43
1.8
 10
-19.1
 20
8.2
 42
-0.414214
 10
-18.2
 20
9.1
 10
-1.8
 20
9.1
 42
-0.414214
 10
-0.9
 20
8.2
 10
-0.9
 20
-8.2
 42
-0.414214
 10
-1.8
 20
-9.1
 10
-18.2
 20
-9.1
 42
-0.414214
 10
-19.1
 20
-8.2
  0
LWPOLYLINE
  5
DE
100
AcDbEntity
  8
SPKONTUR
100
AcDbPolyline
 90
        8
 70
     1
 43
0.0
 10
-20.0
 20
8.2
 42
-0.414214
 10
-18.2
 20
10.0
 10
-1.8
 20
10.0
 42
-0.414214
 10
0.0
 20
8.2
 10
0.0
 20
-8.2
 42
-0.414214
 10
-1.8
 20
-10.0
 10
-18.2
 20
-10.0
 42
-0.414214
 10
-20.0
 20
-8.2
  0
LWPOLYLINE
  5
DF
100
AcDbEntity
  8
STALPROFIL
100
AcDbPolyline
 90
        8
 70
     1
 43
1.8
 10
-64.1
 20
8.2
 42
-0.414214
 10
-63.2
 20
9.1
 10
-46.8
 20
9.1
 42
-0.414214
 10
-45.9
 20
8.2
 10
-45.9
 20
-8.2
 42
-0.414214
 10
-46.8
 20
-9.1
 10
-63.2
 20
-9.1
 42
-0.414214
 10
-64.1
 20
-8.2
  0
LWPOLYLINE
  5
E0
100
AcDbEntity
  8
SPKONTUR
100
AcDbPolyline
 90
        8
 70
     1
 43
0.0
 10
-65.0
 20
8.2
 42
-0.414214
 10
-63.2
 20
10.0
 10
-46.8
 20
10.0
 42
-0.414214
 10
-45.0
 20
8.2
 10
-45.0
 20
-8.2
 42
-0.414214
 10
-46.8
 20
-10.0
 10
-63.2
 20
-10.0
 42
-0.414214
 10
-65.0
 20
-8.2
  0
LWPOLYLINE
  5
E1
100
AcDbEntity
  8
GLAS_MED_FOGNING
100
AcDbPolyline
 90
        4
 70
     0
 43
0.0
 10
-20.0
 20
-8.2
 10
-20.0
 20
-10.0
 10
-45.0
 20
-10.0
 10
-45.0
 20
-8.2
  0
LWPOLYLINE
  5
E2
100
AcDbEntity
  8
GLAS_MED_FOGNING
100
AcDbPolyline
 90
        4
 70
     0
 43
0.0
 10
-20.0
 20
8.2
 10
-20.0
 20
10.0
 10
-45.0
 20
10.0
 10
-45.0
 20
8.2
  0
ENDBLK
  5
E4
100
AcDbEntity
  8
0
100
AcDbBlockEnd
  0
BLOCK
  5
87
100
AcDbEntity
  8
0
100
AcDbBlockBegin
  2
SP976521
 70
     0
 10
0.0
 20
0.0
 30
0.0
  3
SP976521
  1

  0
INSERT
  5
32
100
AcDbEntity
  8
GLAS_MED_FOGNING
100
AcDbBlockReference
  2
*X3
 10
0.0
 20
0.0
 30
0.0
1001
ACAD
1000
HATCH
1002
{
1070
    16
1000
DASH
1040
25.0
1040
2.007129
1002
}
  0
LWPOLYLINE
  5
7F
100
AcDbEntity
  8
SPKONTUR
100
AcDbPolyline
 90
        8
 70
     1
 43
0.0
 10
-20.0
 20
23.2
 42
-0.414214
 10
-18.2
 20
25.0
 10
-1.8
 20
25.0
 42
-0.414214
 10
0.0
 20
23.2
 10
0.0
 20
-23.2
 42
-0.414214
 10
-1.8
 20
-25.0
 10
-18.2
 20
-25.0
 42
-0.414214
 10
-20.0
 20
-23.2
  0
LWPOLYLINE
  5
81
100
AcDbEntity
  8
STALPROFIL
100
AcDbPolyline
 90
        8
 70
     1
 43
1.8
 10
-19.1
 20
23.2
 42
-0.414214
 10
-18.2
 20
24.1
 10
-1.8
 20
24.1
 42
-0.414214
 10
-0.9
 20
23.2
 10
-0.9
 20
-23.2
 42
-0.414214
 10
-1.8
 20
-24.1
 10
-18.2
 20
-24.1
 42
-0.414214
 10
-19.1
 20
-23.2
  0
LWPOLYLINE
  5
83
100
AcDbEntity
  8
STALPROFIL
100
AcDbPolyline
 90
       11
 70
     1
 43
1.8
 10
-61.4
 20
24.1
 10
-46.8
 20
24.1
 42
-0.414214
 10
-45.9
 20
23.2
 10
-45.9
 20
-23.2
 42
-0.414214
 10
-46.8
 20
-24.1
 10
-63.2
 20
-24.1
 42
-0.414214
 10
-64.1
 20
-23.2
 10
-64.1
 20
43.2
 42
-0.414214
 10
-63.199
 20
44.1
 42
-0.414214
 10
-62.3
 20
43.201
 10
-62.3
 20
25.0
 42
0.414214
  0
LWPOLYLINE
  5
84
100
AcDbEntity
  8
SPKONTUR
100
AcDbPolyline
 90
       11
 70
     1
 43
0.0
 10
-61.4
 20
25.0
 10
-46.8
 20
25.0
 42
-0.414214
 10
-45.0
 20
23.2
 10
-45.0
 20
-23.2
 42
-0.414214
 10
-46.8
 20
-25.0
 10
-63.2
 20
-25.0
 42
-0.414214
 10
-65.0
 20
-23.2
 10
-65.0
 20
43.2
 42
-0.414214
 10
-63.2
 20
45.0
 10
-63.199
 20
45.0
 42
-0.414214
 10
-61.4
 20
43.201
  0
LWPOLYLINE
  5
85
100
AcDbEntity
  8
GLAS_MED_FOGNING
100
AcDbPolyline
 90
        4
 70
     0
 43
0.0
 10
-20.0
 20
-23.2
 10
-20.0
 20
-25.0
 10
-45.0
 20
-25.0
 10
-45.0
 20
-23.2
  0
LWPOLYLINE
  5
86
100
AcDbEntity
  8
GLAS_MED_FOGNING
100
AcDbPolyline
 90
        4
 70
     0
 43
0.0
 10
-20.0
 20
23.2
 10
-20.0
 20
25.0
 10
-45.0
 20
25.0
 10
-45.0
 20
23.2
  0
ENDBLK
  5
88
100
AcDbEntity
  8
0
100
AcDbBlockEnd
  0
BLOCK
  5
14A
100
AcDbEntity
  8
0
100
AcDbBlockBegin
  2
SP976522
 70
     0
 10
0.0
 20
0.0
 30
0.0
  3
SP976522
  1

  0
INSERT
  5
143
100
AcDbEntity
  8
GLAS_MED_FOGNING
100
AcDbBlockReference
  2
*X3
 10
0.0
 20
0.0
 30
0.0
1001
ACAD
1000
HATCH
1002
{
1070
    16
1000
DASH
1040
25.0
1040
2.007129
1002
}
  0
LWPOLYLINE
  5
144
100
AcDbEntity
  8
STALPROFIL
100
AcDbPolyline
 90
        8
 70
     1
 43
1.8
 10
-19.1
 20
23.2
 42
-0.414214
 10
-18.2
 20
24.1
 10
-1.8
 20
24.1
 42
-0.414214
 10
-0.9
 20
23.2
 10
-0.9
 20
-23.2
 42
-0.414214
 10
-1.8
 20
-24.1
 10
-18.2
 20
-24.1
 42
-0.414214
 10
-19.1
 20
-23.2
  0
LWPOLYLINE
  5
145
100
AcDbEntity
  8
SPKONTUR
100
AcDbPolyline
 90
        8
 70
     1
 43
0.0
 10
-20.0
 20
23.2
 42
-0.414214
 10
-18.2
 20
25.0
 10
-1.8
 20
25.0
 42
-0.414214
 10
0.0
 20
23.2
 10
0.0
 20
-23.2
 42
-0.414214
 10
-1.8
 20
-25.0
 10
-18.2
 20
-25.0
 42
-0.414214
 10
-20.0
 20
-23.2
  0
LWPOLYLINE
  5
146
100
AcDbEntity
  8
STALPROFIL
100
AcDbPolyline
 90
       16
 70
     1
 43
1.8
 10
-64.1
 20
0.0
 10
-64.1
 20
-43.2
 42
0.414214
 10
-63.199
 20
-44.1
 42
0.414214
 10
-62.3
 20
-43.201
 10
-62.3
 20
-25.0
 42
-0.414214
 10
-61.4
 20
-24.1
 10
-46.8
 20
-24.1
 42
0.414214
 10
-45.9
 20
-23.2
 10
-45.9
 20
0.0
 10
-45.9
 20
23.2
 42
0.414214
 10
-46.8
 20
24.1
 10
-61.4
 20
24.1
 42
-0.414214
 10
-62.3
 20
25.0
 10
-62.3
 20
43.201
 42
0.414214
 10
-63.2
 20
44.1
 42
0.414214
 10
-64.1
 20
43.2
  0
LWPOLYLINE
  5
147
100
AcDbEntity
  8
SPKONTUR
100
AcDbPolyline
 90
       16
 70
     1
 43
0.0
 10
-65.0
 20
0.0
 10
-65.0
 20
-43.2
 42
0.414214
 10
-63.2
 20
-45.0
 10
-63.199
 20
-45.0
 42
0.414214
 10
-61.4
 20
-43.201
 10
-61.4
 20
-25.0
 10
-46.8
 20
-25.0
 42
0.414214
 10
-45.0
 20
-23.2
 10
-45.0
 20
0.0
 10
-45.0
 20
23.2
 42
0.414214
 10
-46.8
 20
25.0
 10
-61.4
 20
25.0
 10
-61.4
 20
43.201
 42
0.414214
 10
-63.199
 20
45.0
 10
-63.2
 20
45.0
 42
0.414214
 10
-65.0
 20
43.2
  0
LWPOLYLINE
  5
148
100
AcDbEntity
  8
GLAS_MED_FOGNING
100
AcDbPolyline
 90
        4
 70
     0
 43
0.0
 10
-20.0
 20
-23.2
 10
-20.0
 20
-25.0
 10
-45.0
 20
-25.0
 10
-45.0
 20
-23.2
  0
LWPOLYLINE
  5
149
100
AcDbEntity
  8
GLAS_MED_FOGNING
100
AcDbPolyline
 90
        4
 70
     0
 43
0.0
 10
-20.0
 20
23.2
 10
-20.0
 20
25.0
 10
-45.0
 20
25.0
 10
-45.0
 20
23.2
  0
ENDBLK
  5
14B
100
AcDbEntity
  8
0
100
AcDbBlockEnd
  0
BLOCK
  5
155
100
AcDbEntity
  8
0
100
AcDbBlockBegin
  2
SP976523
 70
     0
 10
0.0
 20
0.0
 30
0.0
  3
SP976523
  1

  0
LWPOLYLINE
  5
14E
100
AcDbEntity
  8
SPKONTUR
100
AcDbPolyline
 90
       11
 70
     1
 43
0.0
 10
-61.4
 20
25.0
 10
-46.8
 20
25.0
 42
-0.414214
 10
-45.0
 20
23.2
 10
-45.0
 20
-23.2
 42
-0.414214
 10
-46.8
 20
-25.0
 10
-63.2
 20
-25.0
 42
-0.414214
 10
-65.0
 20
-23.2
 10
-65.0
 20
43.2
 42
-0.414214
 10
-63.2
 20
45.0
 10
-63.199
 20
45.0
 42
-0.414214
 10
-61.4
 20
43.201
  0
LWPOLYLINE
  5
14F
100
AcDbEntity
  8
STALPROFIL
100
AcDbPolyline
 90
       11
 70
     1
 43
1.8
 10
-61.4
 20
24.1
 10
-46.8
 20
24.1
 42
-0.414214
 10
-45.9
 20
23.2
 10
-45.9
 20
-23.2
 42
-0.414214
 10
-46.8
 20
-24.1
 10
-63.2
 20
-24.1
 42
-0.414214
 10
-64.1
 20
-23.2
 10
-64.1
 20
43.2
 42
-0.414214
 10
-63.199
 20
44.1
 42
-0.414214
 10
-62.3
 20
43.201
 10
-62.3
 20
25.0
 42
0.414214
  0
LWPOLYLINE
  5
150
100
AcDbEntity
  8
STALPROFIL
100
AcDbPolyline
 90
       11
 70
     1
 43
1.8
 10
-3.6
 20
-24.1
 10
-18.2
 20
-24.1
 42
-0.414214
 10
-19.1
 20
-23.2
 10
-19.1
 20
23.2
 42
-0.414214
 10
-18.2
 20
24.1
 10
-1.8
 20
24.1
 42
-0.414214
 10
-0.9
 20
23.2
 10
-0.9
 20
-43.2
 42
-0.414214
 10
-1.801
 20
-44.1
 42
-0.414214
 10
-2.7
 20
-43.201
 10
-2.7
 20
-25.0
 42
0.414214
  0
LWPOLYLINE
  5
151
100
AcDbEntity
  8
SPKONTUR
100
AcDbPolyline
 90
       11
 70
     1
 43
0.0
 10
-3.6
 20
-25.0
 10
-18.2
 20
-25.0
 42
-0.414214
 10
-20.0
 20
-23.2
 10
-20.0
 20
23.2
 42
-0.414214
 10
-18.2
 20
25.0
 10
-1.8
 20
25.0
 42
-0.414214
 10
0.0
 20
23.2
 10
0.0
 20
-43.2
 42
-0.414214
 10
-1.8
 20
-45.0
 10
-1.801
 20
-45.0
 42
-0.414214
 10
-3.6
 20
-43.201
  0
INSERT
  5
152
100
AcDbEntity
  8
GLAS_MED_FOGNING
100
AcDbBlockReference
  2
*X3
 10
0.0
 20
0.0
 30
0.0
1001
ACAD
1000
HATCH
1002
{
1070
    16
1000
DASH
1040
25.0
1040
2.007129
1002
}
  0
LWPOLYLINE
  5
153
100
AcDbEntity
  8
GLAS_MED_FOGNING
100
AcDbPolyline
 90
        4
 70
     0
 43
0.0
 10
-20.0
 20
-23.2
 10
-20.0
 20
-25.0
 10
-45.0
 20
-25.0
 10
-45.0
 20
-23.2
  0
LWPOLYLINE
  5
154
100
AcDbEntity
  8
GLAS_MED_FOGNING
100
AcDbPolyline
 90
        4
 70
     0
 43
0.0
 10
-20.0
 20
23.2
 10
-20.0
 20
25.0
 10
-45.0
 20
25.0
 10
-45.0
 20
23.2
  0
ENDBLK
  5
156
100
AcDbEntity
  8
0
100
AcDbBlockEnd
  0
BLOCK
  5
109
100
AcDbEntity
  8
0
100
AcDbBlockBegin
  2
SP976524
 70
     0
 10
0.0
 20
0.0
 30
0.0
  3
SP976524
  1

  0
LWPOLYLINE
  5
102
100
AcDbEntity
  8
SPKONTUR
100
AcDbPolyline
 90
       11
 70
     1
 43
0.0
 10
-3.6
 20
25.0
 10
-18.2
 20
25.0
 42
0.414214
 10
-20.0
 20
23.2
 10
-20.0
 20
-23.2
 42
0.414214
 10
-18.2
 20
-25.0
 10
-1.8
 20
-25.0
 42
0.414214
 10
0.0
 20
-23.2
 10
0.0
 20
43.2
 42
0.414214
 10
-1.8
 20
45.0
 10
-1.801
 20
45.0
 42
0.414214
 10
-3.6
 20
43.201
  0
LWPOLYLINE
  5
103
100
AcDbEntity
  8
STALPROFIL
100
AcDbPolyline
 90
       11
 70
     1
 43
1.8
 10
-3.6
 20
24.1
 10
-18.2
 20
24.1
 42
0.414214
 10
-19.1
 20
23.2
 10
-19.1
 20
-23.2
 42
0.414214
 10
-18.2
 20
-24.1
 10
-1.8
 20
-24.1
 42
0.414214
 10
-0.9
 20
-23.2
 10
-0.9
 20
43.2
 42
0.414214
 10
-1.801
 20
44.1
 42
0.414214
 10
-2.7
 20
43.201
 10
-2.7
 20
25.0
 42
-0.414214
  0
INSERT
  5
104
100
AcDbEntity
  8
GLAS_MED_FOGNING
100
AcDbBlockReference
  2
*X3
 10
0.0
 20
0.0
 30
0.0
1001
ACAD
1000
HATCH
1002
{
1070
    16
1000
DASH
1040
25.0
1040
2.007129
1002
}
  0
LWPOLYLINE
  5
105
100
AcDbEntity
  8
STALPROFIL
100
AcDbPolyline
 90
       11
 70
     1
 43
1.8
 10
-61.4
 20
24.1
 10
-46.8
 20
24.1
 42
-0.414214
 10
-45.9
 20
23.2
 10
-45.9
 20
-23.2
 42
-0.414214
 10
-46.8
 20
-24.1
 10
-63.2
 20
-24.1
 42
-0.414214
 10
-64.1
 20
-23.2
 10
-64.1
 20
43.2
 42
-0.414214
 10
-63.199
 20
44.1
 42
-0.414214
 10
-62.3
 20
43.201
 10
-62.3
 20
25.0
 42
0.414214
  0
LWPOLYLINE
  5
106
100
AcDbEntity
  8
SPKONTUR
100
AcDbPolyline
 90
       11
 70
     1
 43
0.0
 10
-61.4
 20
25.0
 10
-46.8
 20
25.0
 42
-0.414214
 10
-45.0
 20
23.2
 10
-45.0
 20
-23.2
 42
-0.414214
 10
-46.8
 20
-25.0
 10
-63.2
 20
-25.0
 42
-0.414214
 10
-65.0
 20
-23.2
 10
-65.0
 20
43.2
 42
-0.414214
 10
-63.2
 20
45.0
 10
-63.199
 20
45.0
 42
-0.414214
 10
-61.4
 20
43.201
  0
LWPOLYLINE
  5
107
100
AcDbEntity
  8
GLAS_MED_FOGNING
100
AcDbPolyline
 90
        4
 70
     0
 43
0.0
 10
-20.0
 20
-23.2
 10
-20.0
 20
-25.0
 10
-45.0
 20
-25.0
 10
-45.0
 20
-23.2
  0
LWPOLYLINE
  5
108
100
AcDbEntity
  8
GLAS_MED_FOGNING
100
AcDbPolyline
 90
        4
 70
     0
 43
0.0
 10
-20.0
 20
23.2
 10
-20.0
 20
25.0
 10
-45.0
 20
25.0
 10
-45.0
 20
23.2
  0
ENDBLK
  5
10A
100
AcDbEntity
  8
0
100
AcDbBlockEnd
  0
BLOCK
  5
FC
100
AcDbEntity
  8
0
100
AcDbBlockBegin
  2
SP976525
 70
     0
 10
0.0
 20
0.0
 30
0.0
  3
SP976525
  1

  0
INSERT
  5
F5
100
AcDbEntity
  8
GLAS_MED_FOGNING
100
AcDbBlockReference
  2
*X3
 10
0.0
 20
0.0
 30
0.0
1001
ACAD
1000
HATCH
1002
{
1070
    16
1000
DASH
1040
25.0
1040
2.007129
1002
}
  0
LWPOLYLINE
  5
F6
100
AcDbEntity
  8
STALPROFIL
100
AcDbPolyline
 90
       11
 70
     1
 43
1.8
 10
-3.6
 20
24.1
 10
-18.2
 20
24.1
 42
0.414214
 10
-19.1
 20
23.2
 10
-19.1
 20
-23.2
 42
0.414214
 10
-18.2
 20
-24.1
 10
-1.8
 20
-24.1
 42
0.414214
 10
-0.9
 20
-23.2
 10
-0.9
 20
43.2
 42
0.414214
 10
-1.801
 20
44.1
 42
0.414214
 10
-2.7
 20
43.201
 10
-2.7
 20
25.0
 42
-0.414214
  0
LWPOLYLINE
  5
F7
100
AcDbEntity
  8
SPKONTUR
100
AcDbPolyline
 90
       11
 70
     1
 43
0.0
 10
-3.6
 20
25.0
 10
-18.2
 20
25.0
 42
0.414214
 10
-20.0
 20
23.2
 10
-20.0
 20
-23.2
 42
0.414214
 10
-18.2
 20
-25.0
 10
-1.8
 20
-25.0
 42
0.414214
 10
0.0
 20
-23.2
 10
0.0
 20
43.2
 42
0.414214
 10
-1.8
 20
45.0
 10
-1.801
 20
45.0
 42
0.414214
 10
-3.6
 20
43.201
  0
LWPOLYLINE
  5
F8
100
AcDbEntity
  8
SPKONTUR
100
AcDbPolyline
 90
       16
 70
     1
 43
0.0
 10
-65.0
 20
0.0
 10
-65.0
 20
-43.2
 42
0.414214
 10
-63.2
 20
-45.0
 10
-63.199
 20
-45.0
 42
0.414214
 10
-61.4
 20
-43.201
 10
-61.4
 20
-25.0
 10
-46.8
 20
-25.0
 42
0.414214
 10
-45.0
 20
-23.2
 10
-45.0
 20
0.0
 10
-45.0
 20
23.2
 42
0.414214
 10
-46.8
 20
25.0
 10
-61.4
 20
25.0
 10
-61.4
 20
43.201
 42
0.414214
 10
-63.199
 20
45.0
 10
-63.2
 20
45.0
 42
0.414214
 10
-65.0
 20
43.2
  0
LWPOLYLINE
  5
F9
100
AcDbEntity
  8
STALPROFIL
100
AcDbPolyline
 90
       16
 70
     1
 43
1.8
 10
-64.1
 20
0.0
 10
-64.1
 20
-43.2
 42
0.414214
 10
-63.199
 20
-44.1
 42
0.414214
 10
-62.3
 20
-43.201
 10
-62.3
 20
-25.0
 42
-0.414214
 10
-61.4
 20
-24.1
 10
-46.8
 20
-24.1
 42
0.414214
 10
-45.9
 20
-23.2
 10
-45.9
 20
0.0
 10
-45.9
 20
23.2
 42
0.414214
 10
-46.8
 20
24.1
 10
-61.4
 20
24.1
 42
-0.414214
 10
-62.3
 20
25.0
 10
-62.3
 20
43.201
 42
0.414214
 10
-63.2
 20
44.1
 42
0.414214
 10
-64.1
 20
43.2
  0
LWPOLYLINE
  5
FA
100
AcDbEntity
  8
GLAS_MED_FOGNING
100
AcDbPolyline
 90
        4
 70
     0
 43
0.0
 10
-20.0
 20
-23.2
 10
-20.0
 20
-25.0
 10
-45.0
 20
-25.0
 10
-45.0
 20
-23.2
  0
LWPOLYLINE
  5
FB
100
AcDbEntity
  8
GLAS_MED_FOGNING
100
AcDbPolyline
 90
        4
 70
     0
 43
0.0
 10
-20.0
 20
23.2
 10
-20.0
 20
25.0
 10
-45.0
 20
25.0
 10
-45.0
 20
23.2
  0
ENDBLK
  5
FD
100
AcDbEntity
  8
0
100
AcDbBlockEnd
  0
BLOCK
  5
18D
100
AcDbEntity
  8
0
100
AcDbBlockBegin
  2
*X18
 70
     1
 10
0.0
 20
0.0
 30
0.0
  3
*X18
  1
RITRAM
  0
LINE
  5
166
100
AcDbEntity
  8
0
 62
     0
100
AcDbLine
 10
283.676022
 20
-121.821241
 30
0.0
 11
281.116172
 21
-123.613667
 31
0.0
  0
LINE
  5
167
100
AcDbEntity
  8
0
 62
     0
100
AcDbLine
 10
278.556321
 20
-125.406093
 30
0.0
 11
275.996471
 21
-127.19852
 31
0.0
  0
LINE
  5
168
100
AcDbEntity
  8
0
 62
     0
100
AcDbLine
 10
273.436621
 20
-128.990946
 30
0.0
 11
270.876771
 21
-130.783373
 31
0.0
  0
LINE
  5
169
100
AcDbEntity
  8
0
 62
     0
100
AcDbLine
 10
268.316921
 20
-132.575799
 30
0.0
 11
265.757071
 21
-134.368225
 31
0.0
  0
LINE
  5
16A
100
AcDbEntity
  8
0
 62
     0
100
AcDbLine
 10
282.908598
 20
-126.173517
 30
0.0
 11
280.348748
 21
-127.965944
 31
0.0
  0
LINE
  5
16B
100
AcDbEntity
  8
0
 62
     0
100
AcDbLine
 10
277.788898
 20
-129.75837
 30
0.0
 11
275.229048
 21
-131.550796
 31
0.0
  0
LINE
  5
16C
100
AcDbEntity
  8
0
 62
     0
100
AcDbLine
 10
272.669197
 20
-133.343223
 30
0.0
 11
270.109347
 21
-135.135649
 31
0.0
  0
LINE
  5
16D
100
AcDbEntity
  8
0
 62
     0
100
AcDbLine
 10
267.549497
 20
-136.928075
 30
0.0
 11
265.0
 21
-138.713253
 31
0.0
  0
LINE
  5
16E
100
AcDbEntity
  8
0
 62
     0
100
AcDbLine
 10
285.0
 20
-128.524022
 30
0.0
 11
284.701024
 21
-128.733367
 31
0.0
  0
LINE
  5
16F
100
AcDbEntity
  8
0
 62
     0
100
AcDbLine
 10
282.141174
 20
-130.525794
 30
0.0
 11
279.581324
 21
-132.31822
 31
0.0
  0
LINE
  5
170
100
AcDbEntity
  8
0
 62
     0
100
AcDbLine
 10
277.021474
 20
-134.110646
 30
0.0
 11
274.461624
 21
-135.903073
 31
0.0
  0
LINE
  5
171
100
AcDbEntity
  8
0
 62
     0
100
AcDbLine
 10
271.901774
 20
-137.695499
 30
0.0
 11
269.341923
 21
-139.487926
 31
0.0
  0
LINE
  5
172
100
AcDbEntity
  8
0
 62
     0
100
AcDbLine
 10
266.782073
 20
-141.280352
 30
0.0
 11
265.0
 21
-142.528173
 31
0.0
  0
LINE
  5
173
100
AcDbEntity
  8
0
 62
     0
100
AcDbLine
 10
285.0
 20
-132.338943
 30
0.0
 11
283.933601
 21
-133.085644
 31
0.0
  0
LINE
  5
174
100
AcDbEntity
  8
0
 62
     0
100
AcDbLine
 10
281.37375
 20
-134.87807
 30
0.0
 11
278.8139
 21
-136.670497
 31
0.0
  0
LINE
  5
175
100
AcDbEntity
  8
0
 62
     0
100
AcDbLine
 10
276.25405
 20
-138.462923
 30
0.0
 11
273.6942
 21
-140.255349
 31
0.0
  0
LINE
  5
176
100
AcDbEntity
  8
0
 62
     0
100
AcDbLine
 10
271.13435
 20
-142.047776
 30
0.0
 11
268.5745
 21
-143.840202
 31
0.0
  0
LINE
  5
177
100
AcDbEntity
  8
0
 62
     0
100
AcDbLine
 10
285.0
 20
-136.153864
 30
0.0
 11
283.166177
 21
-137.43792
 31
0.0
  0
LINE
  5
178
100
AcDbEntity
  8
0
 62
     0
100
AcDbLine
 10
280.606327
 20
-139.230347
 30
0.0
 11
278.046477
 21
-141.022773
 31
0.0
  0
LINE
  5
179
100
AcDbEntity
  8
0
 62
     0
100
AcDbLine
 10
275.486626
 20
-142.815199
 30
0.0
 11
272.926776
 21
-144.607626
 31
0.0
  0
LINE
  5
17A
100
AcDbEntity
  8
0
 62
     0
100
AcDbLine
 10
284.958603
 20
-139.997771
 30
0.0
 11
282.398753
 21
-141.790197
 31
0.0
  0
LINE
  5
17B
100
AcDbEntity
  8
0
 62
     0
100
AcDbLine
 10
279.838903
 20
-143.582623
 30
0.0
 11
277.814679
 21
-145.0
 31
0.0
  0
LINE
  5
17C
100
AcDbEntity
  8
0
 62
     0
100
AcDbLine
 10
284.191179
 20
-144.350047
 30
0.0
 11
283.26295
 21
-145.0
 31
0.0
  0
LINE
  5
17D
100
AcDbEntity
  8
0
 62
     0
100
AcDbLine
 10
284.443446
 20
-117.468964
 30
0.0
 11
281.883595
 21
-119.261391
 31
0.0
  0
LINE
  5
17E
100
AcDbEntity
  8
0
 62
     0
100
AcDbLine
 10
279.323745
 20
-121.053817
 30
0.0
 11
276.763895
 21
-122.846243
 31
0.0
  0
LINE
  5
17F
100
AcDbEntity
  8
0
 62
     0
100
AcDbLine
 10
274.204045
 20
-124.63867
 30
0.0
 11
271.644195
 21
-126.431096
 31
0.0
  0
LINE
  5
180
100
AcDbEntity
  8
0
 62
     0
100
AcDbLine
 10
269.084345
 20
-128.223522
 30
0.0
 11
266.524495
 21
-130.015949
 31
0.0
  0
LINE
  5
181
100
AcDbEntity
  8
0
 62
     0
100
AcDbLine
 10
285.0
 20
-113.26434
 30
0.0
 11
282.651019
 21
-114.909114
 31
0.0
  0
LINE
  5
182
100
AcDbEntity
  8
0
 62
     0
100
AcDbLine
 10
280.091169
 20
-116.70154
 30
0.0
 11
277.531319
 21
-118.493967
 31
0.0
  0
LINE
  5
183
100
AcDbEntity
  8
0
 62
     0
100
AcDbLine
 10
274.971469
 20
-120.286393
 30
0.0
 11
272.411619
 21
-122.07882
 31
0.0
  0
LINE
  5
184
100
AcDbEntity
  8
0
 62
     0
100
AcDbLine
 10
269.851768
 20
-123.871246
 30
0.0
 11
267.291918
 21
-125.663672
 31
0.0
  0
LINE
  5
185
100
AcDbEntity
  8
0
 62
     0
100
AcDbLine
 10
279.929245
 20
-113.0
 30
0.0
 11
278.298743
 21
-114.14169
 31
0.0
  0
LINE
  5
186
100
AcDbEntity
  8
0
 62
     0
100
AcDbLine
 10
275.738893
 20
-115.934117
 30
0.0
 11
273.179042
 21
-117.726543
 31
0.0
  0
LINE
  5
187
100
AcDbEntity
  8
0
 62
     0
100
AcDbLine
 10
270.619192
 20
-119.518969
 30
0.0
 11
268.059342
 21
-121.311396
 31
0.0
  0
LINE
  5
188
100
AcDbEntity
  8
0
 62
     0
100
AcDbLine
 10
265.499492
 20
-123.103822
 30
0.0
 11
265.0
 21
-123.45357
 31
0.0
  0
LINE
  5
189
100
AcDbEntity
  8
0
 62
     0
100
AcDbLine
 10
274.480974
 20
-113.0
 30
0.0
 11
273.946466
 21
-113.374267
 31
0.0
  0
LINE
  5
18A
100
AcDbEntity
  8
0
 62
     0
100
AcDbLine
 10
271.386616
 20
-115.166693
 30
0.0
 11
268.826766
 21
-116.959119
 31
0.0
  0
LINE
  5
18B
100
AcDbEntity
  8
0
 62
     0
100
AcDbLine
 10
266.266916
 20
-118.751546
 30
0.0
 11
265.0
 21
-119.63865
 31
0.0
  0
LINE
  5
18C
100
AcDbEntity
  8
0
 62
     0
100
AcDbLine
 10
267.03434
 20
-114.399269
 30
0.0
 11
265.0
 21
-115.823729
 31
0.0
  0
ENDBLK
  5
18E
100
AcDbEntity
  8
0
100
AcDbBlockEnd
  0
BLOCK
  5
19A
100
AcDbEntity
  8
0
100
AcDbBlockBegin
  2
SP976521_720_32
 70
     0
 10
0.0
 20
0.0
 30
0.0
  3
SP976521_720_32
  1

  0
LINE
  5
190
100
AcDbEntity
  8
GLAS_MED_FOGNING
100
AcDbLine
 10
10.0
 20
-30.0
 30
0.0
 11
10.0
 21
-62.0
 31
0.0
  0
LWPOLYLINE
  5
191
100
AcDbEntity
  8
GLAS_MED_FOGNING
100
AcDbPolyline
 90
        3
 70
     0
 43
0.0
 10
8.2
 20
-30.0
 10
10.0
 20
-30.0
 10
10.0
 20
-62.0
  0
LWPOLYLINE
  5
192
100
AcDbEntity
  8
GLAS_MED_FOGNING
100
AcDbPolyline
 90
        3
 70
     0
 43
0.0
 10
-8.2
 20
-30.0
 10
-10.0
 20
-30.0
 10
-10.0
 20
-62.0
  0
INSERT
  5
193
100
AcDbEntity
  8
GLAS_MED_FOGNING
100
AcDbBlockReference
  2
*X18
 10
-275.0
 20
83.0
 30
0.0
1001
ACAD
1000
HATCH
1002
{
1070
    16
1000
DASH
1040
25.0
1040
3.752458
1002
}
  0
LWPOLYLINE
  5
194
100
AcDbEntity
  8
STALPROFIL
100
AcDbPolyline
 90
        2
 70
     0
 43
3.0
 10
-10.0
 20
-63.5
 10
30.0
 20
-63.5
  0
LINE
  5
195
100
AcDbEntity
  8
SPKONTUR
100
AcDbLine
 10
-10.0
 20
-65.0
 30
0.0
 11
30.0
 21
-65.0
 31
0.0
  0
LINE
  5
196
100
AcDbEntity
  8
GLAS_MED_FOGNING
100
AcDbLine
 10
10.0
 20
-62.0
 30
0.0
 11
-10.0
 21
-62.0
 31
0.0
  0
LWPOLYLINE
  5
197
100
AcDbEntity
  8
STALPROFIL
100
AcDbPolyline
 90
        8
 70
     1
 43
1.8
 10
-8.2
 20
-29.1
 42
-0.414214
 10
-9.1
 20
-28.2
 10
-9.1
 20
-1.8
 42
-0.414214
 10
-8.2
 20
-0.9
 10
8.2
 20
-0.9
 42
-0.414214
 10
9.1
 20
-1.8
 10
9.1
 20
-28.2
 42
-0.414214
 10
8.2
 20
-29.1
  0
LWPOLYLINE
  5
198
100
AcDbEntity
  8
SPKONTUR
100
AcDbPolyline
 90
        8
 70
     1
 43
0.0
 10
-8.2
 20
-30.0
 42
-0.414214
 10
-10.0
 20
-28.2
 10
-10.0
 20
-1.8
 42
-0.414214
 10
-8.2
 20
0.0
 10
8.2
 20
0.0
 42
-0.414214
 10
10.0
 20
-1.8
 10
10.0
 20
-28.2
 42
-0.414214
 10
8.2
 20
-30.0
  0
LINE
  5
199
100
AcDbEntity
  8
GLAS_MED_FOGNING
100
AcDbLine
 10
10.0
 20
-30.0
 30
0.0
 11
-10.0
 21
-30.0
 31
0.0
  0
ENDBLK
  5
19B
100
AcDbEntity
  8
0
100
AcDbBlockEnd
  0
BLOCK
  5
1A7
100
AcDbEntity
  8
0
100
AcDbBlockBegin
  2
SP976522_720_32
 70
     0
 10
0.0
 20
0.0
 30
0.0
  3
SP976522_720_32
  1

  0
LINE
  5
19D
100
AcDbEntity
  8
GLAS_MED_FOGNING
100
AcDbLine
 10
10.0
 20
-30.0
 30
0.0
 11
10.0
 21
-62.0
 31
0.0
  0
LWPOLYLINE
  5
19E
100
AcDbEntity
  8
GLAS_MED_FOGNING
100
AcDbPolyline
 90
        3
 70
     0
 43
0.0
 10
8.2
 20
-30.0
 10
10.0
 20
-30.0
 10
10.0
 20
-62.0
  0
LWPOLYLINE
  5
19F
100
AcDbEntity
  8
GLAS_MED_FOGNING
100
AcDbPolyline
 90
        3
 70
     0
 43
0.0
 10
-8.2
 20
-30.0
 10
-10.0
 20
-30.0
 10
-10.0
 20
-62.0
  0
INSERT
  5
1A0
100
AcDbEntity
  8
GLAS_MED_FOGNING
100
AcDbBlockReference
  2
*X18
 10
-275.0
 20
83.0
 30
0.0
1001
ACAD
1000
HATCH
1002
{
1070
    16
1000
DASH
1040
25.0
1040
3.752458
1002
}
  0
LWPOLYLINE
  5
1A1
100
AcDbEntity
  8
STALPROFIL
100
AcDbPolyline
 90
        2
 70
     0
 43
3.0
 10
-30.0
 20
-63.5
 10
30.0
 20
-63.5
  0
LINE
  5
1A2
100
AcDbEntity
  8
SPKONTUR
100
AcDbLine
 10
-30.0
 20
-65.0
 30
0.0
 11
30.0
 21
-65.0
 31
0.0
  0
LINE
  5
1A3
100
AcDbEntity
  8
GLAS_MED_FOGNING
100
AcDbLine
 10
10.0
 20
-62.0
 30
0.0
 11
-10.0
 21
-62.0
 31
0.0
  0
LINE
  5
1A4
100
AcDbEntity
  8
GLAS_MED_FOGNING
100
AcDbLine
 10
-10.0
 20
-30.0
 30
0.0
 11
10.0
 21
-30.0
 31
0.0
  0
LWPOLYLINE
  5
1A5
100
AcDbEntity
  8
STALPROFIL
100
AcDbPolyline
 90
        8
 70
     1
 43
1.8
 10
-8.2
 20
-29.1
 42
-0.414214
 10
-9.1
 20
-28.2
 10
-9.1
 20
-1.8
 42
-0.414214
 10
-8.2
 20
-0.9
 10
8.2
 20
-0.9
 42
-0.414214
 10
9.1
 20
-1.8
 10
9.1
 20
-28.2
 42
-0.414214
 10
8.2
 20
-29.1
  0
LWPOLYLINE
  5
1A6
100
AcDbEntity
  8
SPKONTUR
100
AcDbPolyline
 90
        8
 70
     1
 43
0.0
 10
-8.2
 20
-30.0
 42
-0.414214
 10
-10.0
 20
-28.2
 10
-10.0
 20
-1.8
 42
-0.414214
 10
-8.2
 20
0.0
 10
8.2
 20
0.0
 42
-0.414214
 10
10.0
 20
-1.8
 10
10.0
 20
-28.2
 42
-0.414214
 10
8.2
 20
-30.0
  0
ENDBLK
  5
1A8
100
AcDbEntity
  8
0
100
AcDbBlockEnd
  0
BLOCK
  5
1AF
100
AcDbEntity
  8
0
100
AcDbBlockBegin
  2
A$C0DC63504
 70
     0
 10
0.0
 20
0.0
 30
0.0
  3
A$C0DC63504
  1

  0
LWPOLYLINE
  5
1AA
100
AcDbEntity
  8
RAM
 62
     5
100
AcDbPolyline
 90
        4
 70
     1
 43
0.0
 10
360.0
 20
0.0
 10
360.0
 20
525.0
 10
0.0
 20
525.0
 10
0.0
 20
0.0
  0
TEXT
  5
1AB
100
AcDbEntity
  8
0
  6
BYBLOCK
 62
     6
100
AcDbText
 10
197.6
 20
436.980781
 30
0.0
 40
4.2
  1
%%USP 76522/720/32
 50
90.0
 41
0.8
  7
ROMANS
 72
     4
 11
195.8
 21
460.968781
 31
0.0
100
AcDbText
  0
TEXT
  5
1AC
100
AcDbEntity
  8
0
  6
BYBLOCK
 62
     6
100
AcDbText
 10
87.6
 20
435.980781
 30
0.0
 40
4.2
  1
%%USP 76521/720/32
 50
90.0
 41
0.8
  7
ROMANS
 72
     4
 11
85.8
 21
459.968781
 31
0.0
100
AcDbText
  0
INSERT
  5
1AD
100
AcDbEntity
  8
GLAS_MED_FOGNING
100
AcDbBlockReference
  2
SP976522_720_32
 10
175.0
 20
490.0
 30
0.0
  0
INSERT
  5
1AE
100
AcDbEntity
  8
GLAS_MED_FOGNING
100
AcDbBlockReference
  2
SP976521_720_32
 10
65.0
 20
490.0
 30
0.0
  0
ENDBLK
  5
1B0
100
AcDbEntity
  8
0
100
AcDbBlockEnd
  0
ENDSEC
  0
SECTION
  2
ENTITIES
  0
INSERT
  5
1D
100
AcDbEntity
  8
0
100
AcDbBlockReference
  2
SIDA
 10
0.0
 20
0.0
 30
0.0
  0
INSERT
  5
30
100
AcDbEntity
  8
0
100
AcDbBlockReference
  2
SP976521
 10
-165.0
 20
105.0
 30
0.0
  0
TEXT
  5
89
100
AcDbEntity
  8
TEXT
100
AcDbText
 10
-218.0
 20
88.266667
 30
0.0
 40
5.0
  1
%%USP 976521
 50
90.0
 41
0.8
  7
ROMANS
 72
     1
 11
-218.0
 21
105.0
 31
0.0
100
AcDbText
  0
INSERT
  5
8C
100
AcDbEntity
  8
0
100
AcDbBlockReference
  2
SP976513
 10
-285.0
 20
105.0
 30
0.0
  0
TEXT
  5
AA
100
AcDbEntity
  8
TEXT
100
AcDbText
 10
-338.0
 20
88.252381
 30
0.0
 40
5.0
  1
%%USP 976513
 50
90.0
 41
0.8
  7
ROMANS
 72
     1
 11
-338.0
 21
105.0
 31
0.0
100
AcDbText
  0
TEXT
  5
AB
100
AcDbEntity
  8
TEXT
100
AcDbText
 10
-338.0
 20
218.252381
 30
0.0
 40
5.0
  1
%%USP 976512
 50
90.0
 41
0.8
  7
ROMANS
 72
     1
 11
-338.0
 21
235.0
 31
0.0
100
AcDbText
  0
INSERT
  5
AC
100
AcDbEntity
  8
0
100
AcDbBlockReference
  2
SP976512
 10
-285.0
 20
235.0
 30
0.0
  0
INSERT
  5
B8
100
AcDbEntity
  8
0
100
AcDbBlockReference
  2
SP976520-20
 10
-165.0
 20
200.0
 30
0.0
  0
TEXT
  5
E5
100
AcDbEntity
  8
TEXT
100
AcDbText
 10
-238.0
 20
177.347619
 30
0.0
 40
5.0
  1
%%USP 976520/20
 50
90.0
 41
0.8
  7
ROMANS
 72
     1
 11
-238.0
 21
200.0
 31
0.0
100
AcDbText
  0
TEXT
  5
E6
100
AcDbEntity
  8
TEXT
100
AcDbText
 10
-218.0
 20
248.252381
 30
0.0
 40
5.0
  1
%%USP 976520
 50
90.0
 41
0.8
  7
ROMANS
 72
     1
 11
-218.0
 21
265.0
 31
0.0
100
AcDbText
  0
INSERT
  5
E7
100
AcDbEntity
  8
0
100
AcDbBlockReference
  2
SP976520
 10
-165.0
 20
265.0
 30
0.0
  0
TEXT
  5
F2
100
AcDbEntity
  8
TEXT
100
AcDbText
 10
-98.0
 20
88.252381
 30
0.0
 40
5.0
  1
%%USP 976525
 50
90.0
 41
0.8
  7
ROMANS
 72
     1
 11
-98.0
 21
105.0
 31
0.0
100
AcDbText
  0
INSERT
  5
F3
100
AcDbEntity
  8
0
100
AcDbBlockReference
  2
SP976525
 10
-45.0
 20
105.0
 30
0.0
  0
TEXT
  5
FE
100
AcDbEntity
  8
TEXT
100
AcDbText
 10
-100.619048
 20
25.0
 30
0.0
 40
5.0
  1
File name  %%U9765PAGE22
 41
0.8
  7
ROMANS
 72
     2
 11
-25.0
 21
25.0
 31
0.0
100
AcDbText
  0
TEXT
  5
FF
100
AcDbEntity
  8
TEXT
100
AcDbText
 10
-89.761905
 20
40.0
 30
0.0
 40
5.0
  1
SP 976500  %%UPAGE22
 41
0.8
  7
ROMANS
 72
     2
 11
-25.0
 21
40.0
 31
0.0
100
AcDbText
  0
INSERT
  5
100
100
AcDbEntity
  8
0
100
AcDbBlockReference
  2
SP976524
 10
-45.0
 20
235.0
 30
0.0
  0
TEXT
  5
10B
100
AcDbEntity
  8
TEXT
100
AcDbText
 10
-98.0
 20
218.157143
 30
0.0
 40
5.0
  1
%%USP 976524
 50
90.0
 41
0.8
  7
ROMANS
 72
     1
 11
-98.0
 21
235.0
 31
0.0
100
AcDbText
  0
TEXT
  5
10C
100
AcDbEntity
  8
TEXT
100
AcDbText
 10
-218.0
 20
478.157143
 30
0.0
 40
5.0
  1
%%USP 976514
 50
90.0
 41
0.8
  7
ROMANS
 72
     1
 11
-218.0
 21
495.0
 31
0.0
100
AcDbText
  0
TEXT
  5
10D
100
AcDbEntity
  8
TEXT
100
AcDbText
 10
-338.0
 20
478.252381
 30
0.0
 40
5.0
  1
%%USP 976510
 50
90.0
 41
0.8
  7
ROMANS
 72
     1
 11
-338.0
 21
495.0
 31
0.0
100
AcDbText
  0
INSERT
  5
10E
100
AcDbEntity
  8
0
100
AcDbBlockReference
  2
SP976514
 10
-165.0
 20
495.0
 30
0.0
  0
INSERT
  5
11A
100
AcDbEntity
  8
0
100
AcDbBlockReference
  2
SP976510
 10
-285.0
 20
495.0
 30
0.0
  0
INSERT
  5
126
100
AcDbEntity
  8
0
100
AcDbBlockReference
  2
SP976511
 10
-285.0
 20
365.0
 30
0.0
  0
TEXT
  5
132
100
AcDbEntity
  8
TEXT
100
AcDbText
 10
-338.0
 20
348.266667
 30
0.0
 40
5.0
  1
%%USP 976511
 50
90.0
 41
0.8
  7
ROMANS
 72
     1
 11
-338.0
 21
365.0
 31
0.0
100
AcDbText
  0
INSERT
  5
133
100
AcDbEntity
  8
0
100
AcDbBlockReference
  2
SP976515
 10
-165.0
 20
365.0
 30
0.0
  0
TEXT
  5
13F
100
AcDbEntity
  8
TEXT
100
AcDbText
 10
-218.0
 20
348.252381
 30
0.0
 40
5.0
  1
%%USP 976515
 50
90.0
 41
0.8
  7
ROMANS
 72
     1
 11
-218.0
 21
365.0
 31
0.0
100
AcDbText
  0
TEXT
  5
140
100
AcDbEntity
  8
TEXT
100
AcDbText
 10
-98.0
 20
478.252381
 30
0.0
 40
5.0
  1
%%USP 976522
 50
90.0
 41
0.8
  7
ROMANS
 72
     1
 11
-98.0
 21
495.0
 31
0.0
100
AcDbText
  0
INSERT
  5
141
100
AcDbEntity
  8
0
100
AcDbBlockReference
  2
SP976522
 10
-45.0
 20
495.0
 30
0.0
  0
INSERT
  5
14C
100
AcDbEntity
  8
0
100
AcDbBlockReference
  2
SP976523
 10
-45.0
 20
365.0
 30
0.0
  0
TEXT
  5
157
100
AcDbEntity
  8
TEXT
100
AcDbText
 10
-98.0
 20
348.252381
 30
0.0
 40
5.0
  1
%%USP 976523
 50
90.0
 41
0.8
  7
ROMANS
 72
     1
 11
-98.0
 21
365.0
 31
0.0
100
AcDbText
  0
LWPOLYLINE
  5
1B2
100
AcDbEntity
  8
RAM
 62
     5
100
AcDbPolyline
 90
        4
 70
     1
 43
0.0
 10
-385.0
 20
35.0
 10
-385.0
 20
560.0
 10
-745.0
 20
560.0
 10
-745.0
 20
35.0
  0
TEXT
  5
1B3
100
AcDbEntity
  8
0
  6
BYBLOCK
 62
     6
100
AcDbText
 10
-547.4
 20
470.380781
 30
0.0
 40
4.2
  1
%%USP 976522/720/32
 50
90.0
 41
0.8
  7
ROMANS
 72
     4
 11
-549.2
 21
495.968781
 31
0.0
100
AcDbText
  0
TEXT
  5
1B4
100
AcDbEntity
  8
0
  6
BYBLOCK
 62
     6
100
AcDbText
 10
-657.4
 20
469.380781
 30
0.0
 40
4.2
  1
%%USP 976521/720/32
 50
90.0
 41
0.8
  7
ROMANS
 72
     4
 11
-659.2
 21
494.968781
 31
0.0
100
AcDbText
  0
INSERT
  5
1B5
100
AcDbEntity
  8
GLAS_MED_FOGNING
100
AcDbBlockReference
  2
SP976522_720_32
 10
-570.0
 20
525.0
 30
0.0
  0
INSERT
  5
1B6
100
AcDbEntity
  8
GLAS_MED_FOGNING
100
AcDbBlockReference
  2
SP976521_720_32
 10
-680.0
 20
525.0
 30
0.0
  0
ENDSEC
  0
SECTION
  2
OBJECTS
  0
DICTIONARY
  5
1A
100
AcDbDictionary
  3
ACAD_GROUP
350
18
  3
ACAD_LAYOUT
350
1BE
  3
ACAD_MLINESTYLE
350
19
  3
ACAD_PLOTSETTINGS
350
1BF
  3
ACAD_PLOTSTYLENAME
350
1BC
  3
ACDBHEADERROUNDTRIPXREC
350
1C8
  0
DICTIONARY
  5
1C6
100
AcDbDictionary
280
     1
  3
ACAD_XREC_ROUNDTRIP
360
1C7
  0
DICTIONARY
  5
1E8
100
AcDbDictionary
280
     1
  3
ACAD_LAYOUTSELFREF
360
1E9
  0
DICTIONARY
  5
1EA
100
AcDbDictionary
280
     1
  3
ACAD_LAYOUTSELFREF
360
1EB
  0
DICTIONARY
  5
18
102
{ACAD_REACTORS
330
1A
102
}
100
AcDbDictionary
  0
DICTIONARY
  5
1BE
102
{ACAD_XDICTIONARY
360
1FB
102
}
102
{ACAD_REACTORS
330
1A
102
}
100
AcDbDictionary
  3
LAYOUT1
350
1C1
  3
MODEL
350
1C0
  0
DICTIONARY
  5
19
102
{ACAD_REACTORS
330
1A
102
}
100
AcDbDictionary
  3
STANDARD
350
1B
  0
DICTIONARY
  5
1BF
102
{ACAD_REACTORS
330
1A
102
}
100
AcDbDictionary
  0
ACAD_PROXY_OBJECT
  5
1BC
102
{ACAD_REACTORS
330
1A
102
}
100
AcDbProxyObject
 90
      499
 91
      501
 93
       86
310
405010041939BDC9B585B1
350
1BD
340
1BD
 94
        0
  0
DICTIONARY
  5
1C8
102
{ACAD_REACTORS
330
1A
102
}
100
AcDbDictionary
  3
CEPSNTYPE
350
1D2
  3
FINGERPRINTGUID
350
1D3
  3
HYPERLINKBASE
350
1CB
  3
INSUNITS
350
1D1
  3
LAYOUTDICT
350
1CD
  3
LWETCUNION
350
1D0
  3
PLOTSETDICT
350
1CE
  3
PLOTSTYLNAMDICT
350
1CF
  3
PSVPSCALE
350
1D5
  3
PUCSBASE
350
1D8
  3
PUCSORGBACK
350
1DE
  3
PUCSORGBOTTOM
350
1DA
  3
PUCSORGFRONT
350
1DD
  3
PUCSORGLEFT
350
1DB
  3
PUCSORGRIGHT
350
1DC
  3
PUCSORGTOP
350
1D9
  3
PUCSORTHOREF
350
1D6
  3
PUCSORTHOVIEW
350
1D7
  3
STYLESHEET
350
1CC
  3
TSTACKALIGN
350
1C9
  3
TSTACKSIZE
350
1CA
  3
UCSBASE
350
1E1
  3
UCSORGBACK
350
1E7
  3
UCSORGBOTTOM
350
1E3
  3
UCSORGFRONT
350
1E6
  3
UCSORGLEFT
350
1E4
  3
UCSORGRIGHT
350
1E5
  3
UCSORGTOP
350
1E2
  3
UCSORTHOREF
350
1DF
  3
UCSORTHOVIEW
350
1E0
  3
VERSIONGUID
350
1D4
  0
XRECORD
  5
1C7
102
{ACAD_REACTORS
330
1C6
102
}
100
AcDbXrecord
102
EXTNAMES
  1
*ACTIVE
  2
*Active
102
UCS
 74
     0
 71
     1
 10
0.0
 20
0.0
 30
0.0
 10
1.0
 20
0.0
 30
0.0
 10
0.0
 20
1.0
 30
0.0
146
0.0
 79
     0
102
VIEW
281
     0
  0
XRECORD
  5
1E9
102
{ACAD_REACTORS
330
1E8
102
}
100
AcDbXrecord
340
2
  0
XRECORD
  5
1EB
102
{ACAD_REACTORS
330
1EA
102
}
100
AcDbXrecord
340
7
  0
DICTIONARY
  5
1FB
100
AcDbDictionary
280
     1
  3
ACAD_XREC_ROUNDTRIP
360
1FC
  0
ACAD_PROXY_OBJECT
  5
1C1
102
{ACAD_REACTORS
330
1BE
102
}
100
AcDbProxyObject
 90
      499
 91
      503
 93
     1092
310
91D4850204C617365724A65742034562F344D5620506F73745363726970742C00AAAAAA416AA591069074C61796F75743140501A800000000000000000000000000000000000000000101E900000000000241C902A6A6A10232D5E076BC5510408CB5781DAF154410232D5E076BC5510408CB5781DAF15C410232D5E076BC5
310
710408CB5781DAF15C40
330
7
330
0
340
0
340
0
 94
        0
  0
ACAD_PROXY_OBJECT
  5
1C0
102
{ACAD_REACTORS
330
1BE
102
}
100
AcDbProxyObject
 90
      499
 91
      503
 93
      668
310
91D4850204C617365724A65742034562F344D5620506F73745363726970742C01AAAAAAAAA5A69054D6F64656C901A800000000000000000000000000000000000000000000A1000000000000008902A6A6AAAA0
330
2
330
0
340
0
340
0
 94
        0
  0
MLINESTYLE
  5
1B
102
{ACAD_REACTORS
330
19
102
}
100
AcDbMlineStyle
  2
STANDARD
 70
     0
  3

 62
     0
 51
90.0
 52
90.0
 71
     2
 49
0.5
 62
   256
  6
BYLAYER
 49
-0.5
 62
   256
  6
BYLAYER
  0
ACAD_PROXY_OBJECT
  5
1BD
102
{ACAD_REACTORS
330
1BC
102
}
100
AcDbProxyObject
 90
      499
 91
      502
 93
        0
 94
        0
  0
XRECORD
  5
1D2
102
{ACAD_REACTORS
330
1C8
102
}
100
AcDbXrecord
 90
        0
  0
XRECORD
  5
1D3
102
{ACAD_REACTORS
330
1C8
102
}
100
AcDbXrecord
  1
{DCFA0B2C-0BE8-11D6-AA0B-00D0B7E2A69D}
  0
XRECORD
  5
1CB
102
{ACAD_REACTORS
330
1C8
102
}
100
AcDbXrecord
  1

  0
XRECORD
  5
1D1
102
{ACAD_REACTORS
330
1C8
102
}
100
AcDbXrecord
 90
        0
  0
XRECORD
  5
1CD
102
{ACAD_REACTORS
330
1C8
102
}
100
AcDbXrecord
340
1BE
  0
XRECORD
  5
1D0
102
{ACAD_REACTORS
330
1C8
102
}
100
AcDbXrecord
 90
    14877
  0
XRECORD
  5
1CE
102
{ACAD_REACTORS
330
1C8
102
}
100
AcDbXrecord
340
1BF
  0
XRECORD
  5
1CF
102
{ACAD_REACTORS
330
1C8
102
}
100
AcDbXrecord
340
1BC
  0
XRECORD
  5
1D5
102
{ACAD_REACTORS
330
1C8
102
}
100
AcDbXrecord
 40
0.0
  0
XRECORD
  5
1D8
102
{ACAD_REACTORS
330
1C8
102
}
100
AcDbXrecord
340
0
  0
XRECORD
  5
1DE
102
{ACAD_REACTORS
330
1C8
102
}
100
AcDbXrecord
 10
0.0
 20
0.0
 30
0.0
  0
XRECORD
  5
1DA
102
{ACAD_REACTORS
330
1C8
102
}
100
AcDbXrecord
 10
0.0
 20
0.0
 30
0.0
  0
XRECORD
  5
1DD
102
{ACAD_REACTORS
330
1C8
102
}
100
AcDbXrecord
 10
0.0
 20
0.0
 30
0.0
  0
XRECORD
  5
1DB
102
{ACAD_REACTORS
330
1C8
102
}
100
AcDbXrecord
 10
0.0
 20
0.0
 30
0.0
  0
XRECORD
  5
1DC
102
{ACAD_REACTORS
330
1C8
102
}
100
AcDbXrecord
 10
0.0
 20
0.0
 30
0.0
  0
XRECORD
  5
1D9
102
{ACAD_REACTORS
330
1C8
102
}
100
AcDbXrecord
 10
0.0
 20
0.0
 30
0.0
  0
XRECORD
  5
1D6
102
{ACAD_REACTORS
330
1C8
102
}
100
AcDbXrecord
340
0
  0
XRECORD
  5
1D7
102
{ACAD_REACTORS
330
1C8
102
}
100
AcDbXrecord
 70
     0
  0
XRECORD
  5
1CC
102
{ACAD_REACTORS
330
1C8
102
}
100
AcDbXrecord
  1

  0
XRECORD
  5
1C9
102
{ACAD_REACTORS
330
1C8
102
}
100
AcDbXrecord
 90
        1
  0
XRECORD
  5
1CA
102
{ACAD_REACTORS
330
1C8
102
}
100
AcDbXrecord
 90
       70
  0
XRECORD
  5
1E1
102
{ACAD_REACTORS
330
1C8
102
}
100
AcDbXrecord
340
0
  0
XRECORD
  5
1E7
102
{ACAD_REACTORS
330
1C8
102
}
100
AcDbXrecord
 10
0.0
 20
0.0
 30
0.0
  0
XRECORD
  5
1E3
102
{ACAD_REACTORS
330
1C8
102
}
100
AcDbXrecord
 10
0.0
 20
0.0
 30
0.0
  0
XRECORD
  5
1E6
102
{ACAD_REACTORS
330
1C8
102
}
100
AcDbXrecord
 10
0.0
 20
0.0
 30
0.0
  0
XRECORD
  5
1E4
102
{ACAD_REACTORS
330
1C8
102
}
100
AcDbXrecord
 10
0.0
 20
0.0
 30
0.0
  0
XRECORD
  5
1E5
102
{ACAD_REACTORS
330
1C8
102
}
100
AcDbXrecord
 10
0.0
 20
0.0
 30
0.0
  0
XRECORD
  5
1E2
102
{ACAD_REACTORS
330
1C8
102
}
100
AcDbXrecord
 10
0.0
 20
0.0
 30
0.0
  0
XRECORD
  5
1DF
102
{ACAD_REACTORS
330
1C8
102
}
100
AcDbXrecord
340
0
  0
XRECORD
  5
1E0
102
{ACAD_REACTORS
330
1C8
102
}
100
AcDbXrecord
 70
     0
  0
XRECORD
  5
1D4
102
{ACAD_REACTORS
330
1C8
102
}
100
AcDbXrecord
  1
{DCFA0B2E-0BE8-11D6-AA0B-00D0B7E2A69D}
  0
XRECORD
  5
1FC
102
{ACAD_REACTORS
330
1FB
102
}
100
AcDbXrecord
102
EXTNAMES
  1
LAYOUT1
  2
Layout1
  1
MODEL
  2
Model
  0
ENDSEC
  0
EOF
