  0
SECTION
  2
HEADER
  9
$ACADVER
  1
AC1014
  9
$ACADMAINTVER
 70
     0
  9
$DWGCODEPAGE
  3
ANSI_1252
  9
$INSBASE
 10
-5.0
 20
20.0
 30
0.0
  9
$EXTMIN
 10
-380.0
 20
24.0
 30
0.0
  9
$EXTMAX
 10
-20.0
 20
560.0
 30
0.0
  9
$LIMMIN
 10
0.0
 20
0.0
  9
$LIMMAX
 10
840.0
 20
600.0
  9
$ORTHOMODE
 70
     0
  9
$REGENMODE
 70
     1
  9
$FILLMODE
 70
     1
  9
$QTEXTMODE
 70
     0
  9
$MIRRTEXT
 70
     1
  9
$DRAGMODE
 70
     2
  9
$LTSCALE
 40
5.0
  9
$OSMODE
 70
   547
  9
$ATTMODE
 70
     1
  9
$TEXTSIZE
 40
3.15
  9
$TRACEWID
 40
0.05
  9
$TEXTSTYLE
  7
STANDARD
  9
$CLAYER
  8
0
  9
$CELTYPE
  6
BYLAYER
  9
$CECOLOR
 62
   256
  9
$CELTSCALE
 40
1.0
  9
$DELOBJ
 70
     1
  9
$DISPSILH
 70
     0
  9
$DIMSCALE
 40
1.0
  9
$DIMASZ
 40
0.0
  9
$DIMEXO
 40
1.0
  9
$DIMDLI
 40
10.0
  9
$DIMRND
 40
0.0
  9
$DIMDLE
 40
0.0
  9
$DIMEXE
 40
2.0
  9
$DIMTP
 40
0.0
  9
$DIMTM
 40
0.0
  9
$DIMTXT
 40
3.5
  9
$DIMCEN
 40
2.5
  9
$DIMTSZ
 40
1.0
  9
$DIMTOL
 70
     0
  9
$DIMLIM
 70
     0
  9
$DIMTIH
 70
     0
  9
$DIMTOH
 70
     0
  9
$DIMSE1
 70
     0
  9
$DIMSE2
 70
     0
  9
$DIMTAD
 70
     1
  9
$DIMZIN
 70
     8
  9
$DIMBLK
  1

  9
$DIMASO
 70
     1
  9
$DIMSHO
 70
     1
  9
$DIMPOST
  1

  9
$DIMAPOST
  1

  9
$DIMALT
 70
     0
  9
$DIMALTD
 70
     2
  9
$DIMALTF
 40
25.4
  9
$DIMLFAC
 40
1.0
  9
$DIMTOFL
 70
     1
  9
$DIMTVP
 40
0.0
  9
$DIMTIX
 70
     0
  9
$DIMSOXD
 70
     0
  9
$DIMSAH
 70
     0
  9
$DIMBLK1
  1

  9
$DIMBLK2
  1

  9
$DIMSTYLE
  2
STANDARD
  9
$DIMCLRD
 70
     0
  9
$DIMCLRE
 70
     0
  9
$DIMCLRT
 70
     6
  9
$DIMTFAC
 40
1.0
  9
$DIMGAP
 40
0.1
  9
$DIMJUST
 70
     0
  9
$DIMSD1
 70
     0
  9
$DIMSD2
 70
     0
  9
$DIMTOLJ
 70
     1
  9
$DIMTZIN
 70
     0
  9
$DIMALTZ
 70
     0
  9
$DIMALTTZ
 70
     0
  9
$DIMFIT
 70
     3
  9
$DIMUPT
 70
     0
  9
$DIMUNIT
 70
     2
  9
$DIMDEC
 70
     4
  9
$DIMTDEC
 70
     4
  9
$DIMALTU
 70
     2
  9
$DIMALTTD
 70
     2
  9
$DIMTXSTY
  7
STANDARD
  9
$DIMAUNIT
 70
     0
  9
$LUNITS
 70
     2
  9
$LUPREC
 70
     2
  9
$SKETCHINC
 40
0.1
  9
$FILLETRAD
 40
0.5
  9
$AUNITS
 70
     0
  9
$AUPREC
 70
     4
  9
$MENU
  1
acad
  9
$ELEVATION
 40
0.0
  9
$PELEVATION
 40
0.0
  9
$THICKNESS
 40
0.0
  9
$LIMCHECK
 70
     0
  9
$BLIPMODE
 70
     0
  9
$CHAMFERA
 40
10.0
  9
$CHAMFERB
 40
10.0
  9
$CHAMFERC
 40
0.0
  9
$CHAMFERD
 40
0.0
  9
$SKPOLY
 70
     0
  9
$TDCREATE
 40
2450609.894852546
  9
$TDUPDATE
 40
2452293.576637500
  9
$TDINDWG
 40
0.0236427083
  9
$TDUSRTIMER
 40
0.0236427083
  9
$USRTIMER
 70
     1
  9
$ANGBASE
 50
0.0
  9
$ANGDIR
 70
     0
  9
$PDMODE
 70
    35
  9
$PDSIZE
 40
0.0
  9
$PLINEWID
 40
0.0
  9
$COORDS
 70
     1
  9
$SPLFRAME
 70
     0
  9
$SPLINETYPE
 70
     6
  9
$SPLINESEGS
 70
     8
  9
$ATTDIA
 70
     0
  9
$ATTREQ
 70
     1
  9
$HANDLING
 70
     1
  9
$HANDSEED
  5
198
  9
$SURFTAB1
 70
     6
  9
$SURFTAB2
 70
     6
  9
$SURFTYPE
 70
     6
  9
$SURFU
 70
     6
  9
$SURFV
 70
     6
  9
$UCSNAME
  2

  9
$UCSORG
 10
0.0
 20
0.0
 30
0.0
  9
$UCSXDIR
 10
1.0
 20
0.0
 30
0.0
  9
$UCSYDIR
 10
0.0
 20
1.0
 30
0.0
  9
$PUCSNAME
  2

  9
$PUCSORG
 10
0.0
 20
0.0
 30
0.0
  9
$PUCSXDIR
 10
1.0
 20
0.0
 30
0.0
  9
$PUCSYDIR
 10
0.0
 20
1.0
 30
0.0
  9
$USERI1
 70
     0
  9
$USERI2
 70
     0
  9
$USERI3
 70
     0
  9
$USERI4
 70
     0
  9
$USERI5
 70
     0
  9
$USERR1
 40
0.0
  9
$USERR2
 40
0.0
  9
$USERR3
 40
0.0
  9
$USERR4
 40
0.0
  9
$USERR5
 40
0.0
  9
$WORLDVIEW
 70
     1
  9
$SHADEDGE
 70
     3
  9
$SHADEDIF
 70
    70
  9
$TILEMODE
 70
     1
  9
$MAXACTVP
 70
    16
  9
$PINSBASE
 10
0.0
 20
0.0
 30
0.0
  9
$PLIMCHECK
 70
     0
  9
$PEXTMIN
 10
1.000000E+20
 20
1.000000E+20
 30
1.000000E+20
  9
$PEXTMAX
 10
-1.000000E+20
 20
-1.000000E+20
 30
-1.000000E+20
  9
$PLIMMIN
 10
0.0
 20
0.0
  9
$PLIMMAX
 10
420.0
 20
297.0
  9
$UNITMODE
 70
     0
  9
$VISRETAIN
 70
     0
  9
$PLINEGEN
 70
     0
  9
$PSLTSCALE
 70
     1
  9
$TREEDEPTH
 70
  3020
  9
$PICKSTYLE
 70
     1
  9
$CMLSTYLE
  2
STANDARD
  9
$CMLJUST
 70
     0
  9
$CMLSCALE
 40
1.0
  9
$PROXYGRAPHICS
 70
     1
  9
$MEASUREMENT
 70
     0
  0
ENDSEC
  0
SECTION
  2
CLASSES
  0
CLASS
  1
LWPOLYLINE
  2
AcDbPolyline
  3
"AutoCAD"
 90
        0
280
     0
281
     1
  0
CLASS
  1
ACDBDICTIONARYWDFLT
  2
AcDbDictionaryWithDefault
  3
AutoCAD 2000
 90
        0
280
     0
281
     0
  0
CLASS
  1
ACDBPLACEHOLDER
  2
AcDbPlaceHolder
  3
AutoCAD 2000
 90
        0
280
     0
281
     0
  0
CLASS
  1
LAYOUT
  2
AcDbLayout
  3
AutoCAD 2000
 90
        0
280
     0
281
     0
  0
CLASS
  1
LONG_TRANSACTION
  2
AcDbLongTransaction
  3
AutoCAD 2000
 90
        0
280
     0
281
     0
  0
CLASS
  1
LWPOLYLINE
  2
AcDbPolyline
  3
"AutoCAD"
 90
        0
280
     0
281
     1
  0
CLASS
  1
HATCH
  2
AcDbHatch
  3
"ACAD_SEDONA"
 90
        0
280
     0
281
     1
  0
CLASS
  1
XRECORD
  2
AcDbXrecord
  3
"<Built In>"
 90
        0
280
     0
281
     0
  0
ENDSEC
  0
SECTION
  2
TABLES
  0
TABLE
  2
VPORT
  5
12
100
AcDbSymbolTable
 70
     1
  0
VPORT
  5
160
102
{ACAD_XDICTIONARY
360
161
102
}
100
AcDbSymbolTableRecord
100
AcDbViewportTableRecord
  2
*ACTIVE
 70
     0
 10
0.0
 20
0.0
 11
1.0
 21
1.0
 12
-126.594247
 22
310.254427
 13
0.0
 23
0.0
 14
5.0
 24
5.0
 15
10.0
 25
10.0
 16
0.0
 26
0.0
 36
1.0
 17
0.0
 27
0.0
 37
0.0
 40
588.166166
 41
1.630435
 42
50.0
 43
0.0
 44
0.0
 50
0.0
 51
0.0
 71
     0
 72
   100
 73
     1
 74
     1
 75
     1
 76
     0
 77
     0
 78
     0
  0
ENDTAB
  0
TABLE
  2
LTYPE
  5
D
100
AcDbSymbolTable
 70
     2
  0
LTYPE
  5
E
100
AcDbSymbolTableRecord
100
AcDbLinetypeTableRecord
  2
BYBLOCK
 70
     0
  3

 72
    65
 73
     0
 40
0.0
  0
LTYPE
  5
F
100
AcDbSymbolTableRecord
100
AcDbLinetypeTableRecord
  2
BYLAYER
 70
     0
  3

 72
    65
 73
     0
 40
0.0
  0
LTYPE
  5
5
100
AcDbSymbolTableRecord
100
AcDbLinetypeTableRecord
  2
CONTINUOUS
 70
     0
  3
Solid line
 72
    65
 73
     0
 40
0.0
  0
LTYPE
  5
22
100
AcDbSymbolTableRecord
100
AcDbLinetypeTableRecord
  2
DASHDOT
 70
     0
  3
__ . __ . __ . __ . __ . __ . __ . __ . __ . __
 72
    65
 73
     4
 40
1.0
 49
0.5
 74
     0
 49
-0.25
 74
     0
 49
0.0
 74
     0
 49
-0.25
 74
     0
  0
ENDTAB
  0
TABLE
  2
LAYER
  5
A
100
AcDbSymbolTable
 70
     6
  0
LAYER
  5
4
100
AcDbSymbolTableRecord
100
AcDbLayerTableRecord
  2
0
 70
     0
 62
     7
  6
CONTINUOUS
  0
LAYER
  5
38
100
AcDbSymbolTableRecord
100
AcDbLayerTableRecord
  2
STALPROFIL
 70
     0
 62
     1
  6
CONTINUOUS
  0
LAYER
  5
3A
100
AcDbSymbolTableRecord
100
AcDbLayerTableRecord
  2
SPKONTUR
 70
     0
 62
     7
  6
CONTINUOUS
  0
LAYER
  5
3C
100
AcDbSymbolTableRecord
100
AcDbLayerTableRecord
  2
GLAS_MED_FOGNING
 70
     0
 62
     2
  6
CONTINUOUS
  0
LAYER
  5
31
100
AcDbSymbolTableRecord
100
AcDbLayerTableRecord
  2
TEXT
 70
     0
 62
     6
  6
CONTINUOUS
  0
LAYER
  5
20
100
AcDbSymbolTableRecord
100
AcDbLayerTableRecord
  2
RAM
 70
     0
 62
     5
  6
CONTINUOUS
  0
ENDTAB
  0
TABLE
  2
STYLE
  5
B
100
AcDbSymbolTable
 70
     2
  0
STYLE
  5
C
100
AcDbSymbolTableRecord
100
AcDbTextStyleTableRecord
  2
STANDARD
 70
     0
 40
0.0
 41
1.0
 50
0.0
 71
     0
 42
5.0
  3
txt
  4

  0
STYLE
  5
32
100
AcDbSymbolTableRecord
100
AcDbTextStyleTableRecord
  2
ROMANS
 70
     0
 40
0.0
 41
0.8
 50
0.0
 71
     0
 42
5.0
  3
romans
  4

  0
ENDTAB
  0
TABLE
  2
VIEW
  5
10
100
AcDbSymbolTable
 70
     0
  0
ENDTAB
  0
TABLE
  2
UCS
  5
11
100
AcDbSymbolTable
 70
     0
  0
ENDTAB
  0
TABLE
  2
APPID
  5
14
100
AcDbSymbolTable
 70
     3
  0
APPID
  5
15
100
AcDbSymbolTableRecord
100
AcDbRegAppTableRecord
  2
ACAD
 70
     0
  0
APPID
  5
152
100
AcDbSymbolTableRecord
100
AcDbRegAppTableRecord
  2
CONTENTBLOCKDESCRIPTION
 70
     0
  0
APPID
  5
153
100
AcDbSymbolTableRecord
100
AcDbRegAppTableRecord
  2
CONTENTBLOCKICON
 70
     0
  0
ENDTAB
  0
TABLE
  2
DIMSTYLE
  5
16
100
AcDbSymbolTable
 70
     1
  0
DIMSTYLE
105
1C
100
AcDbSymbolTableRecord
100
AcDbDimStyleTableRecord
  2
STANDARD
 70
     0
  3

  4

  5

  6

  7

 40
1.0
 41
0.18
 42
0.0625
 43
0.38
 44
0.18
 45
0.0
 46
0.0
 47
0.0
 48
0.0
140
0.18
141
0.09
142
0.0
143
25.4
144
1.0
145
0.0
146
1.0
147
0.09
 71
     0
 72
     0
 73
     1
 74
     1
 75
     0
 76
     0
 77
     0
 78
     0
170
     0
171
     2
172
     0
173
     0
174
     0
175
     0
176
     0
177
     0
178
     0
270
     2
271
     4
272
     4
273
     2
274
     2
340
C
275
     0
280
     0
281
     0
282
     0
283
     1
284
     0
285
     0
286
     0
287
     3
288
     0
  0
ENDTAB
  0
TABLE
  2
BLOCK_RECORD
  5
1
100
AcDbSymbolTable
 70
    16
  0
BLOCK_RECORD
  5
2
102
{ACAD_XDICTIONARY
360
183
102
}
100
AcDbSymbolTableRecord
100
AcDbBlockTableRecord
  2
*MODEL_SPACE
  0
BLOCK_RECORD
  5
7
102
{ACAD_XDICTIONARY
360
185
102
}
100
AcDbSymbolTableRecord
100
AcDbBlockTableRecord
  2
*PAPER_SPACE
  0
BLOCK_RECORD
  5
1E
100
AcDbSymbolTableRecord
100
AcDbBlockTableRecord
  2
SIDA
  0
BLOCK_RECORD
  5
BF
100
AcDbSymbolTableRecord
100
AcDbBlockTableRecord
  2
*X1
  0
BLOCK_RECORD
  5
BC
100
AcDbSymbolTableRecord
100
AcDbBlockTableRecord
  2
SP40010
  0
BLOCK_RECORD
  5
D2
100
AcDbSymbolTableRecord
100
AcDbBlockTableRecord
  2
SP30001
  0
BLOCK_RECORD
  5
3D
100
AcDbSymbolTableRecord
100
AcDbBlockTableRecord
  2
*X4
  0
BLOCK_RECORD
  5
11A
100
AcDbSymbolTableRecord
100
AcDbBlockTableRecord
  2
SP976510-785
1001
CONTENTBLOCKICON
1071
        0
1004
2800000020000000200000000100040000000000000200000000000000000000000000000000000000000000000080000080000000808000800000008000800080800000C0C0C000808080000000FF0000FF000000FFFF00FF000000FF00FF00FFFF0000FFFFFF00FFFF0F00000BBBBBBBBBB0000000FFFFFFFF9999999BFB
1004
FBFFBFB9999999FFFFFFFF9FFFFFF0BBFBFBFF0FFFFFF90FFFFFFF9FFFFFF0FFBFFFBB0FFFFFF90FFFFFFF9FFFFFF0BFFBBFFF0FFFFFF90FFFFFFF9FFFFFF0FBBFFBBF0FFFFFF90FFFFFFF9FFFFFF0BFFBFFFB0FFFFFF90FFFFFFF9FFFFFF0BFBFBBFF0FFFFFF90FFFFFFF9FFFFFF0FFBBFFBB0FFFFFF90FFFFFFF9FFFFFF0
1004
FBFFBFFF0FFFFFF90FFFFFFF9FFFFFF0FBFBFFBF0FFFFFF90FFFFFFF9FFFFFF0BFFBFBFB0FFFFFF90FFFFFFF9FFFFFF0BFBFFBFF0FFFFFF90FFFFFFF9FFFFFF0FFBFBFFB0FFFFFF90FFFFFFF9FFFFFF0FBFFBFBF0FFFFFF90FFFFFFF9FFFFFF0FBFBFFBF0FFFFFF90FFFFFFF9FFFFFF0BFFBFBFF0FFFFFF90FFFFFFF9FFFFF
1004
F0BFBFFBFB0FFFFFF90FFFFFFF9FFFFFF0FFBFBFFB0FFFFFF90FFFFFFF9FFFFFF0FBFFBFBF0FFFFFF90FFFFFFF9FFFFFF0FBFBFFBF0FFFFFF90FFFFFFF9FFFFFF0BFFBFBFF0FFFFFF90FFFFFFF9FFFFFF0BFBFFFBB0FFFFFF90FFFFFFF9FFFFFF0FFFBBFFF0FFFFFF90FFFFFFF9FFFFFF0BBFFFBBF0FFFFFF90FFFFFFF9FFF
1004
FFF0FFBBFFFB0FFFFFF90FFFFFFF9FFFFFF0BFFFBBFF0FFFFF00FFFFFFFF9FFFFFF0FBBFFFBB0FFFF9BFFFFFFFFF9FFFFFF0FFFBBFFF0F0BBBBFFFFFFFFF9FFFFFF0BBFFFBBF0F0BBBBFFFFFFFFF9FFFFFF0FFBBFFFBBF90BBBFFFFFFFFF9999999BBBBBBBBBB00000FFFFFF
  0
BLOCK_RECORD
  5
129
100
AcDbSymbolTableRecord
100
AcDbBlockTableRecord
  2
SP976520-785
1001
CONTENTBLOCKICON
1071
        0
1004
2800000020000000200000000100040000000000000200000000000000000000000000000000000000000000000080000080000000808000800000008000800080800000C0C0C000808080000000FF0000FF000000FFFF00FF000000FF00FF00FFFF0000FFFFFF00FFFF0F00000BBBBBBBBBB0000000FFFFFFFF0999999BFB
1004
FBFFBFB9999999FFFFFFFF0FFFFFF0BBFBFBFF0FFFFFF90FFFFFFF0FFFFFF0FFBFFFBB0FFFFFF90FFFFFFF0FFFFFF0BFFBBFFF0FFFFFF90FFFFFFF0FFFFFF0FBBFFBBF0FFFFFF90FFFFFFF0FFFFFF0BFFBFFFB0FFFFFF90FFFFFFF0FFFFFF0BFBFBBFF0FFFFFF90FFFFFFF0FFFFFF0FFBBFFBB0FFFFFF90FFFFFFF0FFFFFF0
1004
FBFFBFFF0FFFFFF90FFFFFFF0FFFFFF0FBFBFFBF0FFFFFF90FFFFFFF0FFFFFF0BFFBFBFB0FFFFFF90FFFFFFF0FFFFFF0BFBFFBFF0FFFFFF90FFFFFFF0FFFFFF0FFBFBFFB0FFFFFF90FFFFFFF0FFFFFF0FBFFBFBF0FFFFFF90FFFFFFF0FFFFFF0FBFBFFBF0FFFFFF90FFFFFFF0FFFFFF0BFFBFBFF0FFFFFF90FFFFFFF0FFFFF
1004
F0BFBFFBFB0FFFFFF90FFFFFFF0FFFFFF0FFBFBFFB0FFFFFF90FFFFFFF0FFFFFF0FBFFBFBF0FFFFFF90FFFFFFF0FFFFFF0FBFBFFBF0FFFFFF90FFFFFFF0FFFFFF0BFFBFBFF0FFFFFF90FFFFFFF0FFFFFF0BFBFFFBB0FFFFFF90FFFFFFF0FFFFFF0FFFBBFFF0FFFFFF90FFFFFFF0FFFFFF0BBFFFBBF0FFFFFF90FFFFFFF0FFF
1004
FFF0FFBBFFFB0FFFFFF90FFFFFFF0FFFFFF0BFFFBBFF0FFFFFF90FFFFFFF0FFFFFF0FBBFFFBB0FFFFFF90FFFFFFF0FFFFFF0FFFBBFFF0FFFFFF90FFFFFFF0FFFFFF0BBFFFBBF0FFFFFF90FFFFFFF9FFFFFF0FFBBFFFBBFFFFFF90FFFFFFF0000000BBBBBBBBBB0000000FFFF
  0
BLOCK_RECORD
  5
135
100
AcDbSymbolTableRecord
100
AcDbBlockTableRecord
  2
SP976523-785
1001
CONTENTBLOCKICON
1071
        0
1004
2800000020000000200000000100040000000000000200000000000000000000000000000000000000000000000080000080000000808000800000008000800080800000C0C0C000808080000000FF0000FF000000FFFF00FF000000FF00FF00FFFF0000FFFFFF00FFFFFFFFFFFFFFFFFFFFFF00FFFFFFFFFFFFFFFFFFFFFF
1004
FFFFFFFF9FFFFFFFFFFFFFFFFFFFFFFFFFFFFFFF90FFFFFFFFFFFFFFFFFFFFFFFFFFFFFF90FFFFFFFFFFFFFFFFFFFFFFFFFFFFFF90FFFFFFFFFFFFFFF0F000BBBBBBBF0090FFFFFFFFFFFFFFF0FFFF0BBFBB9FFFF0FFFFFFFFFFFFFFF0FFFF0BBBBB9FFFF0FFFFFFFFFFFFFFF0FFFF0BBBFB9FFFF0FFFFFFFFFFFFFFF0FFFF
1004
0FBBBB9FFFF0FFFFFFFFFFFFFFF0FFFF0BBBBB9FFFF0FFFFFFFFFFFFFFF0FFFF0BBBBF9FFFF0FFFFFFFFFFFFFFF0FFFF0BFBBB9FFFF0FFFFFFFFFFFFFFF0FFFF0BBBBB9FFFF0FFFFFFFFFFFFFFF0FFFF0BBFBB9FFFF0FFFFFFFFFFFFFFF0FFFF0BBBFB9FFFF0FFFFFFFFFFFFFFF0FFFF0FBBBB9FFFF0FFFFFFFFFFFFFFF0FF
1004
FF0BBBBF9FFFF0FFFFFFFFFFFFFFF0FFFF0BBBFB9FFFF0FFFFFFFFFFFFFFF0FFFF0BFBBB9FFFF0FFFFFFFFFFFFFFF0FFFF0BBBBB9FFFF0FFFFFFFFFFFFFFF0FFFF0BBFBB9FFFF0FFFFFFFFFFFFFFF0FFFF0FBBBB9FFFF0FFFFFFFFFFFFFFF0FFFF0BBBBB9FFFF0FFFFFFFFFFFFFFF0FFFF0BBBFB9FFFF0FFFFFFFFFFFFFFF0
1004
FFFF0BFBBB9FFFF0FFFFFFFFFFFFFFF00000BBBBBBB00000FFFFFFFFFFFFFFF00FFFFFFFFFFFFFFFFFFFFFFFFFFFFFF00FFFFFFFFFFFFFFFFFFFFFFFFFFFFFF00FFFFFFFFFFFFFFFFFFFFFFFFFFFFFF90FFFFFFFFFFFFFFFFFFFFFFFFFFFFFF00FFFFFFFFFFFFFFFFFFFFFFF
  0
BLOCK_RECORD
  5
36
100
AcDbSymbolTableRecord
100
AcDbBlockTableRecord
  2
SP976511-785
1001
CONTENTBLOCKICON
1071
        0
1004
2800000020000000200000000100040000000000000200000000000000000000000000000000000000000000000080000080000000808000800000008000800080800000C0C0C000808080000000FF0000FF000000FFFF00FF000000FF00FF00FFFF0000FFFFFF00FFFFFF0F0000BBBBBBBBF00000FFFFFFFFFFFF099999FF
1004
BBFFBB99999FFFFFFFFFFFFF0FFFF9BFBBFBB9FFFFF0FFFFFFFFFFFF0FFFF90BFFBBF9FFFFF0FFFFFFFFFFFF0FFFF90BFBBBF9FFFFF0FFFFFFFFFFFF0FFFF9BFBBFFB9FFFFF0FFFFFFFFFFFF0FFFF90BFBFBB9FFFFF0FFFFFFFFFFFF0FFFF90BBFBBF9FFFFF0FFFFFFFFFFFF0FFFF90BFBFFB9FFFFF0FFFFFFFFFFFF0FFFF9
1004
BFBBBFB9FFFFF0FFFFFFFFFFFF0FFFF90BFFBBF9FFFFF0FFFFFFFFFFFF0FFFF90BBFBBB9FFFFF0FFFFFFFFFFFF0FFFF90FBBFFB9FFFFF0FFFFFFFFFFFF0FFFF9BFBBBFB9FFFFF0FFFFFFFFFFFF0FFFF90BFFBBF9FFFFF0FFFFFFFFFFFF0FFFF90BBFBBF9FFFFF0FFFFFFFFFFFF0FFFF9BFBBFFB9FFFFF0FFFFFFFFFFFF0FFF
1004
F9BFFBFBB9FFFFF0FFFFFFFFFFFF0FFFF90BBFBBF9FFFFF0FFFFFFFFFFFF0FFFF90BFBFBF9FFFFF0FFFFFFFFFFFF0FFFF9BFBBBFB9FFFFF0FFFFFFFFFFFF0FFFF90BFBFBF9FFFF90FFFFFFFFFFFF0FFFF90BBFBBB9FFF9BFFFFFFFFFFFFF0FFFF90BFBFFB99BBBBFFFFFFFFFFFFF0FFFF9BFFBBFBBFBBBBFFFFFFFFFFFFF00
1004
0009BBBBBBBB9990BFFFFFFFFFFFFF00FFFFFFFFFFFFFFFFFFFFFFFFFFFFFF00FFFFFFFFFFFFFFFFFFFFFFFFFFFFFF00FFFFFFFFFFFFFFFFFFFFFFFFFFFFFF00FFFFFFFFFFFFFFFFFFFFFFFFFFFFFF90FFFFFFFFFFFFFFFFFFFFFFFFFFFFFF00FFFFFFFFFFFFFFFFFFFFFFFF
  0
BLOCK_RECORD
  5
E7
100
AcDbSymbolTableRecord
100
AcDbBlockTableRecord
  2
SP976512-785
1001
CONTENTBLOCKICON
1071
        0
1004
2800000020000000200000000100040000000000000200000000000000000000000000000000000000000000000080000080000000808000800000008000800080800000C0C0C000808080000000FF0000FF000000FFFF00FF000000FF00FF00FFFF0000FFFFFF00FFFFFFF00FFFFFFFFFFFFFFFFFFFFFFFFFFFFFF00FFFFF
1004
FFFFFFFFFFFFFFFFFFFFFFFFF00FFFFFFFFFFFFFFFFFFFFFFFFFFFFFF00FFFFFFFFFFFFFFFFFFFFFFFFFFFFFF00FFFFFFFFFFFFFFFFFFFFFFFFFFFFFF00000BBBBBBBF0000FFFFFFFFFFFFFFF0FFFFBBBFBB9FFFF0FFFFFFFFFFFFFFF0FFFF0BBBBB9FFFF0FFFFFFFFFFFFFFF0FFFF0BBBFB9FFFF0FFFFFFFFFFFFFFF0FFFF
1004
BFBBBB9FFFF0FFFFFFFFFFFFFFF0FFFF0BBBBB9FFFF0FFFFFFFFFFFFFFF0FFFF0BBBBF9FFFF0FFFFFFFFFFFFFFF0FFFFBBFBBB9FFFF0FFFFFFFFFFFFFFF0FFFF0BBBBB9FFFF0FFFFFFFFFFFFFFF0FFFF0BBFBB9FFFF0FFFFFFFFFFFFFFF0FFFF0BBBFB9FFFF0FFFFFFFFFFFFFFF0FFFFBFBBBB9FFFF0FFFFFFFFFFFFFFF0FF
1004
FF0BBBBF9FFFF0FFFFFFFFFFFFFFF0FFFFBBBBFB9FFFF0FFFFFFFFFFFFFFF0FFFFBBFBBB9FFFF0FFFFFFFFFFFFFFF0FFFF0BBBBB9FFFF0FFFFFFFFFFFFFFF0FFFFBBBFBB9FFFF0FFFFFFFFFFFFFFF0FFFF0FBBBB9FFFF0FFFFFFFFFFFFFFF0FFFF0BBBBB9FFFB0FFFFFFFFFFFFFFF0FFFF0BBBFB99BBBFFFFFFFFFFFFFFFF0
1004
FFFFBBFBBB99BBBFFFFFFFFFFFFFFFF00000BBBBBBB099BFFFFFFFFFFFFFFFF00FFFFFFFFFFFFFFFFFFFFFFFFFFFFFF00FFFFFFFFFFFFFFFFFFFFFFFFFFFFFF00FFFFFFFFFFFFFFFFFFFFFFFFFFFFFF00FFFFFFFFFFFFFFFFFFFFFFFFFFFFFF00FFFFFFFFFFFFFFFFFFFFFFF
  0
BLOCK_RECORD
  5
F3
100
AcDbSymbolTableRecord
100
AcDbBlockTableRecord
  2
SP976521-785
1001
CONTENTBLOCKICON
1071
        0
1004
2800000020000000200000000100040000000000000200000000000000000000000000000000000000000000000080000080000000808000800000008000800080800000C0C0C000808080000000FF0000FF000000FFFF00FF000000FF00FF00FFFF0000FFFFFF00FFFFFF0F0000BBBBBBBBF00000FFFFFFFFFFFF999999FF
1004
BBFFBB99999FFFFFFFFFFFFF9FFFF90FBBFBB0FFFFF0FFFFFFFFFFFF9FFFF90BFFBBF0FFFFF0FFFFFFFFFFFF9FFFF90BFBBBF0FFFFF0FFFFFFFFFFFF9FFFF90FBBFFB0FFFFF0FFFFFFFFFFFF9FFFF90BFBFBB0FFFFF0FFFFFFFFFFFF9FFFF90BBFBBF0FFFFF0FFFFFFFFFFFF9FFFF90BFBFFB0FFFFF0FFFFFFFFFFFF9FFFF9
1004
0FBBBFB0FFFFF0FFFFFFFFFFFF9FFFF90BFFBBF0FFFFF0FFFFFFFFFFFF9FFFF90BBFBBB0FFFFF0FFFFFFFFFFFF9FFFF90FBBFFB0FFFFF0FFFFFFFFFFFF9FFFF90FBBBFB0FFFFF0FFFFFFFFFFFF9FFFF90BFFBBF0FFFFF0FFFFFFFFFFFF9FFFF90BBFBBF0FFFFF0FFFFFFFFFFFF9FFFF90FBBFFB0FFFFF0FFFFFFFFFFFF9FFF
1004
F90FFBFBB0FFFFF0FFFFFFFFFFFF9FFFF90BBFBBF0FFFFF0FFFFFFFFFFFF9FFFF90BFBFBF0FFFFF0FFFFFFFFFFFF9FFFF90FBBBFB0FFFFF0FFFFFFFFFFFF9FFFF90BFBFBF0FFFFF0FFFFFFFFFFFF9FFFF90BBFBBB0FFFFF0FFFFFFFFFFFF9FFFF90BFBFFB0FFFFF0FFFFFFFFFFFF9FFFF90FFBBFBBFFFFF0FFFFFFFFFFFF99
1004
9999BBBBBBBB000000FFFFFFFFFFFF90FFFFFFFFFFFFFFFFFFFFFFFFFFFFFF90FFFFFFFFFFFFFFFFFFFFFFFFFFFFFF90FFFFFFFFFFFFFFFFFFFFFFFFFFFFFF90FFFFFFFFFFFFFFFFFFFFFFFFFFFFFF90FFFFFFFFFFFFFFFFFFFFFFFFFFFFFF90FFFFFFFFFFFFFFFFFFFFFFFF
  0
BLOCK_RECORD
  5
DB
100
AcDbSymbolTableRecord
100
AcDbBlockTableRecord
  2
SP976522-785
1001
CONTENTBLOCKICON
1071
        0
1004
2800000020000000200000000100040000000000000200000000000000000000000000000000000000000000000080000080000000808000800000008000800080800000C0C0C000808080000000FF0000FF000000FFFF00FF000000FF00FF00FFFF0000FFFFFF00FFFFFFF00FFFFFFFFFFFFFFFFFFFFFFFFFFFFFF90FFFFF
1004
FFFFFFFFFFFFFFFFFFFFFFFFF90FFFFFFFFFFFFFFFFFFFFFFFFFFFFFF90FFFFFFFFFFFFFFFFFFFFFFFFFFFFFF90FFFFFFFFFFFFFFFFFFFFFFFFFFFFFF90000BBBBBBBF0000FFFFFFFFFFFFFFF9FFFFBBBFBB9FFFF0FFFFFFFFFFFFFFF9FFFF0BBBBB9FFFF0FFFFFFFFFFFFFFF9FFFF0BBBFB9FFFF0FFFFFFFFFFFFFFF9FFFF
1004
BFBBBB9FFFF0FFFFFFFFFFFFFFF9FFFF0BBBBB9FFFF0FFFFFFFFFFFFFFF9FFFF0BBBBF9FFFF0FFFFFFFFFFFFFFF9FFFFBBFBBB9FFFF0FFFFFFFFFFFFFFF9FFFF0BBBBB9FFFF0FFFFFFFFFFFFFFF9FFFF0BBFBB9FFFF0FFFFFFFFFFFFFFF9FFFF0BBBFB9FFFF0FFFFFFFFFFFFFFF9FFFFBFBBBB9FFFF0FFFFFFFFFFFFFFF9FF
1004
FF0BBBBF9FFFF0FFFFFFFFFFFFFFF9FFFFBBBBFB9FFFF0FFFFFFFFFFFFFFF9FFFFBBFBBB9FFFF0FFFFFFFFFFFFFFF9FFFF0BBBBB9FFFF0FFFFFFFFFFFFFFF9FFFFBBBFBB9FFFF0FFFFFFFFFFFFFFF9FFFF0FBBBB9FFFF0FFFFFFFFFFFFFFF9FFFF0BBBBB9FFFF0FFFFFFFFFFFFFFF9FFFF0BBBFB9FFFF0FFFFFFFFFFFFFFF9
1004
FFFFBBFBBB9FFFF0FFFFFFFFFFFFFFF90000BBBBBBB00000FFFFFFFFFFFFFFF90FFFFFFFFFFFFFFFFFFFFFFFFFFFFFF90FFFFFFFFFFFFFFFFFFFFFFFFFFFFFF90FFFFFFFFFFFFFFFFFFFFFFFFFFFFFF90FFFFFFFFFFFFFFFFFFFFFFFFFFFFFF90FFFFFFFFFFFFFFFFFFFFFFF
  0
BLOCK_RECORD
  5
141
100
AcDbSymbolTableRecord
100
AcDbBlockTableRecord
  2
SP976524-785
1001
CONTENTBLOCKICON
1071
        0
1004
2800000020000000200000000100040000000000000200000000000000000000000000000000000000000000000080000080000000808000800000008000800080800000C0C0C000808080000000FF0000FF000000FFFF00FF000000FF00FF00FFFF0000FFFFFF00FFFFFF0F0000BBBBBBBB000000FFFFFFFFFFFF999999FF
1004
BBFFBB999990FFFFFFFFFFFF9FFFF90FBBFBB0FFFFF0FFFFFFFFFFFF9FFFF90BFFBBF0FFFFF0FFFFFFFFFFFF9FFFF90BFBBBF0FFFFF0FFFFFFFFFFFF9FFFF90FBBFFB0FFFFF0FFFFFFFFFFFF9FFFF90BFBFBB0FFFFF0FFFFFFFFFFFF9FFFF90BBFBBF0FFFFF0FFFFFFFFFFFF9FFFF90BFBFFB0FFFFF0FFFFFFFFFFFF9FFFF9
1004
0FBBBFB0FFFFF0FFFFFFFFFFFF9FFFF90BFFBBF0FFFFF0FFFFFFFFFFFF9FFFF90BBFBBB0FFFFF0FFFFFFFFFFFF9FFFF90FBBFFB0FFFFF0FFFFFFFFFFFF9FFFF90FBBBFB0FFFFF0FFFFFFFFFFFF9FFFF90BFFBBF0FFFFF0FFFFFFFFFFFF9FFFF90BBFBBF0FFFFF0FFFFFFFFFFFF9FFFF90FBBFFB0FFFFF0FFFFFFFFFFFF9FFF
1004
F90FFBFBB0FFFFF0FFFFFFFFFFFF9FFFF90BBFBBF0FFFFF0FFFFFFFFFFFF9FFFF90BFBFBF0FFFFF0FFFFFFFFFFFF9FFFF90FBBBFB0FFFFF0FFFFFFFFFFFF9FFFF90BFBFBF0FFFFF0FFFFFFFFFFFF9FFFF90BBFBBB0FFFFF0FFFFFFFFFFFF9FFFF90BFBFFB0FFFFF0FFFFFFFFFFFF9FFFF90FFBBFBBFFFFF0FFFFFFFFFFFF99
1004
9999BBBBBBBB000000FFFFFFFFFFFF90FFFFFFFFFFFFFFFF00FFFFFFFFFFFF90FFFFFFFFFFFFFFFF00FFFFFFFFFFFF90FFFFFFFFFFFFFFFF00FFFFFFFFFFFF90FFFFFFFFFFFFFFFF00FFFFFFFFFFFF90FFFFFFFFFFFFFFFF00FFFFFFFFFFFF90FFFFFFFFFFFFFFFF00FFFFFF
  0
BLOCK_RECORD
  5
101
100
AcDbSymbolTableRecord
100
AcDbBlockTableRecord
  2
SP976525-785
1001
CONTENTBLOCKICON
1071
        0
1004
2800000020000000200000000100040000000000000200000000000000000000000000000000000000000000000080000080000000808000800000008000800080800000C0C0C000808080000000FF0000FF000000FFFF00FF000000FF00FF00FFFF0000FFFFFF00FFFFFFF00FFFFFFFFFFFFFFFFFFFFFFFFFFFFFF00FFFFF
1004
FFFFFFFFFFFFFFFFFFFFFFFFF00FFFFFFFFFFFFFFFFFFFFFFFFFFFFFF00FFFFFFFFFFFFFFFFFFFFFFFFFFFFFF00FFFFFFFFFFFFFFFFFFFFFFFFFFFFFF00000BBBBBBB00000FFFFFFFFFFFFFFF0FFFFBBBFBB9FFFF0FFFFFFFFFFFFFFF0FFFF0BBBBBBFFFF0FFFFFFFFFFFFFFF0FFFF0BBBFBBFFFF0FFFFFFFFFFFFFFF0FFFF
1004
BFBBBBBFFFF0FFFFFFFFFFFFFFF0FFFF0BBBBBBFFFF0FFFFFFFFFFFFFFF0FFFF0BBBBFBFFFF0FFFFFFFFFFFFFFF0FFFFBBFBBBBFFFF0FFFFFFFFFFFFFFF0FFFF0BBBBB9FFFF0FFFFFFFFFFFFFFF0FFFF0BBFBBBFFFF0FFFFFFFFFFFFFFF0FFFF0BBBFBBFFFF0FFFFFFFFFFFFFFF0FFFFBFBBBBBFFFF0FFFFFFFFFFFFFFF0FF
1004
FF0BBBBFBFFFF0FFFFFFFFFFFFFFF0FFFFBBBBFBBFFFF0FFFFFFFFFFFFFFF0FFFFBBFBBBBFFFF0FFFFFFFFFFFFFFF0FFFF0BBBBB9FFFF0FFFFFFFFFFFFFFF0FFFFBBBFBBBFFFF0FFFFFFFFFFFFFFF0FFFF0FBBBBBFFFF0FFFFFFFFFFFFFFF0FFFF0BBBBBBFFFF0FFFFFFFFFFFFFFF0FFFF0BBBFBBFFFF0FFFFFFFFFFFFFFF0
1004
FFFFBBFBBBBFFFF0FFFFFFFFFFFFFFF00000BBBBBBB00000FFFFFFFFFFFFFFF00FFFFFFFFFFFFF90FFFFFFFFFFFFFFF00FFFFFFFFFFFFF90FFFFFFFFFFFFFFF00FFFFFFFFFFFFF90FFFFFFFFFFFFFFF00FFFFFFFFFFFFF90FFFFFFFFFFFFFFF00FFFFFFFFFFFFF90FFFFFFFF
  0
BLOCK_RECORD
  5
10E
100
AcDbSymbolTableRecord
100
AcDbBlockTableRecord
  2
SP976514-785
1001
CONTENTBLOCKICON
1071
        0
1004
2800000020000000200000000100040000000000000200000000000000000000000000000000000000000000000080000080000000808000800000008000800080800000C0C0C000808080000000FF0000FF000000FFFF00FF000000FF00FF00FFFF0000FFFFFF00FFFFFF00FFFFFFFFFFFFFFFFFFFFFFFFFFFFFF90FFFFFF
1004
FFFFFFFFFFFFFFFFFFFFFFFF90FFFFFFFFFFFFFFFFFFFFFFFFFFFFFF90FFFFFFFFFFFFFFFFFFFFFFFFFFFFFF90FFFFFFFFFFFFFFFFFFFFFFFFFFFFFF90FFFFFFFFFFFFFFFFFFFFFFFFFFFFFF900000BBBBBBBBF00000FFFFFFFFFFFF9999990FBBFBBB99999FFFFFFFFFFFFF9FFFF90FBBFFB0FFFFF0FFFFFFFFFFFF9FFFF9
1004
0BFFBBF0FFFFF0FFFFFFFFFFFF9FFFF90BFBBBF0FFFFF0FFFFFFFFFFFF9FFFF90FBBFBB0FFFFF0FFFFFFFFFFFF9FFFF90BBBFFB0FFFFF0FFFFFFFFFFFF9FFFF90BFFBBF0FFFFF0FFFFFFFFFFFF9FFFF90BFBBFB0FFFFF0FFFFFFFFFFFF9FFFF90FBBFFB0FFFFF0FFFFFFFFFFFF9FFFF90BBFBBB0FFFFF0FFFFFFFFFFFF9FFF
1004
F90BFFBBF0FFFFF0FFFFFFFFFFFF9FFFF90FBBBFB0FFFFF0FFFFFFFFFFFF9FFFF90FBBFFB0FFFFF0FFFFFFFFFFFF9FFFF90BFFBBF0FFFFF0FFFFFFFFFFFF9FFFF90BBFBBF0FFFFF0FFFFFFFFFFFF9FFFF90FBBFFB0FFFFF0FFFFFFFFFFFF9FFFF90FBBFBB0FFFFF0FFFFFFFFFFFF9FFFF90BFFBBF0FFFFF0FFFFFFFFFFFF9F
1004
FFF90BFBBBF0FFFFF0FFFFFFFFFFFF9FFFF90FBBFFB0FFFFF0FFFFFFFFFFFF9FFFF90BFBFBB0FFFF00FFFFFFFFFFFF9FFFF90BBFBBF0F0F9BFFFFFFFFFFFFF9FFFF90BFBFFB09BBBBFFFFFFFFFFFFF9FFFF90FBBBFBBF0BBBFFFFFFFFFFFFF999999BBBBBBBB0000FFFFFFFF
  0
BLOCK_RECORD
  5
34
100
AcDbSymbolTableRecord
100
AcDbBlockTableRecord
  2
SP976513-785
1001
CONTENTBLOCKICON
1071
        0
1004
2800000020000000200000000100040000000000000200000000000000000000000000000000000000000000000080000080000000808000800000008000800080800000C0C0C000808080000000FF0000FF000000FFFF00FF000000FF00FF00FFFF0000FFFFFF00FFFFFFFFFFFFFFFFFFFFFFF0FFFFFFFFFFFFFFFFFFFFFF
1004
FFFFFFFFF0FFFFFFFFFFFFFFFFFFFFFFFFFFFFFFF0FFFFFFFFFFFFFFFFFFFFFFFFFFFFFFF0FFFFFFFFFFFFFFFFFFFFFFFFFFFFFFF0FFFFFFFFFFFFFFF0F000BBBBBBBF0000FFFFFFFFFFFFFFF0FFFFBBFFBB9FFFF0FFFFFFFFFFFFFFF0FFFF0BBBBB9FFFF0FFFFFFFFFFFFFFF0FFFF0BBBFB9FFFF0FFFFFFFFFFFFFFF0FFFF
1004
BFBBBB9FFFF0FFFFFFFFFFFFFFF0FFFF0BBBBB9FFFF0FFFFFFFFFFFFFFF0FFFF0BBBBF9FFFF0FFFFFFFFFFFFFFF0FFFFBBFBBB9FFFF0FFFFFFFFFFFFFFF0FFFF0BBBBB9FFFF0FFFFFFFFFFFFFFF0FFFF0BBBBB9FFFF0FFFFFFFFFFFFFFF0FFFF0BBFBB9FFFF0FFFFFFFFFFFFFFF0FFFFBFBBFB9FFFF0FFFFFFFFFFFFFFF0FF
1004
FF0BBBBF9FFFF0FFFFFFFFFFFFFFF0FFFFBBBFBB9FFFF0FFFFFFFFFFFFFFF0FFFFBBFBBB9FFFF0FFFFFFFFFFFFFFF0FFFF0BBBBB9FFFF0FFFFFFFFFFFFFFF0FFFFBBBFBB9FFFF0FFFFFFFFFFFFFFF0FFFF0BBBBB9FFFF0FFFFFFFFFFFFFFF0FFFF0FBBBB9FFFBFFFFFFFFFFFFFFFF0FFFF0BBBFB99BBBFFFFFFFFFFFFFFFF0
1004
FFFFBBFBBB99BBBFFFFFFFFFFFFFFFF00000BBBBBBB099BFFFFFFFFFFFFFFFF00FFFFFFFFFFFFFFFFFFFFFFFFFFFFFF00FFFFFFFFFFFFFFFFFFFFFFFFFFFFFF00FFFFFFFFFFFFFFFFFFFFFFFFFFFFFF90FFFFFFFFFFFFFFFFFFFFFFFFFFFFFF00FFFFFFFFFFFFFFFFFFFFFFF
  0
ENDTAB
  0
ENDSEC
  0
SECTION
  2
BLOCKS
  0
BLOCK
  5
3
100
AcDbEntity
  8
0
100
AcDbBlockBegin
  2
*MODEL_SPACE
 70
     0
 10
0.0
 20
0.0
 30
0.0
  3
*MODEL_SPACE
  1

  0
ENDBLK
  5
6
100
AcDbEntity
  8
0
100
AcDbBlockEnd
  0
BLOCK
  5
8
100
AcDbEntity
 67
     1
  8
0
100
AcDbBlockBegin
  2
*PAPER_SPACE
 70
     0
 10
0.0
 20
0.0
 30
0.0
  3
*PAPER_SPACE
  1

  0
ENDBLK
  5
9
100
AcDbEntity
 67
     1
  8
0
100
AcDbBlockEnd
  0
BLOCK
  5
2E
100
AcDbEntity
  8
0
100
AcDbBlockBegin
  2
SIDA
 70
     0
 10
0.0
 20
0.0
 30
0.0
  3
SIDA
  1

  0
LWPOLYLINE
  5
1F
100
AcDbEntity
  8
RAM
 62
     5
100
AcDbPolyline
 90
        4
 70
     1
 43
0.0
 10
-20.0
 20
35.0
 10
-20.0
 20
560.0
 10
-380.0
 20
560.0
 10
-380.0
 20
35.0
  0
LINE
  5
21
100
AcDbEntity
  8
RAM
  6
DASHDOT
 62
     6
100
AcDbLine
 10
-260.0
 20
307.5
 30
0.0
 11
-260.0
 21
287.5
 31
0.0
  0
LINE
  5
23
100
AcDbEntity
  8
RAM
  6
DASHDOT
 62
     6
100
AcDbLine
 10
-270.0
 20
167.5
 30
0.0
 11
-250.0
 21
167.5
 31
0.0
  0
LINE
  5
24
100
AcDbEntity
  8
RAM
  6
DASHDOT
 62
     6
100
AcDbLine
 10
-260.0
 20
177.5
 30
0.0
 11
-260.0
 21
157.5
 31
0.0
  0
LINE
  5
25
100
AcDbEntity
  8
RAM
  6
DASHDOT
 62
     6
100
AcDbLine
 10
-270.0
 20
297.5
 30
0.0
 11
-250.0
 21
297.5
 31
0.0
  0
LINE
  5
26
100
AcDbEntity
  8
RAM
  6
DASHDOT
 62
     6
100
AcDbLine
 10
-270.0
 20
427.5
 30
0.0
 11
-250.0
 21
427.5
 31
0.0
  0
LINE
  5
27
100
AcDbEntity
  8
RAM
  6
DASHDOT
 62
     6
100
AcDbLine
 10
-260.0
 20
437.5
 30
0.0
 11
-260.0
 21
417.5
 31
0.0
  0
LINE
  5
28
100
AcDbEntity
  8
RAM
  6
DASHDOT
 62
     6
100
AcDbLine
 10
-140.0
 20
307.5
 30
0.0
 11
-140.0
 21
287.5
 31
0.0
  0
LINE
  5
29
100
AcDbEntity
  8
RAM
  6
DASHDOT
 62
     6
100
AcDbLine
 10
-140.0
 20
177.5
 30
0.0
 11
-140.0
 21
157.5
 31
0.0
  0
LINE
  5
2A
100
AcDbEntity
  8
RAM
  6
DASHDOT
 62
     6
100
AcDbLine
 10
-150.0
 20
167.5
 30
0.0
 11
-130.0
 21
167.5
 31
0.0
  0
LINE
  5
2B
100
AcDbEntity
  8
RAM
  6
DASHDOT
 62
     6
100
AcDbLine
 10
-150.0
 20
297.5
 30
0.0
 11
-130.0
 21
297.5
 31
0.0
  0
LINE
  5
2C
100
AcDbEntity
  8
RAM
  6
DASHDOT
 62
     6
100
AcDbLine
 10
-150.0
 20
427.5
 30
0.0
 11
-130.0
 21
427.5
 31
0.0
  0
LINE
  5
2D
100
AcDbEntity
  8
RAM
  6
DASHDOT
 62
     6
100
AcDbLine
 10
-140.0
 20
437.5
 30
0.0
 11
-140.0
 21
417.5
 31
0.0
  0
ENDBLK
  5
2F
100
AcDbEntity
  8
0
100
AcDbBlockEnd
  0
BLOCK
  5
CA
100
AcDbEntity
  8
0
100
AcDbBlockBegin
  2
*X1
 70
     1
 10
0.0
 20
0.0
 30
0.0
  3
*X1
  1

  0
LINE
  5
C0
100
AcDbEntity
  8
0
 62
     0
100
AcDbLine
 10
418.490967
 20
310.1066
 30
0.0
 11
421.167604
 21
313.296491
 31
0.0
  0
LINE
  5
C1
100
AcDbEntity
  8
0
 62
     0
100
AcDbLine
 10
423.349042
 20
315.896228
 30
0.0
 11
424.080112
 21
316.767482
 31
0.0
  0
LINE
  5
C2
100
AcDbEntity
  8
0
 62
     0
100
AcDbLine
 10
422.064957
 20
314.365914
 30
0.0
 11
422.918328
 21
315.382923
 31
0.0
  0
LINE
  5
C3
100
AcDbEntity
  8
0
 62
     0
100
AcDbLine
 10
418.226804
 20
311.736438
 30
0.0
 11
420.663771
 21
314.640701
 31
0.0
  0
LINE
  5
C4
100
AcDbEntity
  8
0
 62
     0
100
AcDbLine
 10
421.575811
 20
315.727628
 30
0.0
 11
422.569739
 21
316.912145
 31
0.0
  0
LINE
  5
C5
100
AcDbEntity
  8
0
 62
     0
100
AcDbLine
 10
417.857133
 20
313.240535
 30
0.0
 11
420.696467
 21
316.624321
 31
0.0
  0
LINE
  5
C6
100
AcDbEntity
  8
0
 62
     0
100
AcDbLine
 10
416.898348
 20
314.042554
 30
0.0
 11
418.169933
 21
315.55797
 31
0.0
  0
LINE
  5
C7
100
AcDbEntity
  8
0
 62
     0
100
AcDbLine
 10
418.751032
 20
308.471878
 30
0.0
 11
420.838188
 21
310.959254
 31
0.0
  0
LINE
  5
C8
100
AcDbEntity
  8
0
 62
     0
100
AcDbLine
 10
419.246616
 20
307.117837
 30
0.0
 11
421.130916
 21
309.363458
 31
0.0
  0
LINE
  5
C9
100
AcDbEntity
  8
0
 62
     0
100
AcDbLine
 10
421.204244
 20
307.506193
 30
0.0
 11
422.301392
 21
308.813723
 31
0.0
  0
ENDBLK
  5
CB
100
AcDbEntity
  8
0
100
AcDbBlockEnd
  0
BLOCK
  5
CC
100
AcDbEntity
  8
0
100
AcDbBlockBegin
  2
SP40010
 70
     0
 10
0.0
 20
0.0
 30
0.0
  3
SP40010
  1

  0
LWPOLYLINE
  5
BD
100
AcDbEntity
  8
GLAS_MED_FOGNING
100
AcDbPolyline
 90
       27
 70
     0
 43
0.0
 10
-8.905528
 20
18.626989
 10
-11.04147
 20
18.263989
 42
0.47758
 10
-11.422076
 20
17.585713
 10
-11.282581
 20
17.236207
 42
-1.066974
 10
-12.209806
 20
16.934105
 10
-12.855648
 20
19.46147
 10
-12.95764
 20
20.795213
 42
-0.851446
 10
-12.019738
 20
21.021209
 42
0.34625
 10
-11.479327
 20
20.720659
 10
-7.420891
 20
21.324081
 42
0.253088
 10
-6.015863
 20
22.369183
 10
-5.627377
 20
23.238611
 42
-0.653084
 10
-5.261375
 20
23.225047
 10
-4.446993
 20
21.166246
 42
0.887127
 10
-4.490032
 20
20.572081
 42
-0.212108
 10
-4.15725
 20
20.339586
 42
-0.212173
 10
-3.459619
 20
14.779472
 42
-0.418069
 10
-3.711416
 20
14.646619
 10
-4.293984
 20
14.830968
 42
-0.397156
 10
-4.360758
 20
14.950843
 42
0.194939
 10
-4.977068
 20
19.415768
 42
1.053912
 10
-5.578133
 20
19.061579
 10
-4.456808
 20
16.774085
 42
-0.459605
 10
-4.576654
 20
16.495183
 10
-5.081649
 20
16.337131
 42
-0.312484
 10
-5.190355
 20
16.371046
 42
0.373013
 10
-9.071884
 20
18.598717
  0
INSERT
  5
BE
100
AcDbEntity
  8
GLAS_MED_FOGNING
100
AcDbBlockReference
  2
*X1
 10
-314.5231
 20
443.46412
 30
0.0
 50
269.250599
1001
ACAD
1000
HATCH
1002
{
1070
    16
1000
ANSI31
1040
10.0
1040
0.087266
1002
}
  0
ENDBLK
  5
CD
100
AcDbEntity
  8
0
100
AcDbBlockEnd
  0
BLOCK
  5
D5
100
AcDbEntity
  8
0
100
AcDbBlockBegin
  2
SP30001
 70
     0
 10
0.0
 20
0.0
 30
0.0
  3
SP30001
  1

  0
LWPOLYLINE
  5
D3
100
AcDbEntity
  8
STALPROFIL
100
AcDbPolyline
 90
        6
 70
     0
 43
1.25
 10
-0.625
 20
16.0
 10
-0.625
 20
43.75
 42
-1.0
 10
0.625
 20
43.75
 10
0.625
 20
27.0
 42
0.414214
 10
2.0
 20
25.625
 10
13.75
 20
25.625
  0
LWPOLYLINE
  5
D4
100
AcDbEntity
  8
SPKONTUR
100
AcDbPolyline
 90
        6
 70
     0
 43
0.0
 10
-1.25
 20
16.0
 10
-1.25
 20
43.75
 42
-1.0
 10
1.25
 20
43.75
 10
1.25
 20
27.0
 42
0.414214
 10
2.0
 20
26.25
 10
13.75
 20
26.25
  0
ENDBLK
  5
D6
100
AcDbEntity
  8
0
100
AcDbBlockEnd
  0
BLOCK
  5
B6
100
AcDbEntity
  8
0
100
AcDbBlockBegin
  2
*X4
 70
     1
 10
0.0
 20
0.0
 30
0.0
  3
*X4
  1

  0
LINE
  5
3E
100
AcDbEntity
  8
0
 62
     0
100
AcDbLine
 10
-20.0
 20
-38.448041
 30
0.0
 11
-20.588874
 21
-37.185197
 31
0.0
  0
LINE
  5
3F
100
AcDbEntity
  8
0
 62
     0
100
AcDbLine
 10
-21.909556
 20
-34.352986
 30
0.0
 11
-23.230238
 21
-31.520774
 31
0.0
  0
LINE
  5
40
100
AcDbEntity
  8
0
 62
     0
100
AcDbLine
 10
-24.55092
 20
-28.688562
 30
0.0
 11
-25.871602
 21
-25.85635
 31
0.0
  0
LINE
  5
41
100
AcDbEntity
  8
0
 62
     0
100
AcDbLine
 10
-27.192284
 20
-23.024138
 30
0.0
 11
-28.512966
 21
-20.191926
 31
0.0
  0
LINE
  5
42
100
AcDbEntity
  8
0
 62
     0
100
AcDbLine
 10
-29.833648
 20
-17.359715
 30
0.0
 11
-31.15433
 21
-14.527503
 31
0.0
  0
LINE
  5
43
100
AcDbEntity
  8
0
 62
     0
100
AcDbLine
 10
-32.475012
 20
-11.695291
 30
0.0
 11
-33.795694
 21
-8.863079
 31
0.0
  0
LINE
  5
44
100
AcDbEntity
  8
0
 62
     0
100
AcDbLine
 10
-35.116376
 20
-6.030867
 30
0.0
 11
-36.437058
 21
-3.198655
 31
0.0
  0
LINE
  5
45
100
AcDbEntity
  8
0
 62
     0
100
AcDbLine
 10
-37.757741
 20
-0.366444
 30
0.0
 11
-39.078423
 21
2.465768
 31
0.0
  0
LINE
  5
46
100
AcDbEntity
  8
0
 62
     0
100
AcDbLine
 10
-40.399105
 20
5.29798
 30
0.0
 11
-41.719787
 21
8.130192
 31
0.0
  0
LINE
  5
47
100
AcDbEntity
  8
0
 62
     0
100
AcDbLine
 10
-43.040469
 20
10.962404
 30
0.0
 11
-44.361151
 21
13.794616
 31
0.0
  0
LINE
  5
48
100
AcDbEntity
  8
0
 62
     0
100
AcDbLine
 10
-20.779721
 20
-44.170303
 30
0.0
 11
-22.100403
 21
-41.338091
 31
0.0
  0
LINE
  5
49
100
AcDbEntity
  8
0
 62
     0
100
AcDbLine
 10
-23.421085
 20
-38.505879
 30
0.0
 11
-24.741768
 21
-35.673668
 31
0.0
  0
LINE
  5
4A
100
AcDbEntity
  8
0
 62
     0
100
AcDbLine
 10
-26.06245
 20
-32.841456
 30
0.0
 11
-27.383132
 21
-30.009244
 31
0.0
  0
LINE
  5
4B
100
AcDbEntity
  8
0
 62
     0
100
AcDbLine
 10
-28.703814
 20
-27.177032
 30
0.0
 11
-30.024496
 21
-24.34482
 31
0.0
  0
LINE
  5
4C
100
AcDbEntity
  8
0
 62
     0
100
AcDbLine
 10
-31.345178
 20
-21.512608
 30
0.0
 11
-32.66586
 21
-18.680397
 31
0.0
  0
LINE
  5
4D
100
AcDbEntity
  8
0
 62
     0
100
AcDbLine
 10
-33.986542
 20
-15.848185
 30
0.0
 11
-35.307224
 21
-13.015973
 31
0.0
  0
LINE
  5
4E
100
AcDbEntity
  8
0
 62
     0
100
AcDbLine
 10
-36.627906
 20
-10.183761
 30
0.0
 11
-37.948588
 21
-7.351549
 31
0.0
  0
LINE
  5
4F
100
AcDbEntity
  8
0
 62
     0
100
AcDbLine
 10
-39.26927
 20
-4.519337
 30
0.0
 11
-40.589952
 21
-1.687126
 31
0.0
  0
LINE
  5
50
100
AcDbEntity
  8
0
 62
     0
100
AcDbLine
 10
-41.910634
 20
1.145086
 30
0.0
 11
-43.231316
 21
3.977298
 31
0.0
  0
LINE
  5
51
100
AcDbEntity
  8
0
 62
     0
100
AcDbLine
 10
-44.551999
 20
6.80951
 30
0.0
 11
-45.0
 21
7.770252
 31
0.0
  0
LINE
  5
52
100
AcDbEntity
  8
0
 62
     0
100
AcDbLine
 10
-20.0
 20
-53.236801
 30
0.0
 11
-20.970569
 21
-51.155409
 31
0.0
  0
LINE
  5
53
100
AcDbEntity
  8
0
 62
     0
100
AcDbLine
 10
-22.291251
 20
-48.323197
 30
0.0
 11
-23.611933
 21
-45.490985
 31
0.0
  0
LINE
  5
54
100
AcDbEntity
  8
0
 62
     0
100
AcDbLine
 10
-24.932615
 20
-42.658773
 30
0.0
 11
-26.253297
 21
-39.826562
 31
0.0
  0
LINE
  5
55
100
AcDbEntity
  8
0
 62
     0
100
AcDbLine
 10
-27.573979
 20
-36.99435
 30
0.0
 11
-28.894661
 21
-34.162138
 31
0.0
  0
LINE
  5
56
100
AcDbEntity
  8
0
 62
     0
100
AcDbLine
 10
-30.215344
 20
-31.329926
 30
0.0
 11
-31.536026
 21
-28.497714
 31
0.0
  0
LINE
  5
57
100
AcDbEntity
  8
0
 62
     0
100
AcDbLine
 10
-32.856708
 20
-25.665502
 30
0.0
 11
-34.17739
 21
-22.833291
 31
0.0
  0
LINE
  5
58
100
AcDbEntity
  8
0
 62
     0
100
AcDbLine
 10
-35.498072
 20
-20.001079
 30
0.0
 11
-36.818754
 21
-17.168867
 31
0.0
  0
LINE
  5
59
100
AcDbEntity
  8
0
 62
     0
100
AcDbLine
 10
-38.139436
 20
-14.336655
 30
0.0
 11
-39.460118
 21
-11.504443
 31
0.0
  0
LINE
  5
5A
100
AcDbEntity
  8
0
 62
     0
100
AcDbLine
 10
-40.7808
 20
-8.672231
 30
0.0
 11
-42.101482
 21
-5.84002
 31
0.0
  0
LINE
  5
5B
100
AcDbEntity
  8
0
 62
     0
100
AcDbLine
 10
-43.422164
 20
-3.007808
 30
0.0
 11
-44.742846
 21
-0.175596
 31
0.0
  0
LINE
  5
5C
100
AcDbEntity
  8
0
 62
     0
100
AcDbLine
 10
-21.161417
 20
-58.140515
 30
0.0
 11
-22.482099
 21
-55.308303
 31
0.0
  0
LINE
  5
5D
100
AcDbEntity
  8
0
 62
     0
100
AcDbLine
 10
-23.802781
 20
-52.476091
 30
0.0
 11
-25.123463
 21
-49.643879
 31
0.0
  0
LINE
  5
5E
100
AcDbEntity
  8
0
 62
     0
100
AcDbLine
 10
-26.444145
 20
-46.811667
 30
0.0
 11
-27.764827
 21
-43.979455
 31
0.0
  0
LINE
  5
5F
100
AcDbEntity
  8
0
 62
     0
100
AcDbLine
 10
-29.085509
 20
-41.147244
 30
0.0
 11
-30.406191
 21
-38.315032
 31
0.0
  0
LINE
  5
60
100
AcDbEntity
  8
0
 62
     0
100
AcDbLine
 10
-31.726873
 20
-35.48282
 30
0.0
 11
-33.047555
 21
-32.650608
 31
0.0
  0
LINE
  5
61
100
AcDbEntity
  8
0
 62
     0
100
AcDbLine
 10
-34.368237
 20
-29.818396
 30
0.0
 11
-35.688919
 21
-26.986184
 31
0.0
  0
LINE
  5
62
100
AcDbEntity
  8
0
 62
     0
100
AcDbLine
 10
-37.009602
 20
-24.153973
 30
0.0
 11
-38.330284
 21
-21.321761
 31
0.0
  0
LINE
  5
63
100
AcDbEntity
  8
0
 62
     0
100
AcDbLine
 10
-39.650966
 20
-18.489549
 30
0.0
 11
-40.971648
 21
-15.657337
 31
0.0
  0
LINE
  5
64
100
AcDbEntity
  8
0
 62
     0
100
AcDbLine
 10
-42.29233
 20
-12.825125
 30
0.0
 11
-43.613012
 21
-9.992913
 31
0.0
  0
LINE
  5
65
100
AcDbEntity
  8
0
 62
     0
100
AcDbLine
 10
-44.933694
 20
-7.160702
 30
0.0
 11
-45.0
 21
-7.018508
 31
0.0
  0
LINE
  5
66
100
AcDbEntity
  8
0
 62
     0
100
AcDbLine
 10
-23.74238
 20
-60.0
 30
0.0
 11
-23.993629
 21
-59.461197
 31
0.0
  0
LINE
  5
67
100
AcDbEntity
  8
0
 62
     0
100
AcDbLine
 10
-25.314311
 20
-56.628985
 30
0.0
 11
-26.634993
 21
-53.796773
 31
0.0
  0
LINE
  5
68
100
AcDbEntity
  8
0
 62
     0
100
AcDbLine
 10
-27.955675
 20
-50.964561
 30
0.0
 11
-29.276357
 21
-48.132349
 31
0.0
  0
LINE
  5
69
100
AcDbEntity
  8
0
 62
     0
100
AcDbLine
 10
-30.597039
 20
-45.300138
 30
0.0
 11
-31.917721
 21
-42.467926
 31
0.0
  0
LINE
  5
6A
100
AcDbEntity
  8
0
 62
     0
100
AcDbLine
 10
-33.238403
 20
-39.635714
 30
0.0
 11
-34.559085
 21
-36.803502
 31
0.0
  0
LINE
  5
6B
100
AcDbEntity
  8
0
 62
     0
100
AcDbLine
 10
-35.879767
 20
-33.97129
 30
0.0
 11
-37.200449
 21
-31.139078
 31
0.0
  0
LINE
  5
6C
100
AcDbEntity
  8
0
 62
     0
100
AcDbLine
 10
-38.521131
 20
-28.306867
 30
0.0
 11
-39.841813
 21
-25.474655
 31
0.0
  0
LINE
  5
6D
100
AcDbEntity
  8
0
 62
     0
100
AcDbLine
 10
-41.162495
 20
-22.642443
 30
0.0
 11
-42.483178
 21
-19.810231
 31
0.0
  0
LINE
  5
6E
100
AcDbEntity
  8
0
 62
     0
100
AcDbLine
 10
-43.80386
 20
-16.978019
 30
0.0
 11
-45.0
 21
-14.412888
 31
0.0
  0
LINE
  5
6F
100
AcDbEntity
  8
0
 62
     0
100
AcDbLine
 10
-27.190436
 20
-60.0
 30
0.0
 11
-28.146522
 21
-57.949667
 31
0.0
  0
LINE
  5
70
100
AcDbEntity
  8
0
 62
     0
100
AcDbLine
 10
-29.467205
 20
-55.117455
 30
0.0
 11
-30.787887
 21
-52.285243
 31
0.0
  0
LINE
  5
71
100
AcDbEntity
  8
0
 62
     0
100
AcDbLine
 10
-32.108569
 20
-49.453031
 30
0.0
 11
-33.429251
 21
-46.62082
 31
0.0
  0
LINE
  5
72
100
AcDbEntity
  8
0
 62
     0
100
AcDbLine
 10
-34.749933
 20
-43.788608
 30
0.0
 11
-36.070615
 21
-40.956396
 31
0.0
  0
LINE
  5
73
100
AcDbEntity
  8
0
 62
     0
100
AcDbLine
 10
-37.391297
 20
-38.124184
 30
0.0
 11
-38.711979
 21
-35.291972
 31
0.0
  0
LINE
  5
74
100
AcDbEntity
  8
0
 62
     0
100
AcDbLine
 10
-40.032661
 20
-32.45976
 30
0.0
 11
-41.353343
 21
-29.627549
 31
0.0
  0
LINE
  5
75
100
AcDbEntity
  8
0
 62
     0
100
AcDbLine
 10
-42.674025
 20
-26.795337
 30
0.0
 11
-43.994707
 21
-23.963125
 31
0.0
  0
LINE
  5
76
100
AcDbEntity
  8
0
 62
     0
100
AcDbLine
 10
-30.978734
 20
-59.270349
 30
0.0
 11
-32.299416
 21
-56.438137
 31
0.0
  0
LINE
  5
77
100
AcDbEntity
  8
0
 62
     0
100
AcDbLine
 10
-33.620098
 20
-53.605925
 30
0.0
 11
-34.940781
 21
-50.773713
 31
0.0
  0
LINE
  5
78
100
AcDbEntity
  8
0
 62
     0
100
AcDbLine
 10
-36.261463
 20
-47.941502
 30
0.0
 11
-37.582145
 21
-45.10929
 31
0.0
  0
LINE
  5
79
100
AcDbEntity
  8
0
 62
     0
100
AcDbLine
 10
-38.902827
 20
-42.277078
 30
0.0
 11
-40.223509
 21
-39.444866
 31
0.0
  0
LINE
  5
7A
100
AcDbEntity
  8
0
 62
     0
100
AcDbLine
 10
-41.544191
 20
-36.612654
 30
0.0
 11
-42.864873
 21
-33.780442
 31
0.0
  0
LINE
  5
7B
100
AcDbEntity
  8
0
 62
     0
100
AcDbLine
 10
-44.185555
 20
-30.948231
 30
0.0
 11
-45.0
 21
-29.201648
 31
0.0
  0
LINE
  5
7C
100
AcDbEntity
  8
0
 62
     0
100
AcDbLine
 10
-35.131628
 20
-57.758819
 30
0.0
 11
-36.45231
 21
-54.926607
 31
0.0
  0
LINE
  5
7D
100
AcDbEntity
  8
0
 62
     0
100
AcDbLine
 10
-37.772992
 20
-52.094396
 30
0.0
 11
-39.093674
 21
-49.262184
 31
0.0
  0
LINE
  5
7E
100
AcDbEntity
  8
0
 62
     0
100
AcDbLine
 10
-40.414356
 20
-46.429972
 30
0.0
 11
-41.735039
 21
-43.59776
 31
0.0
  0
LINE
  5
7F
100
AcDbEntity
  8
0
 62
     0
100
AcDbLine
 10
-43.055721
 20
-40.765548
 30
0.0
 11
-44.376403
 21
-37.933336
 31
0.0
  0
LINE
  5
80
100
AcDbEntity
  8
0
 62
     0
100
AcDbLine
 10
-37.534604
 20
-60.0
 30
0.0
 11
-37.96384
 21
-59.079501
 31
0.0
  0
LINE
  5
81
100
AcDbEntity
  8
0
 62
     0
100
AcDbLine
 10
-39.284522
 20
-56.247289
 30
0.0
 11
-40.605204
 21
-53.415078
 31
0.0
  0
LINE
  5
82
100
AcDbEntity
  8
0
 62
     0
100
AcDbLine
 10
-41.925886
 20
-50.582866
 30
0.0
 11
-43.246568
 21
-47.750654
 31
0.0
  0
LINE
  5
83
100
AcDbEntity
  8
0
 62
     0
100
AcDbLine
 10
-44.56725
 20
-44.918442
 30
0.0
 11
-45.0
 21
-43.990408
 31
0.0
  0
LINE
  5
84
100
AcDbEntity
  8
0
 62
     0
100
AcDbLine
 10
-40.98266
 20
-60.0
 30
0.0
 11
-42.116734
 21
-57.567972
 31
0.0
  0
LINE
  5
85
100
AcDbEntity
  8
0
 62
     0
100
AcDbLine
 10
-43.437416
 20
-54.73576
 30
0.0
 11
-44.758098
 21
-51.903548
 31
0.0
  0
LINE
  5
86
100
AcDbEntity
  8
0
 62
     0
100
AcDbLine
 10
-44.948946
 20
-58.888654
 30
0.0
 11
-45.0
 21
-58.779167
 31
0.0
  0
LINE
  5
87
100
AcDbEntity
  8
0
 62
     0
100
AcDbLine
 10
-20.398026
 20
-30.200092
 30
0.0
 11
-21.718708
 21
-27.36788
 31
0.0
  0
LINE
  5
88
100
AcDbEntity
  8
0
 62
     0
100
AcDbLine
 10
-23.03939
 20
-24.535668
 30
0.0
 11
-24.360072
 21
-21.703456
 31
0.0
  0
LINE
  5
89
100
AcDbEntity
  8
0
 62
     0
100
AcDbLine
 10
-25.680754
 20
-18.871244
 30
0.0
 11
-27.001436
 21
-16.039033
 31
0.0
  0
LINE
  5
8A
100
AcDbEntity
  8
0
 62
     0
100
AcDbLine
 10
-28.322118
 20
-13.206821
 30
0.0
 11
-29.6428
 21
-10.374609
 31
0.0
  0
LINE
  5
8B
100
AcDbEntity
  8
0
 62
     0
100
AcDbLine
 10
-30.963482
 20
-7.542397
 30
0.0
 11
-32.284165
 21
-4.710185
 31
0.0
  0
LINE
  5
8C
100
AcDbEntity
  8
0
 62
     0
100
AcDbLine
 10
-33.604847
 20
-1.877973
 30
0.0
 11
-34.925529
 21
0.954238
 31
0.0
  0
LINE
  5
8D
100
AcDbEntity
  8
0
 62
     0
100
AcDbLine
 10
-36.246211
 20
3.78645
 30
0.0
 11
-37.566893
 21
6.618662
 31
0.0
  0
LINE
  5
8E
100
AcDbEntity
  8
0
 62
     0
100
AcDbLine
 10
-38.887575
 20
9.450874
 30
0.0
 11
-40.208257
 21
12.283086
 31
0.0
  0
LINE
  5
8F
100
AcDbEntity
  8
0
 62
     0
100
AcDbLine
 10
-41.528939
 20
15.115298
 30
0.0
 11
-42.849621
 21
17.947509
 31
0.0
  0
LINE
  5
90
100
AcDbEntity
  8
0
 62
     0
100
AcDbLine
 10
-44.170303
 20
20.779721
 30
0.0
 11
-45.0
 21
22.559012
 31
0.0
  0
LINE
  5
91
100
AcDbEntity
  8
0
 62
     0
100
AcDbLine
 10
-20.0
 20
-23.659281
 30
0.0
 11
-20.207178
 21
-23.214986
 31
0.0
  0
LINE
  5
92
100
AcDbEntity
  8
0
 62
     0
100
AcDbLine
 10
-21.52786
 20
-20.382774
 30
0.0
 11
-22.848542
 21
-17.550562
 31
0.0
  0
LINE
  5
93
100
AcDbEntity
  8
0
 62
     0
100
AcDbLine
 10
-24.169224
 20
-14.71835
 30
0.0
 11
-25.489907
 21
-11.886139
 31
0.0
  0
LINE
  5
94
100
AcDbEntity
  8
0
 62
     0
100
AcDbLine
 10
-26.810589
 20
-9.053927
 30
0.0
 11
-28.131271
 21
-6.221715
 31
0.0
  0
LINE
  5
95
100
AcDbEntity
  8
0
 62
     0
100
AcDbLine
 10
-29.451953
 20
-3.389503
 30
0.0
 11
-30.772635
 21
-0.557291
 31
0.0
  0
LINE
  5
96
100
AcDbEntity
  8
0
 62
     0
100
AcDbLine
 10
-32.093317
 20
2.274921
 30
0.0
 11
-33.413999
 21
5.107132
 31
0.0
  0
LINE
  5
97
100
AcDbEntity
  8
0
 62
     0
100
AcDbLine
 10
-34.734681
 20
7.939344
 30
0.0
 11
-36.055363
 21
10.771556
 31
0.0
  0
LINE
  5
98
100
AcDbEntity
  8
0
 62
     0
100
AcDbLine
 10
-37.376045
 20
13.603768
 30
0.0
 11
-38.696727
 21
16.43598
 31
0.0
  0
LINE
  5
99
100
AcDbEntity
  8
0
 62
     0
100
AcDbLine
 10
-40.017409
 20
19.268192
 30
0.0
 11
-41.338091
 21
22.100403
 31
0.0
  0
LINE
  5
9A
100
AcDbEntity
  8
0
 62
     0
100
AcDbLine
 10
-42.658773
 20
24.932615
 30
0.0
 11
-42.690195
 21
25.0
 31
0.0
  0
LINE
  5
9B
100
AcDbEntity
  8
0
 62
     0
100
AcDbLine
 10
-20.016331
 20
-16.22988
 30
0.0
 11
-21.337013
 21
-13.397668
 31
0.0
  0
LINE
  5
9C
100
AcDbEntity
  8
0
 62
     0
100
AcDbLine
 10
-22.657695
 20
-10.565457
 30
0.0
 11
-23.978377
 21
-7.733245
 31
0.0
  0
LINE
  5
9D
100
AcDbEntity
  8
0
 62
     0
100
AcDbLine
 10
-25.299059
 20
-4.901033
 30
0.0
 11
-26.619741
 21
-2.068821
 31
0.0
  0
LINE
  5
9E
100
AcDbEntity
  8
0
 62
     0
100
AcDbLine
 10
-27.940423
 20
0.763391
 30
0.0
 11
-29.261105
 21
3.595603
 31
0.0
  0
LINE
  5
9F
100
AcDbEntity
  8
0
 62
     0
100
AcDbLine
 10
-30.581787
 20
6.427814
 30
0.0
 11
-31.902469
 21
9.260026
 31
0.0
  0
LINE
  5
A0
100
AcDbEntity
  8
0
 62
     0
100
AcDbLine
 10
-33.223151
 20
12.092238
 30
0.0
 11
-34.543833
 21
14.92445
 31
0.0
  0
LINE
  5
A1
100
AcDbEntity
  8
0
 62
     0
100
AcDbLine
 10
-35.864515
 20
17.756662
 30
0.0
 11
-37.185197
 21
20.588874
 31
0.0
  0
LINE
  5
A2
100
AcDbEntity
  8
0
 62
     0
100
AcDbLine
 10
-38.505879
 20
23.421085
 30
0.0
 11
-39.242139
 21
25.0
 31
0.0
  0
LINE
  5
A3
100
AcDbEntity
  8
0
 62
     0
100
AcDbLine
 10
-21.146165
 20
-6.412563
 30
0.0
 11
-22.466847
 21
-3.580351
 31
0.0
  0
LINE
  5
A4
100
AcDbEntity
  8
0
 62
     0
100
AcDbLine
 10
-23.787529
 20
-0.748139
 30
0.0
 11
-25.108211
 21
2.084073
 31
0.0
  0
LINE
  5
A5
100
AcDbEntity
  8
0
 62
     0
100
AcDbLine
 10
-26.428893
 20
4.916285
 30
0.0
 11
-27.749575
 21
7.748497
 31
0.0
  0
LINE
  5
A6
100
AcDbEntity
  8
0
 62
     0
100
AcDbLine
 10
-29.070257
 20
10.580708
 30
0.0
 11
-30.390939
 21
13.41292
 31
0.0
  0
LINE
  5
A7
100
AcDbEntity
  8
0
 62
     0
100
AcDbLine
 10
-31.711621
 20
16.245132
 30
0.0
 11
-33.032304
 21
19.077344
 31
0.0
  0
LINE
  5
A8
100
AcDbEntity
  8
0
 62
     0
100
AcDbLine
 10
-34.352986
 20
21.909556
 30
0.0
 11
-35.673668
 21
24.741768
 31
0.0
  0
LINE
  5
A9
100
AcDbEntity
  8
0
 62
     0
100
AcDbLine
 10
-20.0
 20
-1.476141
 30
0.0
 11
-20.955317
 21
0.572543
 31
0.0
  0
LINE
  5
AA
100
AcDbEntity
  8
0
 62
     0
100
AcDbLine
 10
-22.275999
 20
3.404755
 30
0.0
 11
-23.596681
 21
6.236967
 31
0.0
  0
LINE
  5
AB
100
AcDbEntity
  8
0
 62
     0
100
AcDbLine
 10
-24.917363
 20
9.069179
 30
0.0
 11
-26.238045
 21
11.90139
 31
0.0
  0
LINE
  5
AC
100
AcDbEntity
  8
0
 62
     0
100
AcDbLine
 10
-27.558728
 20
14.733602
 30
0.0
 11
-28.87941
 21
17.565814
 31
0.0
  0
LINE
  5
AD
100
AcDbEntity
  8
0
 62
     0
100
AcDbLine
 10
-30.200092
 20
20.398026
 30
0.0
 11
-31.520774
 21
23.230238
 31
0.0
  0
LINE
  5
AE
100
AcDbEntity
  8
0
 62
     0
100
AcDbLine
 10
-20.76447
 20
7.557649
 30
0.0
 11
-22.085152
 21
10.389861
 31
0.0
  0
LINE
  5
AF
100
AcDbEntity
  8
0
 62
     0
100
AcDbLine
 10
-23.405834
 20
13.222073
 30
0.0
 11
-24.726516
 21
16.054284
 31
0.0
  0
LINE
  5
B0
100
AcDbEntity
  8
0
 62
     0
100
AcDbLine
 10
-26.047198
 20
18.886496
 30
0.0
 11
-27.36788
 21
21.718708
 31
0.0
  0
LINE
  5
B1
100
AcDbEntity
  8
0
 62
     0
100
AcDbLine
 10
-28.688562
 20
24.55092
 30
0.0
 11
-28.897971
 21
25.0
 31
0.0
  0
LINE
  5
B2
100
AcDbEntity
  8
0
 62
     0
100
AcDbLine
 10
-20.0
 20
13.312619
 30
0.0
 11
-20.573622
 21
14.542755
 31
0.0
  0
LINE
  5
B3
100
AcDbEntity
  8
0
 62
     0
100
AcDbLine
 10
-21.894304
 20
17.374966
 30
0.0
 11
-23.214986
 21
20.207178
 31
0.0
  0
LINE
  5
B4
100
AcDbEntity
  8
0
 62
     0
100
AcDbLine
 10
-24.535668
 20
23.03939
 30
0.0
 11
-25.449915
 21
25.0
 31
0.0
  0
LINE
  5
B5
100
AcDbEntity
  8
0
 62
     0
100
AcDbLine
 10
-20.382774
 20
21.52786
 30
0.0
 11
-21.703456
 21
24.360072
 31
0.0
  0
ENDBLK
  5
B7
100
AcDbEntity
  8
0
100
AcDbBlockEnd
  0
BLOCK
  5
123
100
AcDbEntity
  8
0
100
AcDbBlockBegin
  2
SP976510-785
 70
     0
 10
0.0
 20
0.0
 30
0.0
  3
SP976510-785
  1

  0
INSERT
  5
11B
100
AcDbEntity
  8
GLAS_MED_FOGNING
100
AcDbBlockReference
  2
*X4
 10
0.0
 20
0.0
 30
0.0
1001
ACAD
1000
HATCH
1002
{
1070
    16
1000
DASH
1040
25.0
1040
2.007129
1002
}
  0
LWPOLYLINE
  5
11C
100
AcDbEntity
  8
STALPROFIL
100
AcDbPolyline
 90
       22
 70
     1
 43
1.8
 10
-8.114719
 20
17.5
 10
-8.1
 20
17.5
 42
-0.414214
 10
-6.5
 20
15.9
 10
-6.5
 20
13.8
 42
0.414214
 10
-3.8
 20
11.1
 10
-3.6
 20
11.1
 42
-0.414214
 10
-0.9
 20
8.4
 10
-0.9
 20
-58.2
 42
-0.414214
 10
-1.8
 20
-59.1
 10
-18.2
 20
-59.1
 42
-0.414214
 10
-19.1
 20
-58.2
 10
-19.1
 20
23.2
 42
-0.414214
 10
-18.2
 20
24.1
 10
-7.9
 20
24.1
 42
-0.414214
 10
-7.0
 20
23.199
 42
-0.414214
 10
-7.899
 20
22.3
 10
-12.6
 20
22.3
 42
0.414214
 10
-15.3
 20
19.6
 10
-15.3
 20
18.2
 42
0.414214
 10
-12.6
 20
15.5
 42
0.198912
 10
-9.842284
 20
16.642284
 10
-9.599643
 20
16.884924
 42
-0.198912
  0
LWPOLYLINE
  5
11D
100
AcDbEntity
  8
SPKONTUR
100
AcDbPolyline
 90
       25
 70
     0
 43
0.0
 10
-8.1
 20
18.4
 10
-8.114719
 20
18.4
 10
-8.1
 20
18.4
 42
-0.414214
 10
-5.6
 20
15.9
 10
-5.6
 20
13.8
 42
0.414214
 10
-3.8
 20
12.0
 10
-3.6
 20
12.0
 42
-0.414214
 10
0.0
 20
8.4
 10
0.0
 20
-58.2
 42
-0.414214
 10
-1.8
 20
-60.0
 10
-18.2
 20
-60.0
 42
-0.414214
 10
-20.0
 20
-58.2
 10
-20.0
 20
23.2
 42
-0.414214
 10
-18.2
 20
25.0
 10
-7.9
 20
25.0
 42
-0.414214
 10
-6.1
 20
23.2
 10
-6.1
 20
23.199
 42
-0.414214
 10
-7.899
 20
21.4
 10
-12.6
 20
21.4
 42
0.414214
 10
-14.4
 20
19.6
 10
-14.4
 20
18.2
 42
0.414214
 10
-12.6
 20
16.4
 42
0.198912
 10
-10.47868
 20
17.27868
 10
-10.236039
 20
17.52132
 42
-0.198912
 10
-8.114719
 20
18.4
  0
LWPOLYLINE
  5
11E
100
AcDbEntity
  8
SPKONTUR
100
AcDbPolyline
 90
        8
 70
     1
 43
0.0
 10
-65.0
 20
23.2
 42
-0.414214
 10
-63.2
 20
25.0
 10
-46.8
 20
25.0
 42
-0.414214
 10
-45.0
 20
23.2
 10
-45.0
 20
-58.2
 42
-0.414214
 10
-46.8
 20
-60.0
 10
-63.2
 20
-60.0
 42
-0.414214
 10
-65.0
 20
-58.2
  0
LWPOLYLINE
  5
11F
100
AcDbEntity
  8
STALPROFIL
100
AcDbPolyline
 90
        8
 70
     1
 43
1.8
 10
-64.1
 20
23.2
 42
-0.414214
 10
-63.2
 20
24.1
 10
-46.8
 20
24.1
 42
-0.414214
 10
-45.9
 20
23.2
 10
-45.9
 20
-58.2
 42
-0.414214
 10
-46.8
 20
-59.1
 10
-63.2
 20
-59.1
 42
-0.414214
 10
-64.1
 20
-58.2
  0
LWPOLYLINE
  5
120
100
AcDbEntity
  8
GLAS_MED_FOGNING
100
AcDbPolyline
 90
        4
 70
     0
 43
0.0
 10
-20.0
 20
-58.2
 10
-20.0
 20
-60.0
 10
-45.0
 20
-60.0
 10
-45.0
 20
-58.2
  0
INSERT
  5
121
100
AcDbEntity
  8
GLAS_MED_FOGNING
100
AcDbBlockReference
  2
SP40010
 10
0.0
 20
0.0
 30
0.0
  0
LWPOLYLINE
  5
122
100
AcDbEntity
  8
GLAS_MED_FOGNING
100
AcDbPolyline
 90
        4
 70
     0
 43
0.0
 10
-20.0
 20
23.2
 10
-20.0
 20
25.0
 10
-45.0
 20
25.0
 10
-45.0
 20
23.2
  0
ENDBLK
  5
124
100
AcDbEntity
  8
0
100
AcDbBlockEnd
  0
BLOCK
  5
131
100
AcDbEntity
  8
0
100
AcDbBlockBegin
  2
SP976520-785
 70
     0
 10
0.0
 20
0.0
 30
0.0
  3
SP976520-785
  1

  0
INSERT
  5
12A
100
AcDbEntity
  8
GLAS_MED_FOGNING
100
AcDbBlockReference
  2
*X4
 10
0.0
 20
0.0
 30
0.0
1001
ACAD
1000
HATCH
1002
{
1070
    16
1000
DASH
1040
25.0
1040
2.007129
1002
}
  0
LWPOLYLINE
  5
12B
100
AcDbEntity
  8
STALPROFIL
100
AcDbPolyline
 90
        8
 70
     1
 43
1.8
 10
-64.1
 20
23.2
 42
-0.414214
 10
-63.2
 20
24.1
 10
-46.8
 20
24.1
 42
-0.414214
 10
-45.9
 20
23.2
 10
-45.9
 20
-58.2
 42
-0.414214
 10
-46.8
 20
-59.1
 10
-63.2
 20
-59.1
 42
-0.414214
 10
-64.1
 20
-58.2
  0
LWPOLYLINE
  5
12C
100
AcDbEntity
  8
SPKONTUR
100
AcDbPolyline
 90
        8
 70
     1
 43
0.0
 10
-65.0
 20
23.2
 42
-0.414214
 10
-63.2
 20
25.0
 10
-46.8
 20
25.0
 42
-0.414214
 10
-45.0
 20
23.2
 10
-45.0
 20
-58.2
 42
-0.414214
 10
-46.8
 20
-60.0
 10
-63.2
 20
-60.0
 42
-0.414214
 10
-65.0
 20
-58.2
  0
LWPOLYLINE
  5
12D
100
AcDbEntity
  8
STALPROFIL
100
AcDbPolyline
 90
        8
 70
     1
 43
1.8
 10
-19.1
 20
23.2
 42
-0.414214
 10
-18.2
 20
24.1
 10
-1.8
 20
24.1
 42
-0.414214
 10
-0.9
 20
23.2
 10
-0.9
 20
-58.2
 42
-0.414214
 10
-1.8
 20
-59.1
 10
-18.2
 20
-59.1
 42
-0.414214
 10
-19.1
 20
-58.2
  0
LWPOLYLINE
  5
12E
100
AcDbEntity
  8
SPKONTUR
100
AcDbPolyline
 90
        8
 70
     1
 43
0.0
 10
-20.0
 20
23.2
 42
-0.414214
 10
-18.2
 20
25.0
 10
-1.8
 20
25.0
 42
-0.414214
 10
0.0
 20
23.2
 10
0.0
 20
-58.2
 42
-0.414214
 10
-1.8
 20
-60.0
 10
-18.2
 20
-60.0
 42
-0.414214
 10
-20.0
 20
-58.2
  0
LWPOLYLINE
  5
12F
100
AcDbEntity
  8
GLAS_MED_FOGNING
100
AcDbPolyline
 90
        4
 70
     0
 43
0.0
 10
-20.0
 20
-58.2
 10
-20.0
 20
-60.0
 10
-45.0
 20
-60.0
 10
-45.0
 20
-58.2
  0
LWPOLYLINE
  5
130
100
AcDbEntity
  8
GLAS_MED_FOGNING
100
AcDbPolyline
 90
        4
 70
     0
 43
0.0
 10
-20.0
 20
23.2
 10
-20.0
 20
25.0
 10
-45.0
 20
25.0
 10
-45.0
 20
23.2
  0
ENDBLK
  5
132
100
AcDbEntity
  8
0
100
AcDbBlockEnd
  0
BLOCK
  5
13D
100
AcDbEntity
  8
0
100
AcDbBlockBegin
  2
SP976523-785
 70
     0
 10
0.0
 20
0.0
 30
0.0
  3
SP976523-785
  1

  0
INSERT
  5
136
100
AcDbEntity
  8
GLAS_MED_FOGNING
100
AcDbBlockReference
  2
*X4
 10
0.0
 20
0.0
 30
0.0
1001
ACAD
1000
HATCH
1002
{
1070
    16
1000
DASH
1040
25.0
1040
2.007129
1002
}
  0
LWPOLYLINE
  5
137
100
AcDbEntity
  8
STALPROFIL
100
AcDbPolyline
 90
       11
 70
     1
 43
1.8
 10
-61.4
 20
24.1
 10
-46.8
 20
24.1
 42
-0.414214
 10
-45.9
 20
23.2
 10
-45.9
 20
-58.2
 42
-0.414214
 10
-46.8
 20
-59.1
 10
-63.2
 20
-59.1
 42
-0.414214
 10
-64.1
 20
-58.2
 10
-64.1
 20
43.2
 42
-0.414214
 10
-63.199
 20
44.1
 42
-0.414214
 10
-62.3
 20
43.201
 10
-62.3
 20
25.0
 42
0.414214
  0
LWPOLYLINE
  5
138
100
AcDbEntity
  8
SPKONTUR
100
AcDbPolyline
 90
       11
 70
     1
 43
0.0
 10
-61.4
 20
25.0
 10
-46.8
 20
25.0
 42
-0.414214
 10
-45.0
 20
23.2
 10
-45.0
 20
-58.2
 42
-0.414214
 10
-46.8
 20
-60.0
 10
-63.2
 20
-60.0
 42
-0.414214
 10
-65.0
 20
-58.2
 10
-65.0
 20
43.2
 42
-0.414214
 10
-63.2
 20
45.0
 10
-63.199
 20
45.0
 42
-0.414214
 10
-61.4
 20
43.201
  0
LWPOLYLINE
  5
139
100
AcDbEntity
  8
SPKONTUR
100
AcDbPolyline
 90
       11
 70
     1
 43
0.0
 10
-3.6
 20
-60.0
 10
-18.2
 20
-60.0
 42
-0.414214
 10
-20.0
 20
-58.2
 10
-20.0
 20
23.2
 42
-0.414214
 10
-18.2
 20
25.0
 10
-1.8
 20
25.0
 42
-0.414214
 10
0.0
 20
23.2
 10
0.0
 20
-78.2
 42
-0.414214
 10
-1.8
 20
-80.0
 10
-1.801
 20
-80.0
 42
-0.414214
 10
-3.6
 20
-78.201
  0
LWPOLYLINE
  5
13A
100
AcDbEntity
  8
STALPROFIL
100
AcDbPolyline
 90
       11
 70
     1
 43
1.8
 10
-3.6
 20
-59.1
 10
-18.2
 20
-59.1
 42
-0.414214
 10
-19.1
 20
-58.2
 10
-19.1
 20
23.2
 42
-0.414214
 10
-18.2
 20
24.1
 10
-1.8
 20
24.1
 42
-0.414214
 10
-0.9
 20
23.2
 10
-0.9
 20
-78.2
 42
-0.414214
 10
-1.801
 20
-79.1
 42
-0.414214
 10
-2.7
 20
-78.201
 10
-2.7
 20
-60.0
 42
0.414214
  0
LWPOLYLINE
  5
13B
100
AcDbEntity
  8
GLAS_MED_FOGNING
100
AcDbPolyline
 90
        4
 70
     0
 43
0.0
 10
-20.0
 20
-58.2
 10
-20.0
 20
-60.0
 10
-45.0
 20
-60.0
 10
-45.0
 20
-58.2
  0
LWPOLYLINE
  5
13C
100
AcDbEntity
  8
GLAS_MED_FOGNING
100
AcDbPolyline
 90
        4
 70
     0
 43
0.0
 10
-20.0
 20
23.2
 10
-20.0
 20
25.0
 10
-45.0
 20
25.0
 10
-45.0
 20
23.2
  0
ENDBLK
  5
13E
100
AcDbEntity
  8
0
100
AcDbBlockEnd
  0
BLOCK
  5
CF
100
AcDbEntity
  8
0
100
AcDbBlockBegin
  2
SP976511-785
 70
     0
 10
0.0
 20
0.0
 30
0.0
  3
SP976511-785
  1

  0
LWPOLYLINE
  5
37
100
AcDbEntity
  8
STALPROFIL
100
AcDbPolyline
 90
       11
 70
     1
 43
1.8
 10
-61.4
 20
24.1
 10
-46.8
 20
24.1
 42
-0.414214
 10
-45.9
 20
23.2
 10
-45.9
 20
-58.2
 42
-0.414214
 10
-46.8
 20
-59.1
 10
-63.2
 20
-59.1
 42
-0.414214
 10
-64.1
 20
-58.2
 10
-64.1
 20
43.2
 42
-0.414214
 10
-63.199
 20
44.1
 42
-0.414214
 10
-62.3
 20
43.201
 10
-62.3
 20
25.0
 42
0.414214
  0
LWPOLYLINE
  5
39
100
AcDbEntity
  8
SPKONTUR
100
AcDbPolyline
 90
       11
 70
     1
 43
0.0
 10
-61.4
 20
25.0
 10
-46.8
 20
25.0
 42
-0.414214
 10
-45.0
 20
23.2
 10
-45.0
 20
-58.2
 42
-0.414214
 10
-46.8
 20
-60.0
 10
-63.2
 20
-60.0
 42
-0.414214
 10
-65.0
 20
-58.2
 10
-65.0
 20
43.2
 42
-0.414214
 10
-63.2
 20
45.0
 10
-63.199
 20
45.0
 42
-0.414214
 10
-61.4
 20
43.201
  0
INSERT
  5
3B
100
AcDbEntity
  8
GLAS_MED_FOGNING
100
AcDbBlockReference
  2
*X4
 10
0.0
 20
0.0
 30
0.0
1001
ACAD
1000
HATCH
1002
{
1070
    16
1000
DASH
1040
25.0
1040
2.007129
1002
}
  0
LWPOLYLINE
  5
B8
100
AcDbEntity
  8
SPKONTUR
100
AcDbPolyline
 90
       25
 70
     0
 43
0.0
 10
-8.1
 20
18.4
 10
-8.114719
 20
18.4
 10
-8.1
 20
18.4
 42
-0.414214
 10
-5.6
 20
15.9
 10
-5.6
 20
13.8
 42
0.414214
 10
-3.8
 20
12.0
 10
-3.6
 20
12.0
 42
-0.414214
 10
0.0
 20
8.4
 10
0.0
 20
-58.2
 42
-0.414214
 10
-1.8
 20
-60.0
 10
-18.2
 20
-60.0
 42
-0.414214
 10
-20.0
 20
-58.2
 10
-20.0
 20
23.2
 42
-0.414214
 10
-18.2
 20
25.0
 10
-7.9
 20
25.0
 42
-0.414214
 10
-6.1
 20
23.2
 10
-6.1
 20
23.199
 42
-0.414214
 10
-7.899
 20
21.4
 10
-12.6
 20
21.4
 42
0.414214
 10
-14.4
 20
19.6
 10
-14.4
 20
18.2
 42
0.414214
 10
-12.6
 20
16.4
 42
0.198912
 10
-10.47868
 20
17.27868
 10
-10.236039
 20
17.52132
 42
-0.198912
 10
-8.114719
 20
18.4
  0
LWPOLYLINE
  5
B9
100
AcDbEntity
  8
STALPROFIL
100
AcDbPolyline
 90
       22
 70
     1
 43
1.8
 10
-8.114719
 20
17.5
 10
-8.1
 20
17.5
 42
-0.414214
 10
-6.5
 20
15.9
 10
-6.5
 20
13.8
 42
0.414214
 10
-3.8
 20
11.1
 10
-3.6
 20
11.1
 42
-0.414214
 10
-0.9
 20
8.4
 10
-0.9
 20
-58.2
 42
-0.414214
 10
-1.8
 20
-59.1
 10
-18.2
 20
-59.1
 42
-0.414214
 10
-19.1
 20
-58.2
 10
-19.1
 20
23.2
 42
-0.414214
 10
-18.2
 20
24.1
 10
-7.9
 20
24.1
 42
-0.414214
 10
-7.0
 20
23.199
 42
-0.414214
 10
-7.899
 20
22.3
 10
-12.6
 20
22.3
 42
0.414214
 10
-15.3
 20
19.6
 10
-15.3
 20
18.2
 42
0.414214
 10
-12.6
 20
15.5
 42
0.198912
 10
-9.842284
 20
16.642284
 10
-9.599643
 20
16.884924
 42
-0.198912
  0
LWPOLYLINE
  5
BA
100
AcDbEntity
  8
GLAS_MED_FOGNING
100
AcDbPolyline
 90
        4
 70
     0
 43
0.0
 10
-20.0
 20
-58.2
 10
-20.0
 20
-60.0
 10
-45.0
 20
-60.0
 10
-45.0
 20
-58.2
  0
INSERT
  5
BB
100
AcDbEntity
  8
GLAS_MED_FOGNING
100
AcDbBlockReference
  2
SP40010
 10
0.0
 20
0.0
 30
0.0
  0
LWPOLYLINE
  5
CE
100
AcDbEntity
  8
GLAS_MED_FOGNING
100
AcDbPolyline
 90
        4
 70
     0
 43
0.0
 10
-20.0
 20
23.2
 10
-20.0
 20
25.0
 10
-45.0
 20
25.0
 10
-45.0
 20
23.2
  0
ENDBLK
  5
D0
100
AcDbEntity
  8
0
100
AcDbBlockEnd
  0
BLOCK
  5
F0
100
AcDbEntity
  8
0
100
AcDbBlockBegin
  2
SP976512-785
 70
     0
 10
0.0
 20
0.0
 30
0.0
  3
SP976512-785
  1

  0
LWPOLYLINE
  5
E8
100
AcDbEntity
  8
STALPROFIL
100
AcDbPolyline
 90
       16
 70
     1
 43
1.8
 10
-64.1
 20
0.0
 10
-64.1
 20
-78.2
 42
0.414214
 10
-63.199
 20
-79.1
 42
0.414214
 10
-62.3
 20
-78.201
 10
-62.3
 20
-60.0
 42
-0.414214
 10
-61.4
 20
-59.1
 10
-46.8
 20
-59.1
 42
0.414214
 10
-45.9
 20
-58.2
 10
-45.9
 20
0.0
 10
-45.9
 20
23.2
 42
0.414214
 10
-46.8
 20
24.1
 10
-61.4
 20
24.1
 42
-0.414214
 10
-62.3
 20
25.0
 10
-62.3
 20
43.201
 42
0.414214
 10
-63.2
 20
44.1
 42
0.414214
 10
-64.1
 20
43.2
  0
LWPOLYLINE
  5
E9
100
AcDbEntity
  8
SPKONTUR
100
AcDbPolyline
 90
       16
 70
     1
 43
0.0
 10
-65.0
 20
0.0
 10
-65.0
 20
-78.2
 42
0.414214
 10
-63.2
 20
-80.0
 10
-63.199
 20
-80.0
 42
0.414214
 10
-61.4
 20
-78.201
 10
-61.4
 20
-60.0
 10
-46.8
 20
-60.0
 42
0.414214
 10
-45.0
 20
-58.2
 10
-45.0
 20
0.0
 10
-45.0
 20
23.2
 42
0.414214
 10
-46.8
 20
25.0
 10
-61.4
 20
25.0
 10
-61.4
 20
43.201
 42
0.414214
 10
-63.199
 20
45.0
 10
-63.2
 20
45.0
 42
0.414214
 10
-65.0
 20
43.2
  0
INSERT
  5
EA
100
AcDbEntity
  8
GLAS_MED_FOGNING
100
AcDbBlockReference
  2
*X4
 10
0.0
 20
0.0
 30
0.0
1001
ACAD
1000
HATCH
1002
{
1070
    16
1000
DASH
1040
25.0
1040
2.007129
1002
}
  0
LWPOLYLINE
  5
EB
100
AcDbEntity
  8
SPKONTUR
100
AcDbPolyline
 90
       25
 70
     0
 43
0.0
 10
-8.1
 20
18.4
 10
-8.114719
 20
18.4
 10
-8.1
 20
18.4
 42
-0.414214
 10
-5.6
 20
15.9
 10
-5.6
 20
13.8
 42
0.414214
 10
-3.8
 20
12.0
 10
-3.6
 20
12.0
 42
-0.414214
 10
0.0
 20
8.4
 10
0.0
 20
-58.2
 42
-0.414214
 10
-1.8
 20
-60.0
 10
-18.2
 20
-60.0
 42
-0.414214
 10
-20.0
 20
-58.2
 10
-20.0
 20
23.2
 42
-0.414214
 10
-18.2
 20
25.0
 10
-7.9
 20
25.0
 42
-0.414214
 10
-6.1
 20
23.2
 10
-6.1
 20
23.199
 42
-0.414214
 10
-7.899
 20
21.4
 10
-12.6
 20
21.4
 42
0.414214
 10
-14.4
 20
19.6
 10
-14.4
 20
18.2
 42
0.414214
 10
-12.6
 20
16.4
 42
0.198912
 10
-10.47868
 20
17.27868
 10
-10.236039
 20
17.52132
 42
-0.198912
 10
-8.114719
 20
18.4
  0
LWPOLYLINE
  5
EC
100
AcDbEntity
  8
STALPROFIL
100
AcDbPolyline
 90
       22
 70
     1
 43
1.8
 10
-8.114719
 20
17.5
 10
-8.1
 20
17.5
 42
-0.414214
 10
-6.5
 20
15.9
 10
-6.5
 20
13.8
 42
0.414214
 10
-3.8
 20
11.1
 10
-3.6
 20
11.1
 42
-0.414214
 10
-0.9
 20
8.4
 10
-0.9
 20
-58.2
 42
-0.414214
 10
-1.8
 20
-59.1
 10
-18.2
 20
-59.1
 42
-0.414214
 10
-19.1
 20
-58.2
 10
-19.1
 20
23.2
 42
-0.414214
 10
-18.2
 20
24.1
 10
-7.9
 20
24.1
 42
-0.414214
 10
-7.0
 20
23.199
 42
-0.414214
 10
-7.899
 20
22.3
 10
-12.6
 20
22.3
 42
0.414214
 10
-15.3
 20
19.6
 10
-15.3
 20
18.2
 42
0.414214
 10
-12.6
 20
15.5
 42
0.198912
 10
-9.842284
 20
16.642284
 10
-9.599643
 20
16.884924
 42
-0.198912
  0
LWPOLYLINE
  5
ED
100
AcDbEntity
  8
GLAS_MED_FOGNING
100
AcDbPolyline
 90
        4
 70
     0
 43
0.0
 10
-20.0
 20
-58.2
 10
-20.0
 20
-60.0
 10
-45.0
 20
-60.0
 10
-45.0
 20
-58.2
  0
INSERT
  5
EE
100
AcDbEntity
  8
GLAS_MED_FOGNING
100
AcDbBlockReference
  2
SP40010
 10
0.0
 20
0.0
 30
0.0
  0
LWPOLYLINE
  5
EF
100
AcDbEntity
  8
GLAS_MED_FOGNING
100
AcDbPolyline
 90
        4
 70
     0
 43
0.0
 10
-20.0
 20
23.2
 10
-20.0
 20
25.0
 10
-45.0
 20
25.0
 10
-45.0
 20
23.2
  0
ENDBLK
  5
F1
100
AcDbEntity
  8
0
100
AcDbBlockEnd
  0
BLOCK
  5
FB
100
AcDbEntity
  8
0
100
AcDbBlockBegin
  2
SP976521-785
 70
     0
 10
0.0
 20
0.0
 30
0.0
  3
SP976521-785
  1

  0
INSERT
  5
F4
100
AcDbEntity
  8
GLAS_MED_FOGNING
100
AcDbBlockReference
  2
*X4
 10
0.0
 20
0.0
 30
0.0
1001
ACAD
1000
HATCH
1002
{
1070
    16
1000
DASH
1040
25.0
1040
2.007129
1002
}
  0
LWPOLYLINE
  5
F5
100
AcDbEntity
  8
SPKONTUR
100
AcDbPolyline
 90
       11
 70
     1
 43
0.0
 10
-61.4
 20
25.0
 10
-46.8
 20
25.0
 42
-0.414214
 10
-45.0
 20
23.2
 10
-45.0
 20
-58.2
 42
-0.414214
 10
-46.8
 20
-60.0
 10
-63.2
 20
-60.0
 42
-0.414214
 10
-65.0
 20
-58.2
 10
-65.0
 20
43.2
 42
-0.414214
 10
-63.2
 20
45.0
 10
-63.199
 20
45.0
 42
-0.414214
 10
-61.4
 20
43.201
  0
LWPOLYLINE
  5
F6
100
AcDbEntity
  8
STALPROFIL
100
AcDbPolyline
 90
       11
 70
     1
 43
1.8
 10
-61.4
 20
24.1
 10
-46.8
 20
24.1
 42
-0.414214
 10
-45.9
 20
23.2
 10
-45.9
 20
-58.2
 42
-0.414214
 10
-46.8
 20
-59.1
 10
-63.2
 20
-59.1
 42
-0.414214
 10
-64.1
 20
-58.2
 10
-64.1
 20
43.2
 42
-0.414214
 10
-63.199
 20
44.1
 42
-0.414214
 10
-62.3
 20
43.201
 10
-62.3
 20
25.0
 42
0.414214
  0
LWPOLYLINE
  5
F7
100
AcDbEntity
  8
STALPROFIL
100
AcDbPolyline
 90
        8
 70
     1
 43
1.8
 10
-19.1
 20
23.2
 42
-0.414214
 10
-18.2
 20
24.1
 10
-1.8
 20
24.1
 42
-0.414214
 10
-0.9
 20
23.2
 10
-0.9
 20
-58.2
 42
-0.414214
 10
-1.8
 20
-59.1
 10
-18.2
 20
-59.1
 42
-0.414214
 10
-19.1
 20
-58.2
  0
LWPOLYLINE
  5
F8
100
AcDbEntity
  8
SPKONTUR
100
AcDbPolyline
 90
        8
 70
     1
 43
0.0
 10
-20.0
 20
23.2
 42
-0.414214
 10
-18.2
 20
25.0
 10
-1.8
 20
25.0
 42
-0.414214
 10
0.0
 20
23.2
 10
0.0
 20
-58.2
 42
-0.414214
 10
-1.8
 20
-60.0
 10
-18.2
 20
-60.0
 42
-0.414214
 10
-20.0
 20
-58.2
  0
LWPOLYLINE
  5
F9
100
AcDbEntity
  8
GLAS_MED_FOGNING
100
AcDbPolyline
 90
        4
 70
     0
 43
0.0
 10
-20.0
 20
-58.2
 10
-20.0
 20
-60.0
 10
-45.0
 20
-60.0
 10
-45.0
 20
-58.2
  0
LWPOLYLINE
  5
FA
100
AcDbEntity
  8
GLAS_MED_FOGNING
100
AcDbPolyline
 90
        4
 70
     0
 43
0.0
 10
-20.0
 20
23.2
 10
-20.0
 20
25.0
 10
-45.0
 20
25.0
 10
-45.0
 20
23.2
  0
ENDBLK
  5
FC
100
AcDbEntity
  8
0
100
AcDbBlockEnd
  0
BLOCK
  5
E3
100
AcDbEntity
  8
0
100
AcDbBlockBegin
  2
SP976522-785
 70
     0
 10
0.0
 20
0.0
 30
0.0
  3
SP976522-785
  1

  0
LWPOLYLINE
  5
DC
100
AcDbEntity
  8
SPKONTUR
100
AcDbPolyline
 90
       16
 70
     1
 43
0.0
 10
-65.0
 20
0.0
 10
-65.0
 20
-78.2
 42
0.414214
 10
-63.2
 20
-80.0
 10
-63.199
 20
-80.0
 42
0.414214
 10
-61.4
 20
-78.201
 10
-61.4
 20
-60.0
 10
-46.8
 20
-60.0
 42
0.414214
 10
-45.0
 20
-58.2
 10
-45.0
 20
0.0
 10
-45.0
 20
23.2
 42
0.414214
 10
-46.8
 20
25.0
 10
-61.4
 20
25.0
 10
-61.4
 20
43.201
 42
0.414214
 10
-63.199
 20
45.0
 10
-63.2
 20
45.0
 42
0.414214
 10
-65.0
 20
43.2
  0
LWPOLYLINE
  5
DD
100
AcDbEntity
  8
STALPROFIL
100
AcDbPolyline
 90
       16
 70
     1
 43
1.8
 10
-64.1
 20
0.0
 10
-64.1
 20
-78.2
 42
0.414214
 10
-63.199
 20
-79.1
 42
0.414214
 10
-62.3
 20
-78.201
 10
-62.3
 20
-60.0
 42
-0.414214
 10
-61.4
 20
-59.1
 10
-46.8
 20
-59.1
 42
0.414214
 10
-45.9
 20
-58.2
 10
-45.9
 20
0.0
 10
-45.9
 20
23.2
 42
0.414214
 10
-46.8
 20
24.1
 10
-61.4
 20
24.1
 42
-0.414214
 10
-62.3
 20
25.0
 10
-62.3
 20
43.201
 42
0.414214
 10
-63.2
 20
44.1
 42
0.414214
 10
-64.1
 20
43.2
  0
INSERT
  5
DE
100
AcDbEntity
  8
GLAS_MED_FOGNING
100
AcDbBlockReference
  2
*X4
 10
0.0
 20
0.0
 30
0.0
1001
ACAD
1000
HATCH
1002
{
1070
    16
1000
DASH
1040
25.0
1040
2.007129
1002
}
  0
LWPOLYLINE
  5
DF
100
AcDbEntity
  8
SPKONTUR
100
AcDbPolyline
 90
        8
 70
     1
 43
0.0
 10
-20.0
 20
23.2
 42
-0.414214
 10
-18.2
 20
25.0
 10
-1.8
 20
25.0
 42
-0.414214
 10
0.0
 20
23.2
 10
0.0
 20
-58.2
 42
-0.414214
 10
-1.8
 20
-60.0
 10
-18.2
 20
-60.0
 42
-0.414214
 10
-20.0
 20
-58.2
  0
LWPOLYLINE
  5
E0
100
AcDbEntity
  8
STALPROFIL
100
AcDbPolyline
 90
        8
 70
     1
 43
1.8
 10
-19.1
 20
23.2
 42
-0.414214
 10
-18.2
 20
24.1
 10
-1.8
 20
24.1
 42
-0.414214
 10
-0.9
 20
23.2
 10
-0.9
 20
-58.2
 42
-0.414214
 10
-1.8
 20
-59.1
 10
-18.2
 20
-59.1
 42
-0.414214
 10
-19.1
 20
-58.2
  0
LWPOLYLINE
  5
E1
100
AcDbEntity
  8
GLAS_MED_FOGNING
100
AcDbPolyline
 90
        4
 70
     0
 43
0.0
 10
-20.0
 20
-58.2
 10
-20.0
 20
-60.0
 10
-45.0
 20
-60.0
 10
-45.0
 20
-58.2
  0
LWPOLYLINE
  5
E2
100
AcDbEntity
  8
GLAS_MED_FOGNING
100
AcDbPolyline
 90
        4
 70
     0
 43
0.0
 10
-20.0
 20
23.2
 10
-20.0
 20
25.0
 10
-45.0
 20
25.0
 10
-45.0
 20
23.2
  0
ENDBLK
  5
E4
100
AcDbEntity
  8
0
100
AcDbBlockEnd
  0
BLOCK
  5
149
100
AcDbEntity
  8
0
100
AcDbBlockBegin
  2
SP976524-785
 70
     0
 10
0.0
 20
0.0
 30
0.0
  3
SP976524-785
  1

  0
INSERT
  5
142
100
AcDbEntity
  8
GLAS_MED_FOGNING
100
AcDbBlockReference
  2
*X4
 10
0.0
 20
0.0
 30
0.0
1001
ACAD
1000
HATCH
1002
{
1070
    16
1000
DASH
1040
25.0
1040
2.007129
1002
}
  0
LWPOLYLINE
  5
143
100
AcDbEntity
  8
SPKONTUR
100
AcDbPolyline
 90
       11
 70
     1
 43
0.0
 10
-61.4
 20
25.0
 10
-46.8
 20
25.0
 42
-0.414214
 10
-45.0
 20
23.2
 10
-45.0
 20
-58.2
 42
-0.414214
 10
-46.8
 20
-60.0
 10
-63.2
 20
-60.0
 42
-0.414214
 10
-65.0
 20
-58.2
 10
-65.0
 20
43.2
 42
-0.414214
 10
-63.2
 20
45.0
 10
-63.199
 20
45.0
 42
-0.414214
 10
-61.4
 20
43.201
  0
LWPOLYLINE
  5
144
100
AcDbEntity
  8
STALPROFIL
100
AcDbPolyline
 90
       11
 70
     1
 43
1.8
 10
-61.4
 20
24.1
 10
-46.8
 20
24.1
 42
-0.414214
 10
-45.9
 20
23.2
 10
-45.9
 20
-58.2
 42
-0.414214
 10
-46.8
 20
-59.1
 10
-63.2
 20
-59.1
 42
-0.414214
 10
-64.1
 20
-58.2
 10
-64.1
 20
43.2
 42
-0.414214
 10
-63.199
 20
44.1
 42
-0.414214
 10
-62.3
 20
43.201
 10
-62.3
 20
25.0
 42
0.414214
  0
LWPOLYLINE
  5
145
100
AcDbEntity
  8
STALPROFIL
100
AcDbPolyline
 90
       11
 70
     1
 43
1.8
 10
-3.6
 20
24.1
 10
-18.2
 20
24.1
 42
0.414214
 10
-19.1
 20
23.2
 10
-19.1
 20
-58.2
 42
0.414214
 10
-18.2
 20
-59.1
 10
-1.8
 20
-59.1
 42
0.414214
 10
-0.9
 20
-58.2
 10
-0.9
 20
43.2
 42
0.414214
 10
-1.801
 20
44.1
 42
0.414214
 10
-2.7
 20
43.201
 10
-2.7
 20
25.0
 42
-0.414214
  0
LWPOLYLINE
  5
146
100
AcDbEntity
  8
SPKONTUR
100
AcDbPolyline
 90
       11
 70
     1
 43
0.0
 10
-3.6
 20
25.0
 10
-18.2
 20
25.0
 42
0.414214
 10
-20.0
 20
23.2
 10
-20.0
 20
-58.2
 42
0.414214
 10
-18.2
 20
-60.0
 10
-1.8
 20
-60.0
 42
0.414214
 10
0.0
 20
-58.2
 10
0.0
 20
43.2
 42
0.414214
 10
-1.8
 20
45.0
 10
-1.801
 20
45.0
 42
0.414214
 10
-3.6
 20
43.201
  0
LWPOLYLINE
  5
147
100
AcDbEntity
  8
GLAS_MED_FOGNING
100
AcDbPolyline
 90
        4
 70
     0
 43
0.0
 10
-20.0
 20
-58.2
 10
-20.0
 20
-60.0
 10
-45.0
 20
-60.0
 10
-45.0
 20
-58.2
  0
LWPOLYLINE
  5
148
100
AcDbEntity
  8
GLAS_MED_FOGNING
100
AcDbPolyline
 90
        4
 70
     0
 43
0.0
 10
-20.0
 20
23.2
 10
-20.0
 20
25.0
 10
-45.0
 20
25.0
 10
-45.0
 20
23.2
  0
ENDBLK
  5
14A
100
AcDbEntity
  8
0
100
AcDbBlockEnd
  0
BLOCK
  5
109
100
AcDbEntity
  8
0
100
AcDbBlockBegin
  2
SP976525-785
 70
     0
 10
0.0
 20
0.0
 30
0.0
  3
SP976525-785
  1

  0
LWPOLYLINE
  5
102
100
AcDbEntity
  8
STALPROFIL
100
AcDbPolyline
 90
       16
 70
     1
 43
1.8
 10
-64.1
 20
0.0
 10
-64.1
 20
-78.2
 42
0.414214
 10
-63.199
 20
-79.1
 42
0.414214
 10
-62.3
 20
-78.201
 10
-62.3
 20
-60.0
 42
-0.414214
 10
-61.4
 20
-59.1
 10
-46.8
 20
-59.1
 42
0.414214
 10
-45.9
 20
-58.2
 10
-45.9
 20
0.0
 10
-45.9
 20
23.2
 42
0.414214
 10
-46.8
 20
24.1
 10
-61.4
 20
24.1
 42
-0.414214
 10
-62.3
 20
25.0
 10
-62.3
 20
43.201
 42
0.414214
 10
-63.2
 20
44.1
 42
0.414214
 10
-64.1
 20
43.2
  0
LWPOLYLINE
  5
103
100
AcDbEntity
  8
SPKONTUR
100
AcDbPolyline
 90
       16
 70
     1
 43
0.0
 10
-65.0
 20
0.0
 10
-65.0
 20
-78.2
 42
0.414214
 10
-63.2
 20
-80.0
 10
-63.199
 20
-80.0
 42
0.414214
 10
-61.4
 20
-78.201
 10
-61.4
 20
-60.0
 10
-46.8
 20
-60.0
 42
0.414214
 10
-45.0
 20
-58.2
 10
-45.0
 20
0.0
 10
-45.0
 20
23.2
 42
0.414214
 10
-46.8
 20
25.0
 10
-61.4
 20
25.0
 10
-61.4
 20
43.201
 42
0.414214
 10
-63.199
 20
45.0
 10
-63.2
 20
45.0
 42
0.414214
 10
-65.0
 20
43.2
  0
LWPOLYLINE
  5
104
100
AcDbEntity
  8
SPKONTUR
100
AcDbPolyline
 90
       11
 70
     1
 43
0.0
 10
-3.6
 20
25.0
 10
-18.2
 20
25.0
 42
0.414214
 10
-20.0
 20
23.2
 10
-20.0
 20
-58.2
 42
0.414214
 10
-18.2
 20
-60.0
 10
-1.8
 20
-60.0
 42
0.414214
 10
0.0
 20
-58.2
 10
0.0
 20
43.2
 42
0.414214
 10
-1.8
 20
45.0
 10
-1.801
 20
45.0
 42
0.414214
 10
-3.6
 20
43.201
  0
LWPOLYLINE
  5
105
100
AcDbEntity
  8
STALPROFIL
100
AcDbPolyline
 90
       11
 70
     1
 43
1.8
 10
-3.6
 20
24.1
 10
-18.2
 20
24.1
 42
0.414214
 10
-19.1
 20
23.2
 10
-19.1
 20
-58.2
 42
0.414214
 10
-18.2
 20
-59.1
 10
-1.8
 20
-59.1
 42
0.414214
 10
-0.9
 20
-58.2
 10
-0.9
 20
43.2
 42
0.414214
 10
-1.801
 20
44.1
 42
0.414214
 10
-2.7
 20
43.201
 10
-2.7
 20
25.0
 42
-0.414214
  0
INSERT
  5
106
100
AcDbEntity
  8
GLAS_MED_FOGNING
100
AcDbBlockReference
  2
*X4
 10
0.0
 20
0.0
 30
0.0
1001
ACAD
1000
HATCH
1002
{
1070
    16
1000
DASH
1040
25.0
1040
2.007129
1002
}
  0
LWPOLYLINE
  5
107
100
AcDbEntity
  8
GLAS_MED_FOGNING
100
AcDbPolyline
 90
        4
 70
     0
 43
0.0
 10
-20.0
 20
-58.2
 10
-20.0
 20
-60.0
 10
-45.0
 20
-60.0
 10
-45.0
 20
-58.2
  0
LWPOLYLINE
  5
108
100
AcDbEntity
  8
GLAS_MED_FOGNING
100
AcDbPolyline
 90
        4
 70
     0
 43
0.0
 10
-20.0
 20
23.2
 10
-20.0
 20
25.0
 10
-45.0
 20
25.0
 10
-45.0
 20
23.2
  0
ENDBLK
  5
10A
100
AcDbEntity
  8
0
100
AcDbBlockEnd
  0
BLOCK
  5
117
100
AcDbEntity
  8
0
100
AcDbBlockBegin
  2
SP976514-785
 70
     0
 10
0.0
 20
0.0
 30
0.0
  3
SP976514-785
  1

  0
INSERT
  5
10F
100
AcDbEntity
  8
GLAS_MED_FOGNING
100
AcDbBlockReference
  2
*X4
 10
0.0
 20
0.0
 30
0.0
1001
ACAD
1000
HATCH
1002
{
1070
    16
1000
DASH
1040
25.0
1040
2.007129
1002
}
  0
LWPOLYLINE
  5
110
100
AcDbEntity
  8
STALPROFIL
100
AcDbPolyline
 90
       22
 70
     1
 43
1.8
 10
-8.114719
 20
17.5
 10
-8.1
 20
17.5
 42
-0.414214
 10
-6.5
 20
15.9
 10
-6.5
 20
13.8
 42
0.414214
 10
-3.8
 20
11.1
 10
-3.6
 20
11.1
 42
-0.414214
 10
-0.9
 20
8.4
 10
-0.9
 20
-58.2
 42
-0.414214
 10
-1.8
 20
-59.1
 10
-18.2
 20
-59.1
 42
-0.414214
 10
-19.1
 20
-58.2
 10
-19.1
 20
23.2
 42
-0.414214
 10
-18.2
 20
24.1
 10
-7.9
 20
24.1
 42
-0.414214
 10
-7.0
 20
23.199
 42
-0.414214
 10
-7.899
 20
22.3
 10
-12.6
 20
22.3
 42
0.414214
 10
-15.3
 20
19.6
 10
-15.3
 20
18.2
 42
0.414214
 10
-12.6
 20
15.5
 42
0.198912
 10
-9.842284
 20
16.642284
 10
-9.599643
 20
16.884924
 42
-0.198912
  0
LWPOLYLINE
  5
111
100
AcDbEntity
  8
SPKONTUR
100
AcDbPolyline
 90
       25
 70
     0
 43
0.0
 10
-8.1
 20
18.4
 10
-8.114719
 20
18.4
 10
-8.1
 20
18.4
 42
-0.414214
 10
-5.6
 20
15.9
 10
-5.6
 20
13.8
 42
0.414214
 10
-3.8
 20
12.0
 10
-3.6
 20
12.0
 42
-0.414214
 10
0.0
 20
8.4
 10
0.0
 20
-58.2
 42
-0.414214
 10
-1.8
 20
-60.0
 10
-18.2
 20
-60.0
 42
-0.414214
 10
-20.0
 20
-58.2
 10
-20.0
 20
23.2
 42
-0.414214
 10
-18.2
 20
25.0
 10
-7.9
 20
25.0
 42
-0.414214
 10
-6.1
 20
23.2
 10
-6.1
 20
23.199
 42
-0.414214
 10
-7.899
 20
21.4
 10
-12.6
 20
21.4
 42
0.414214
 10
-14.4
 20
19.6
 10
-14.4
 20
18.2
 42
0.414214
 10
-12.6
 20
16.4
 42
0.198912
 10
-10.47868
 20
17.27868
 10
-10.236039
 20
17.52132
 42
-0.198912
 10
-8.114719
 20
18.4
  0
LWPOLYLINE
  5
112
100
AcDbEntity
  8
SPKONTUR
100
AcDbPolyline
 90
       11
 70
     1
 43
0.0
 10
-61.4
 20
-60.0
 10
-46.8
 20
-60.0
 42
0.414214
 10
-45.0
 20
-58.2
 10
-45.0
 20
23.2
 42
0.414214
 10
-46.8
 20
25.0
 10
-63.2
 20
25.0
 42
0.414214
 10
-65.0
 20
23.2
 10
-65.0
 20
-78.2
 42
0.414214
 10
-63.2
 20
-80.0
 10
-63.199
 20
-80.0
 42
0.414214
 10
-61.4
 20
-78.201
  0
LWPOLYLINE
  5
113
100
AcDbEntity
  8
STALPROFIL
100
AcDbPolyline
 90
       11
 70
     1
 43
1.8
 10
-61.4
 20
-59.1
 10
-46.8
 20
-59.1
 42
0.414214
 10
-45.9
 20
-58.2
 10
-45.9
 20
23.2
 42
0.414214
 10
-46.8
 20
24.1
 10
-63.2
 20
24.1
 42
0.414214
 10
-64.1
 20
23.2
 10
-64.1
 20
-78.2
 42
0.414214
 10
-63.199
 20
-79.1
 42
0.414214
 10
-62.3
 20
-78.201
 10
-62.3
 20
-60.0
 42
-0.414214
  0
LWPOLYLINE
  5
114
100
AcDbEntity
  8
GLAS_MED_FOGNING
100
AcDbPolyline
 90
        4
 70
     0
 43
0.0
 10
-20.0
 20
-58.2
 10
-20.0
 20
-60.0
 10
-45.0
 20
-60.0
 10
-45.0
 20
-58.2
  0
INSERT
  5
115
100
AcDbEntity
  8
GLAS_MED_FOGNING
100
AcDbBlockReference
  2
SP40010
 10
0.0
 20
0.0
 30
0.0
  0
LWPOLYLINE
  5
116
100
AcDbEntity
  8
GLAS_MED_FOGNING
100
AcDbPolyline
 90
        4
 70
     0
 43
0.0
 10
-20.0
 20
23.2
 10
-20.0
 20
25.0
 10
-45.0
 20
25.0
 10
-45.0
 20
23.2
  0
ENDBLK
  5
118
100
AcDbEntity
  8
0
100
AcDbBlockEnd
  0
BLOCK
  5
D7
100
AcDbEntity
  8
0
100
AcDbBlockBegin
  2
SP976513-785
 70
     0
 10
0.0
 20
0.0
 30
0.0
  3
SP976513-785
  1

  0
INSERT
  5
35
100
AcDbEntity
  8
0
100
AcDbBlockReference
  2
SP976511-785
 10
0.0
 20
0.0
 30
0.0
  0
INSERT
  5
D1
100
AcDbEntity
  8
0
100
AcDbBlockReference
  2
SP30001
 10
0.0
 20
-35.0
 30
0.0
 50
180.0
  0
ENDBLK
  5
D8
100
AcDbEntity
  8
0
100
AcDbBlockEnd
  0
ENDSEC
  0
SECTION
  2
ENTITIES
  0
INSERT
  5
1D
100
AcDbEntity
  8
0
100
AcDbBlockReference
  2
SIDA
 10
0.0
 20
0.0
 30
0.0
  0
TEXT
  5
30
100
AcDbEntity
  8
TEXT
100
AcDbText
 10
-338.0
 20
80.442857
 30
0.0
 40
5.0
  1
%%USP 976513/785
 50
90.0
 41
0.8
  7
ROMANS
 72
     1
 11
-338.0
 21
105.0
 31
0.0
100
AcDbText
  0
INSERT
  5
33
100
AcDbEntity
  8
0
100
AcDbBlockReference
  2
SP976513-785
 10
-285.0
 20
120.0
 30
0.0
  0
TEXT
  5
D9
100
AcDbEntity
  8
TEXT
100
AcDbText
 10
-218.0
 20
80.442857
 30
0.0
 40
5.0
  1
%%USP 976522/785
 50
90.0
 41
0.8
  7
ROMANS
 72
     1
 11
-218.0
 21
105.0
 31
0.0
100
AcDbText
  0
INSERT
  5
DA
100
AcDbEntity
  8
0
100
AcDbBlockReference
  2
SP976522-785
 10
-165.0
 20
120.0
 30
0.0
  0
TEXT
  5
E5
100
AcDbEntity
  8
TEXT
100
AcDbText
 10
-338.0
 20
210.442857
 30
0.0
 40
5.0
  1
%%USP 976512/785
 50
90.0
 41
0.8
  7
ROMANS
 72
     1
 11
-338.0
 21
235.0
 31
0.0
100
AcDbText
  0
INSERT
  5
E6
100
AcDbEntity
  8
0
100
AcDbBlockReference
  2
SP976512-785
 10
-285.0
 20
250.0
 30
0.0
  0
INSERT
  5
F2
100
AcDbEntity
  8
0
100
AcDbBlockReference
  2
SP976521-785
 10
-165.0
 20
250.0
 30
0.0
  0
TEXT
  5
FD
100
AcDbEntity
  8
TEXT
100
AcDbText
 10
-218.0
 20
210.442857
 30
0.0
 40
5.0
  1
%%USP 976521/785
 50
90.0
 41
0.8
  7
ROMANS
 72
     1
 11
-218.0
 21
235.0
 31
0.0
100
AcDbText
  0
TEXT
  5
FE
100
AcDbEntity
  8
TEXT
100
AcDbText
 10
-96.619048
 20
25.0
 30
0.0
 40
5.0
  1
File name %%U9765PAGE23
 41
0.8
  7
ROMANS
 72
     2
 11
-25.0
 21
25.0
 31
0.0
100
AcDbText
  0
TEXT
  5
FF
100
AcDbEntity
  8
TEXT
100
AcDbText
 10
-93.761905
 20
40.0
 30
0.0
 40
5.0
  1
SP 976500  %%UPAGE 23
 41
0.8
  7
ROMANS
 72
     2
 11
-25.0
 21
40.0
 31
0.0
100
AcDbText
  0
INSERT
  5
100
100
AcDbEntity
  8
0
100
AcDbBlockReference
  2
SP976525-785
 10
-45.0
 20
250.0
 30
0.0
  0
TEXT
  5
10B
100
AcDbEntity
  8
TEXT
100
AcDbText
 10
-98.0
 20
210.442857
 30
0.0
 40
5.0
  1
%%USP 976525/785
 50
90.0
 41
0.8
  7
ROMANS
 72
     1
 11
-98.0
 21
235.0
 31
0.0
100
AcDbText
  0
TEXT
  5
10C
100
AcDbEntity
  8
TEXT
100
AcDbText
 10
-218.0
 20
470.442857
 30
0.0
 40
5.0
  1
%%USP 976514/785
 50
90.0
 41
0.8
  7
ROMANS
 72
     1
 11
-218.0
 21
495.0
 31
0.0
100
AcDbText
  0
INSERT
  5
10D
100
AcDbEntity
  8
0
100
AcDbBlockReference
  2
SP976514-785
 10
-165.0
 20
510.0
 30
0.0
  0
INSERT
  5
119
100
AcDbEntity
  8
0
100
AcDbBlockReference
  2
SP976510-785
 10
-285.0
 20
510.0
 30
0.0
  0
TEXT
  5
125
100
AcDbEntity
  8
TEXT
100
AcDbText
 10
-338.0
 20
470.442857
 30
0.0
 40
5.0
  1
%%USP 976510/785
 50
90.0
 41
0.8
  7
ROMANS
 72
     1
 11
-338.0
 21
495.0
 31
0.0
100
AcDbText
  0
INSERT
  5
126
100
AcDbEntity
  8
0
100
AcDbBlockReference
  2
SP976511-785
 10
-285.0
 20
380.0
 30
0.0
  0
TEXT
  5
127
100
AcDbEntity
  8
TEXT
100
AcDbText
 10
-338.0
 20
340.442857
 30
0.0
 40
5.0
  1
%%USP 976511/785
 50
90.0
 41
0.8
  7
ROMANS
 72
     1
 11
-338.0
 21
365.0
 31
0.0
100
AcDbText
  0
INSERT
  5
128
100
AcDbEntity
  8
0
100
AcDbBlockReference
  2
SP976520-785
 10
-165.0
 20
380.0
 30
0.0
  0
TEXT
  5
133
100
AcDbEntity
  8
TEXT
100
AcDbText
 10
-218.0
 20
340.442857
 30
0.0
 40
5.0
  1
%%USP 976520/785
 50
90.0
 41
0.8
  7
ROMANS
 72
     1
 11
-218.0
 21
365.0
 31
0.0
100
AcDbText
  0
INSERT
  5
134
100
AcDbEntity
  8
0
100
AcDbBlockReference
  2
SP976523-785
 10
-45.0
 20
510.0
 30
0.0
  0
TEXT
  5
13F
100
AcDbEntity
  8
TEXT
100
AcDbText
 10
-98.0
 20
470.442857
 30
0.0
 40
5.0
  1
%%USP 976523/785
 50
90.0
 41
0.8
  7
ROMANS
 72
     1
 11
-98.0
 21
495.0
 31
0.0
100
AcDbText
  0
INSERT
  5
140
100
AcDbEntity
  8
0
100
AcDbBlockReference
  2
SP976524-785
 10
-45.0
 20
380.0
 30
0.0
  0
TEXT
  5
14B
100
AcDbEntity
  8
TEXT
100
AcDbText
 10
-98.0
 20
340.442857
 30
0.0
 40
5.0
  1
%%USP 976524/785
 50
90.0
 41
0.8
  7
ROMANS
 72
     1
 11
-98.0
 21
365.0
 31
0.0
100
AcDbText
  0
ENDSEC
  0
SECTION
  2
OBJECTS
  0
DICTIONARY
  5
1A
100
AcDbDictionary
  3
ACAD_GROUP
350
18
  3
ACAD_LAYOUT
350
159
  3
ACAD_MLINESTYLE
350
19
  3
ACAD_PLOTSETTINGS
350
15A
  3
ACAD_PLOTSTYLENAME
350
157
  3
ACDBHEADERROUNDTRIPXREC
350
163
  0
DICTIONARY
  5
161
100
AcDbDictionary
280
     1
  3
ACAD_XREC_ROUNDTRIP
360
162
  0
DICTIONARY
  5
183
100
AcDbDictionary
280
     1
  3
ACAD_LAYOUTSELFREF
360
184
  0
DICTIONARY
  5
185
100
AcDbDictionary
280
     1
  3
ACAD_LAYOUTSELFREF
360
186
  0
DICTIONARY
  5
18
102
{ACAD_REACTORS
330
1A
102
}
100
AcDbDictionary
  0
DICTIONARY
  5
159
102
{ACAD_XDICTIONARY
360
192
102
}
102
{ACAD_REACTORS
330
1A
102
}
100
AcDbDictionary
  3
LAYOUT1
350
15C
  3
MODEL
350
15B
  0
DICTIONARY
  5
19
102
{ACAD_REACTORS
330
1A
102
}
100
AcDbDictionary
  3
STANDARD
350
1B
  0
DICTIONARY
  5
15A
102
{ACAD_REACTORS
330
1A
102
}
100
AcDbDictionary
  0
ACAD_PROXY_OBJECT
  5
157
102
{ACAD_REACTORS
330
1A
102
}
100
AcDbProxyObject
 90
      499
 91
      501
 93
       86
310
405010041939BDC9B585B1
350
158
340
158
 94
        0
  0
DICTIONARY
  5
163
102
{ACAD_REACTORS
330
1A
102
}
100
AcDbDictionary
  3
CEPSNTYPE
350
16D
  3
FINGERPRINTGUID
350
16E
  3
HYPERLINKBASE
350
166
  3
INSUNITS
350
16C
  3
LAYOUTDICT
350
168
  3
LWETCUNION
350
16B
  3
PLOTSETDICT
350
169
  3
PLOTSTYLNAMDICT
350
16A
  3
PSVPSCALE
350
170
  3
PUCSBASE
350
173
  3
PUCSORGBACK
350
179
  3
PUCSORGBOTTOM
350
175
  3
PUCSORGFRONT
350
178
  3
PUCSORGLEFT
350
176
  3
PUCSORGRIGHT
350
177
  3
PUCSORGTOP
350
174
  3
PUCSORTHOREF
350
171
  3
PUCSORTHOVIEW
350
172
  3
STYLESHEET
350
167
  3
TSTACKALIGN
350
164
  3
TSTACKSIZE
350
165
  3
UCSBASE
350
17C
  3
UCSORGBACK
350
182
  3
UCSORGBOTTOM
350
17E
  3
UCSORGFRONT
350
181
  3
UCSORGLEFT
350
17F
  3
UCSORGRIGHT
350
180
  3
UCSORGTOP
350
17D
  3
UCSORTHOREF
350
17A
  3
UCSORTHOVIEW
350
17B
  3
VERSIONGUID
350
16F
  0
XRECORD
  5
162
102
{ACAD_REACTORS
330
161
102
}
100
AcDbXrecord
102
EXTNAMES
  1
*ACTIVE
  2
*Active
102
UCS
 74
     0
 71
     1
 10
0.0
 20
0.0
 30
0.0
 10
1.0
 20
0.0
 30
0.0
 10
0.0
 20
1.0
 30
0.0
146
0.0
 79
     0
102
VIEW
281
     0
  0
XRECORD
  5
184
102
{ACAD_REACTORS
330
183
102
}
100
AcDbXrecord
340
2
  0
XRECORD
  5
186
102
{ACAD_REACTORS
330
185
102
}
100
AcDbXrecord
340
7
  0
DICTIONARY
  5
192
100
AcDbDictionary
280
     1
  3
ACAD_XREC_ROUNDTRIP
360
193
  0
ACAD_PROXY_OBJECT
  5
15C
102
{ACAD_REACTORS
330
159
102
}
100
AcDbProxyObject
 90
      499
 91
      503
 93
     1092
310
91D4850204C617365724A65742034562F344D5620506F73745363726970742C00AAAAAA416AA591069074C61796F75743140501A800000000000000000000000000000000000000000101E900000000000241C902A6A6A10232D5E076BC5510408CB5781DAF154410232D5E076BC5510408CB5781DAF15C410232D5E076BC5
310
710408CB5781DAF15C40
330
7
330
0
340
0
340
0
 94
        0
  0
ACAD_PROXY_OBJECT
  5
15B
102
{ACAD_REACTORS
330
159
102
}
100
AcDbProxyObject
 90
      499
 91
      503
 93
      668
310
91D4850204C617365724A65742034562F344D5620506F73745363726970742C01AAAAAAAAA5A69054D6F64656C901A800000000000000000000000000000000000000000000A1000000000000008902A6A6AAAA0
330
2
330
0
340
0
340
0
 94
        0
  0
MLINESTYLE
  5
1B
102
{ACAD_REACTORS
330
19
102
}
100
AcDbMlineStyle
  2
STANDARD
 70
     0
  3

 62
     0
 51
90.0
 52
90.0
 71
     2
 49
0.5
 62
   256
  6
BYLAYER
 49
-0.5
 62
   256
  6
BYLAYER
  0
ACAD_PROXY_OBJECT
  5
158
102
{ACAD_REACTORS
330
157
102
}
100
AcDbProxyObject
 90
      499
 91
      502
 93
        0
 94
        0
  0
XRECORD
  5
16D
102
{ACAD_REACTORS
330
163
102
}
100
AcDbXrecord
 90
        0
  0
XRECORD
  5
16E
102
{ACAD_REACTORS
330
163
102
}
100
AcDbXrecord
  1
{DCFA0B31-0BE8-11D6-AA0B-00D0B7E2A69D}
  0
XRECORD
  5
166
102
{ACAD_REACTORS
330
163
102
}
100
AcDbXrecord
  1

  0
XRECORD
  5
16C
102
{ACAD_REACTORS
330
163
102
}
100
AcDbXrecord
 90
        0
  0
XRECORD
  5
168
102
{ACAD_REACTORS
330
163
102
}
100
AcDbXrecord
340
159
  0
XRECORD
  5
16B
102
{ACAD_REACTORS
330
163
102
}
100
AcDbXrecord
 90
    14877
  0
XRECORD
  5
169
102
{ACAD_REACTORS
330
163
102
}
100
AcDbXrecord
340
15A
  0
XRECORD
  5
16A
102
{ACAD_REACTORS
330
163
102
}
100
AcDbXrecord
340
157
  0
XRECORD
  5
170
102
{ACAD_REACTORS
330
163
102
}
100
AcDbXrecord
 40
0.0
  0
XRECORD
  5
173
102
{ACAD_REACTORS
330
163
102
}
100
AcDbXrecord
340
0
  0
XRECORD
  5
179
102
{ACAD_REACTORS
330
163
102
}
100
AcDbXrecord
 10
0.0
 20
0.0
 30
0.0
  0
XRECORD
  5
175
102
{ACAD_REACTORS
330
163
102
}
100
AcDbXrecord
 10
0.0
 20
0.0
 30
0.0
  0
XRECORD
  5
178
102
{ACAD_REACTORS
330
163
102
}
100
AcDbXrecord
 10
0.0
 20
0.0
 30
0.0
  0
XRECORD
  5
176
102
{ACAD_REACTORS
330
163
102
}
100
AcDbXrecord
 10
0.0
 20
0.0
 30
0.0
  0
XRECORD
  5
177
102
{ACAD_REACTORS
330
163
102
}
100
AcDbXrecord
 10
0.0
 20
0.0
 30
0.0
  0
XRECORD
  5
174
102
{ACAD_REACTORS
330
163
102
}
100
AcDbXrecord
 10
0.0
 20
0.0
 30
0.0
  0
XRECORD
  5
171
102
{ACAD_REACTORS
330
163
102
}
100
AcDbXrecord
340
0
  0
XRECORD
  5
172
102
{ACAD_REACTORS
330
163
102
}
100
AcDbXrecord
 70
     0
  0
XRECORD
  5
167
102
{ACAD_REACTORS
330
163
102
}
100
AcDbXrecord
  1

  0
XRECORD
  5
164
102
{ACAD_REACTORS
330
163
102
}
100
AcDbXrecord
 90
        1
  0
XRECORD
  5
165
102
{ACAD_REACTORS
330
163
102
}
100
AcDbXrecord
 90
       70
  0
XRECORD
  5
17C
102
{ACAD_REACTORS
330
163
102
}
100
AcDbXrecord
340
0
  0
XRECORD
  5
182
102
{ACAD_REACTORS
330
163
102
}
100
AcDbXrecord
 10
0.0
 20
0.0
 30
0.0
  0
XRECORD
  5
17E
102
{ACAD_REACTORS
330
163
102
}
100
AcDbXrecord
 10
0.0
 20
0.0
 30
0.0
  0
XRECORD
  5
181
102
{ACAD_REACTORS
330
163
102
}
100
AcDbXrecord
 10
0.0
 20
0.0
 30
0.0
  0
XRECORD
  5
17F
102
{ACAD_REACTORS
330
163
102
}
100
AcDbXrecord
 10
0.0
 20
0.0
 30
0.0
  0
XRECORD
  5
180
102
{ACAD_REACTORS
330
163
102
}
100
AcDbXrecord
 10
0.0
 20
0.0
 30
0.0
  0
XRECORD
  5
17D
102
{ACAD_REACTORS
330
163
102
}
100
AcDbXrecord
 10
0.0
 20
0.0
 30
0.0
  0
XRECORD
  5
17A
102
{ACAD_REACTORS
330
163
102
}
100
AcDbXrecord
340
0
  0
XRECORD
  5
17B
102
{ACAD_REACTORS
330
163
102
}
100
AcDbXrecord
 70
     0
  0
XRECORD
  5
16F
102
{ACAD_REACTORS
330
163
102
}
100
AcDbXrecord
  1
{DCFA0B33-0BE8-11D6-AA0B-00D0B7E2A69D}
  0
XRECORD
  5
193
102
{ACAD_REACTORS
330
192
102
}
100
AcDbXrecord
102
EXTNAMES
  1
LAYOUT1
  2
Layout1
  1
MODEL
  2
Model
  0
ENDSEC
  0
EOF
