  0
SECTION
  2
HEADER
  9
$ACADVER
  1
AC1014
  9
$ACADMAINTVER
 70
     0
  9
$DWGCODEPAGE
  3
ANSI_1252
  9
$INSBASE
 10
-5.0
 20
20.0
 30
0.0
  9
$EXTMIN
 10
-380.0
 20
24.0
 30
0.0
  9
$EXTMAX
 10
-20.0
 20
560.0
 30
0.0
  9
$LIMMIN
 10
0.0
 20
0.0
  9
$LIMMAX
 10
840.0
 20
600.0
  9
$ORTHOMODE
 70
     0
  9
$REGENMODE
 70
     1
  9
$FILLMODE
 70
     1
  9
$QTEXTMODE
 70
     0
  9
$MIRRTEXT
 70
     1
  9
$DRAGMODE
 70
     2
  9
$LTSCALE
 40
5.0
  9
$OSMODE
 70
   547
  9
$ATTMODE
 70
     1
  9
$TEXTSIZE
 40
3.15
  9
$TRACEWID
 40
0.05
  9
$TEXTSTYLE
  7
STANDARD
  9
$CLAYER
  8
GLAS_MED_FOGNING
  9
$CELTYPE
  6
BYLAYER
  9
$CECOLOR
 62
   256
  9
$CELTSCALE
 40
1.0
  9
$DELOBJ
 70
     1
  9
$DISPSILH
 70
     0
  9
$DIMSCALE
 40
1.0
  9
$DIMASZ
 40
0.0
  9
$DIMEXO
 40
1.0
  9
$DIMDLI
 40
10.0
  9
$DIMRND
 40
0.0
  9
$DIMDLE
 40
0.0
  9
$DIMEXE
 40
2.0
  9
$DIMTP
 40
0.0
  9
$DIMTM
 40
0.0
  9
$DIMTXT
 40
3.5
  9
$DIMCEN
 40
2.5
  9
$DIMTSZ
 40
1.0
  9
$DIMTOL
 70
     0
  9
$DIMLIM
 70
     0
  9
$DIMTIH
 70
     0
  9
$DIMTOH
 70
     0
  9
$DIMSE1
 70
     0
  9
$DIMSE2
 70
     0
  9
$DIMTAD
 70
     1
  9
$DIMZIN
 70
     8
  9
$DIMBLK
  1

  9
$DIMASO
 70
     1
  9
$DIMSHO
 70
     1
  9
$DIMPOST
  1

  9
$DIMAPOST
  1

  9
$DIMALT
 70
     0
  9
$DIMALTD
 70
     2
  9
$DIMALTF
 40
25.4
  9
$DIMLFAC
 40
1.0
  9
$DIMTOFL
 70
     1
  9
$DIMTVP
 40
0.0
  9
$DIMTIX
 70
     0
  9
$DIMSOXD
 70
     0
  9
$DIMSAH
 70
     0
  9
$DIMBLK1
  1

  9
$DIMBLK2
  1

  9
$DIMSTYLE
  2
STANDARD
  9
$DIMCLRD
 70
     0
  9
$DIMCLRE
 70
     0
  9
$DIMCLRT
 70
     6
  9
$DIMTFAC
 40
1.0
  9
$DIMGAP
 40
0.1
  9
$DIMJUST
 70
     0
  9
$DIMSD1
 70
     0
  9
$DIMSD2
 70
     0
  9
$DIMTOLJ
 70
     1
  9
$DIMTZIN
 70
     0
  9
$DIMALTZ
 70
     0
  9
$DIMALTTZ
 70
     0
  9
$DIMFIT
 70
     3
  9
$DIMUPT
 70
     0
  9
$DIMUNIT
 70
     2
  9
$DIMDEC
 70
     4
  9
$DIMTDEC
 70
     4
  9
$DIMALTU
 70
     2
  9
$DIMALTTD
 70
     2
  9
$DIMTXSTY
  7
STANDARD
  9
$DIMAUNIT
 70
     0
  9
$LUNITS
 70
     2
  9
$LUPREC
 70
     2
  9
$SKETCHINC
 40
0.1
  9
$FILLETRAD
 40
0.5
  9
$AUNITS
 70
     0
  9
$AUPREC
 70
     4
  9
$MENU
  1
acad
  9
$ELEVATION
 40
0.0
  9
$PELEVATION
 40
0.0
  9
$THICKNESS
 40
0.0
  9
$LIMCHECK
 70
     0
  9
$BLIPMODE
 70
     0
  9
$CHAMFERA
 40
10.0
  9
$CHAMFERB
 40
10.0
  9
$CHAMFERC
 40
0.0
  9
$CHAMFERD
 40
0.0
  9
$SKPOLY
 70
     0
  9
$TDCREATE
 40
2450619.742686690
  9
$TDUPDATE
 40
2452293.582328356
  9
$TDINDWG
 40
0.0258568287
  9
$TDUSRTIMER
 40
0.0258568287
  9
$USRTIMER
 70
     1
  9
$ANGBASE
 50
0.0
  9
$ANGDIR
 70
     0
  9
$PDMODE
 70
    35
  9
$PDSIZE
 40
0.0
  9
$PLINEWID
 40
0.0
  9
$COORDS
 70
     1
  9
$SPLFRAME
 70
     0
  9
$SPLINETYPE
 70
     6
  9
$SPLINESEGS
 70
     8
  9
$ATTDIA
 70
     0
  9
$ATTREQ
 70
     1
  9
$HANDLING
 70
     1
  9
$HANDSEED
  5
206
  9
$SURFTAB1
 70
     6
  9
$SURFTAB2
 70
     6
  9
$SURFTYPE
 70
     6
  9
$SURFU
 70
     6
  9
$SURFV
 70
     6
  9
$UCSNAME
  2

  9
$UCSORG
 10
0.0
 20
0.0
 30
0.0
  9
$UCSXDIR
 10
1.0
 20
0.0
 30
0.0
  9
$UCSYDIR
 10
0.0
 20
1.0
 30
0.0
  9
$PUCSNAME
  2

  9
$PUCSORG
 10
0.0
 20
0.0
 30
0.0
  9
$PUCSXDIR
 10
1.0
 20
0.0
 30
0.0
  9
$PUCSYDIR
 10
0.0
 20
1.0
 30
0.0
  9
$USERI1
 70
     0
  9
$USERI2
 70
     0
  9
$USERI3
 70
     0
  9
$USERI4
 70
     0
  9
$USERI5
 70
     0
  9
$USERR1
 40
0.0
  9
$USERR2
 40
0.0
  9
$USERR3
 40
0.0
  9
$USERR4
 40
0.0
  9
$USERR5
 40
0.0
  9
$WORLDVIEW
 70
     1
  9
$SHADEDGE
 70
     3
  9
$SHADEDIF
 70
    70
  9
$TILEMODE
 70
     1
  9
$MAXACTVP
 70
    16
  9
$PINSBASE
 10
577.232902
 20
-50.0
 30
468.282051
  9
$PLIMCHECK
 70
     0
  9
$PEXTMIN
 10
1.000000E+20
 20
1.000000E+20
 30
1.000000E+20
  9
$PEXTMAX
 10
-1.000000E+20
 20
-1.000000E+20
 30
-1.000000E+20
  9
$PLIMMIN
 10
0.0
 20
0.0
  9
$PLIMMAX
 10
420.0
 20
297.0
  9
$UNITMODE
 70
     0
  9
$VISRETAIN
 70
     0
  9
$PLINEGEN
 70
     0
  9
$PSLTSCALE
 70
     1
  9
$TREEDEPTH
 70
  3020
  9
$PICKSTYLE
 70
     1
  9
$CMLSTYLE
  2
STANDARD
  9
$CMLJUST
 70
     0
  9
$CMLSCALE
 40
1.0
  9
$PROXYGRAPHICS
 70
     1
  9
$MEASUREMENT
 70
     0
  0
ENDSEC
  0
SECTION
  2
CLASSES
  0
CLASS
  1
LWPOLYLINE
  2
AcDbPolyline
  3
"AutoCAD"
 90
        0
280
     0
281
     1
  0
CLASS
  1
ACDBDICTIONARYWDFLT
  2
AcDbDictionaryWithDefault
  3
AutoCAD 2000
 90
        0
280
     0
281
     0
  0
CLASS
  1
ACDBPLACEHOLDER
  2
AcDbPlaceHolder
  3
AutoCAD 2000
 90
        0
280
     0
281
     0
  0
CLASS
  1
LAYOUT
  2
AcDbLayout
  3
AutoCAD 2000
 90
        0
280
     0
281
     0
  0
CLASS
  1
LONG_TRANSACTION
  2
AcDbLongTransaction
  3
AutoCAD 2000
 90
        0
280
     0
281
     0
  0
CLASS
  1
LWPOLYLINE
  2
AcDbPolyline
  3
"AutoCAD"
 90
        0
280
     0
281
     1
  0
CLASS
  1
HATCH
  2
AcDbHatch
  3
"ACAD_SEDONA"
 90
        0
280
     0
281
     1
  0
CLASS
  1
XRECORD
  2
AcDbXrecord
  3
"<Built In>"
 90
        0
280
     0
281
     0
  0
ENDSEC
  0
SECTION
  2
TABLES
  0
TABLE
  2
VPORT
  5
12
100
AcDbSymbolTable
 70
     1
  0
VPORT
  5
1CB
102
{ACAD_XDICTIONARY
360
1CC
102
}
100
AcDbSymbolTableRecord
100
AcDbViewportTableRecord
  2
*ACTIVE
 70
     0
 10
0.0
 20
0.0
 11
1.0
 21
1.0
 12
-88.469507
 22
308.601253
 13
0.0
 23
0.0
 14
5.0
 24
5.0
 15
10.0
 25
10.0
 16
0.0
 26
0.0
 36
1.0
 17
0.0
 27
0.0
 37
0.0
 40
623.33311
 41
1.630435
 42
50.0
 43
0.0
 44
0.0
 50
0.0
 51
0.0
 71
     0
 72
   100
 73
     1
 74
     1
 75
     1
 76
     0
 77
     0
 78
     0
  0
ENDTAB
  0
TABLE
  2
LTYPE
  5
D
100
AcDbSymbolTable
 70
     2
  0
LTYPE
  5
E
100
AcDbSymbolTableRecord
100
AcDbLinetypeTableRecord
  2
BYBLOCK
 70
     0
  3

 72
    65
 73
     0
 40
0.0
  0
LTYPE
  5
F
100
AcDbSymbolTableRecord
100
AcDbLinetypeTableRecord
  2
BYLAYER
 70
     0
  3

 72
    65
 73
     0
 40
0.0
  0
LTYPE
  5
5
100
AcDbSymbolTableRecord
100
AcDbLinetypeTableRecord
  2
CONTINUOUS
 70
     0
  3
Solid line
 72
    65
 73
     0
 40
0.0
  0
LTYPE
  5
23
100
AcDbSymbolTableRecord
100
AcDbLinetypeTableRecord
  2
DASHDOT
 70
     0
  3
__ . __ . __ . __ . __ . __ . __ . __ . __ . __
 72
    65
 73
     4
 40
1.0
 49
0.5
 74
     0
 49
-0.25
 74
     0
 49
0.0
 74
     0
 49
-0.25
 74
     0
  0
ENDTAB
  0
TABLE
  2
LAYER
  5
A
100
AcDbSymbolTable
 70
     6
  0
LAYER
  5
4
100
AcDbSymbolTableRecord
100
AcDbLayerTableRecord
  2
0
 70
     0
 62
     7
  6
CONTINUOUS
  0
LAYER
  5
C5
100
AcDbSymbolTableRecord
100
AcDbLayerTableRecord
  2
STALPROFIL
 70
     0
 62
     1
  6
CONTINUOUS
  0
LAYER
  5
C3
100
AcDbSymbolTableRecord
100
AcDbLayerTableRecord
  2
SPKONTUR
 70
     0
 62
     7
  6
CONTINUOUS
  0
LAYER
  5
1B
100
AcDbSymbolTableRecord
100
AcDbLayerTableRecord
  2
GLAS_MED_FOGNING
 70
     0
 62
     2
  6
CONTINUOUS
  0
LAYER
  5
D8
100
AcDbSymbolTableRecord
100
AcDbLayerTableRecord
  2
TEXT
 70
     0
 62
     6
  6
CONTINUOUS
  0
LAYER
  5
21
100
AcDbSymbolTableRecord
100
AcDbLayerTableRecord
  2
RAM
 70
     0
 62
     5
  6
CONTINUOUS
  0
ENDTAB
  0
TABLE
  2
STYLE
  5
B
100
AcDbSymbolTable
 70
     2
  0
STYLE
  5
C
100
AcDbSymbolTableRecord
100
AcDbTextStyleTableRecord
  2
STANDARD
 70
     0
 40
0.0
 41
1.0
 50
0.0
 71
     0
 42
5.0
  3
txt
  4

  0
STYLE
  5
D9
100
AcDbSymbolTableRecord
100
AcDbTextStyleTableRecord
  2
ROMANS
 70
     0
 40
0.0
 41
0.8
 50
0.0
 71
     0
 42
5.0
  3
romans
  4

  0
ENDTAB
  0
TABLE
  2
VIEW
  5
10
100
AcDbSymbolTable
 70
     0
  0
ENDTAB
  0
TABLE
  2
UCS
  5
11
100
AcDbSymbolTable
 70
     0
  0
ENDTAB
  0
TABLE
  2
APPID
  5
14
100
AcDbSymbolTable
 70
     3
  0
APPID
  5
15
100
AcDbSymbolTableRecord
100
AcDbRegAppTableRecord
  2
ACAD
 70
     0
  0
APPID
  5
1BE
100
AcDbSymbolTableRecord
100
AcDbRegAppTableRecord
  2
CONTENTBLOCKDESCRIPTION
 70
     0
  0
APPID
  5
1BF
100
AcDbSymbolTableRecord
100
AcDbRegAppTableRecord
  2
CONTENTBLOCKICON
 70
     0
  0
ENDTAB
  0
TABLE
  2
DIMSTYLE
  5
16
100
AcDbSymbolTable
 70
     1
  0
DIMSTYLE
105
1D
100
AcDbSymbolTableRecord
100
AcDbDimStyleTableRecord
  2
STANDARD
 70
     0
  3

  4

  5

  6

  7

 40
1.0
 41
0.18
 42
0.0625
 43
0.38
 44
0.18
 45
0.0
 46
0.0
 47
0.0
 48
0.0
140
0.18
141
0.09
142
0.0
143
25.4
144
1.0
145
0.0
146
1.0
147
0.09
 71
     0
 72
     0
 73
     1
 74
     1
 75
     0
 76
     0
 77
     0
 78
     0
170
     0
171
     2
172
     0
173
     0
174
     0
175
     0
176
     0
177
     0
178
     0
270
     2
271
     4
272
     4
273
     2
274
     2
340
C
275
     0
280
     0
281
     0
282
     0
283
     1
284
     0
285
     0
286
     0
287
     3
288
     0
  0
ENDTAB
  0
TABLE
  2
BLOCK_RECORD
  5
1
100
AcDbSymbolTable
 70
    18
  0
BLOCK_RECORD
  5
2
102
{ACAD_XDICTIONARY
360
1EE
102
}
100
AcDbSymbolTableRecord
100
AcDbBlockTableRecord
  2
*MODEL_SPACE
  0
BLOCK_RECORD
  5
7
102
{ACAD_XDICTIONARY
360
1F0
102
}
100
AcDbSymbolTableRecord
100
AcDbBlockTableRecord
  2
*PAPER_SPACE
  0
BLOCK_RECORD
  5
1F
100
AcDbSymbolTableRecord
100
AcDbBlockTableRecord
  2
SIDA
  0
BLOCK_RECORD
  5
E7
100
AcDbSymbolTableRecord
100
AcDbBlockTableRecord
  2
*X1
  0
BLOCK_RECORD
  5
E4
100
AcDbSymbolTableRecord
100
AcDbBlockTableRecord
  2
SP40010
1001
CONTENTBLOCKICON
1071
        0
1004
2800000020000000200000000100040000000000000200000000000000000000000000000000000000000000000080000080000000808000800000008000800080800000C0C0C000808080000000FF0000FF000000FFFF00FF000000FF00FF00FFFF0000FFFFFF00FFFFFFFFFFFFFFFFFFFFFFFFFFFFFFFFFFFFFFFFFFFFFF
1004
FFFFFFFFFFFFFFFFFFFFFFFFFFFFFFFFFFFFFFFFFFFFFFFFFFFFFFFFFFFFFFFFFFFFFFFFFFFFFFBBFFFFFFFFFFFFFFFFFFFFFFFFFFFFBBFBFFFFFFFFFFFFFFFFFFFFFFFFFFFFBFFBFFFFFFFFFFFFFFFFFFFFFFFFFFFFBFBBFFFFFFFFFFFFFFFFFFFFFFFFFFFFBBFBFFFFFFFFFFFFFFFFFFFFFFFFFFBBFBFFBFFFFBBFFFFFFF
1004
FFFFFFFFFFFBBFBBFFBFFFFBFBFFFFFFFFFFFFFFFFFBBFFBFFBFFFFBFFFFFFFFFFFFFFFFFFBFFFBBFBBFFFBFBBFFFFFFFFFFFFFFFFBFFBFBBFBFFFBBFBFFFFFFFFFFFFFFFBFFFBBBFFBFFFBFFFBBBBFFFFFFFFFBBFFFBFBFFBFFFFBFFFBFFFBBBBBBBBBFFFFFBFBFFBFFFBFFFBFFFFFBFFFFFBFFFFFBFFBFBFFFFBFBBFFFFF
1004
BFFFFFBFFFFFBBFBFBBFFFFBBFFFFFFBFFFFBBFFFFFBFBBBBFBFFFFBFFFFFFBFFFFBFFFFFBBFFFBBFBFFFFBFFFFFFBFFFFBFFFFFBFFFFBFFFBFFFFBFFFFFBFFFFBFFFFFBFFFFBFFFFFFFFFFFFFBBBBBBBFFFFFBFFFFBFFFBBFFFFFFBBBFFFFFFFBBBBBBBFFBFFFFFBFFFFFFFFFFFFFFFFFFFFFFFBBFFFFFBBFFFFFFFFFFFFF
1004
FFFFFFFFFFFBFFFFBBFFFFFFFFFFFFFFFFFFFFFFFFFFBFFBFBFFFFFFFFFFFFFFFFFFFFFFFFFFFBBFFBFFFFFFFFFFFFFFFFFFFFFFFFFFFFBFBFFFFFFFFFFFFFFFFFFFFFFFFFFFFFFFBFFFFFFFFFFFFFFFFFFFFFFFFFFFFFFBFFFFFFFFFFFFFFFFFFFFFFFFFFFFFFFFFFFFFFFF
  0
BLOCK_RECORD
  5
115
100
AcDbSymbolTableRecord
100
AcDbBlockTableRecord
  2
*X3
  0
BLOCK_RECORD
  5
34
100
AcDbSymbolTableRecord
100
AcDbBlockTableRecord
  2
*X4
  0
BLOCK_RECORD
  5
184
100
AcDbSymbolTableRecord
100
AcDbBlockTableRecord
  2
SP979010
1001
CONTENTBLOCKICON
1071
        0
1004
2800000020000000200000000100040000000000000200000000000000000000000000000000000000000000000080000080000000808000800000008000800080800000C0C0C000808080000000FF0000FF000000FFFF00FF000000FF00FF00FFFF0000FFFFFF00FFFFFFFFFFFFFFFFFFFFFFFFFFFFFFFFFFFFFFFFFFFFFF
1004
FFFFFFFFFFFFFFFFFFFFFFFFFFFFFFFFFFFFFFFFFFFFFFFFFFFFFFFFFFFFFFFFFFFFFFFFFFFFFFFFFFFFFFFFFFFFFFFFFFFFFFFFFFFFFFFFFFFFFFFFFFFFFFFFFFFFFFFFFFFFFFFFFFFFFFFFFFFFFFFFFFFFFFFFFFFFFFFFFF0F00000BBBBBBBBBBBBBBBBBBF0000009999999BFBFFBBFBFBFFBBFFB999999F9FFFFF90FBFB
1004
FBBFFBFBFFBB9FFFFF909FFFFF90BFFBFFBFBFFBFBFF9FFFFF909FFFFF90BFBFBBFFBFBFFBFB9FFFFF909FFFFF90FBBFFFBBFFBFBFFB9FFFFF909FFFFF90FFFBBFFBFBFFBFBF9FFFFF909FFFFF90BBFFFBBFFBFBFBBF9FFFFF909FFFFF90FFBBFFFBBFFBFFFB9FFFFF909FFFFF90BFFFBBFFBFBFBBFF9FFFFF909FFFFF90FB
1004
BFFFBBFBBFFFBB9FFFFF909FFFFF90FFFBBFBFBFFBBFFF9FFFFF909FFFFF90BBFBFBFFBFBFFBBF9FFFFF0F9FFFFF90FFBFFBFBFFBBFFFB9FFF99FF9FFFFF90FBBFBFFBFBFFBBFF9F0B9BBF9FFFFF90BBFFBFBFFBFBFFBB99BBBBFF9FFFFF90FFBBFFBFBFFBBFBF9FBBBBFF9000009BBBBBBBBBBBBBBBBBB0999BFFFFFFFFFF
1004
FFFFFFFFFFFFFFFFFFFFFFFFFFFFFFFFFFFFFFFFFFFFFFFFFFFFFFFFFFFFFFFFFFFFFFFFFFFFFFFFFFFFFFFFFFFFFFFFFFFFFFFFFFFFFFFFFFFFFFFFFFFFFFFFFFFFFFFFFFFFFFFFFFFFFFFFFFFFFFFFFFFFFFFFFFFFFFFFFFFFFFFFFFFFFFFFFFFFFFFFFFFFFFFFFFFFFFFF
  0
BLOCK_RECORD
  5
1AA
100
AcDbSymbolTableRecord
100
AcDbBlockTableRecord
  2
SP979011
1001
CONTENTBLOCKICON
1071
        0
1004
2800000020000000200000000100040000000000000200000000000000000000000000000000000000000000000080000080000000808000800000008000800080800000C0C0C000808080000000FF0000FF000000FFFF00FF000000FF00FF00FFFF0000FFFFFF00FFFFFFFFFFFFFFFFFFFFFFFFFFFFFFFFFFFFFFFFFFFFFF
1004
FFFFFFFFFFFFFFFFFFFFFFFFFFFFFFFFFFFFFFFFFFFFFFFFFFFFFFFFFFFFFFFFFFFFFFFFFFFFFFFFFF0F00000BBBBBBBBBBBBBBBBBBF0000000999999BFBFFBBFBFBFFBBFFB999999F0FFFFF90FBFBFBBFFBFBFFBB9FFFFF900FFFFF90BFFBFFBFBFFBFBFF9FFFFF900FFFFF90BFBFBBFFBFBFFBFB9FFFFF900FFFFF90FBBF
1004
FFBBFFBFBFFB9FFFFF900FFFFF9BFFFBBFFBFBFFBFBF9FFFFF900FFFFF90BBFFFBBFFBFBFBBF9FFFFF900FFFFF90FFBBFFFBBFFBFFFB9FFFFF900FFFFF9BBFFFBBFFBFBFBBFF9FFFFF900FFFFF90FBBFFFBBFBBFFFBB9FFFFF900FFFFF9BFFFBBFBFBFFBBFFF9FFFFF900FFFFF90BBFBFBFFBFBFFBBF9FFFFF0F0FFFFF90FF
1004
BFFBFBFFBBFFFB9FFF99FF0FFFFF9BFBBFBFFBFBFFBBFF9F0B9BBF0FFFFF90BBFFBFBFFBFBFFBB99BBBBFF0FFFFF90FFBBFFBFBFFBBFBF9FBBBBFF0000009BBBBBBBBBBBBBBBBBB0999BFF00FFFFFFFFFFFFFFFFFFFFFFFFFFFFFF00FFFFFFFFFFFFFFFFFFFFFFFFFFFFFF00FFFFFFFFFFFFFFFFFFFFFFFFFFFFFF00FFFFFF
1004
FFFFFFFFFFFFFFFFFFFFFFFF00FFFFFFFFFFFFFFFFFFFFFFFFFFFFFF90FFFFFFFFFFFFFFFFFFFFFFFFFFFFFF00FFFFFFFFFFFFFFFFFFFFFFFFFFFFFFFFFFFFFFFFFFFFFFFFFFFFFFFFFFFFFFFFFFFFFFFFFFFFFFFFFFFFFFFFFFFFFFFFFFFFFFFFFFFFFFFFFFFFFFFFFFFFFF
  0
BLOCK_RECORD
  5
15C
100
AcDbSymbolTableRecord
100
AcDbBlockTableRecord
  2
SP979012
1001
CONTENTBLOCKICON
1071
        0
1004
2800000020000000200000000100040000000000000200000000000000000000000000000000000000000000000080000080000000808000800000008000800080800000C0C0C000808080000000FF0000FF000000FFFF00FF000000FF00FF00FFFF0000FFFFFF00FFFFFFFFFFFFFFFFFFFFFFFFFFFFFFFF00FFFFFFFFFFFF
1004
FFFFFFFFFFFFFFFFFF00FFFFFFFFFFFFFFFFFFFFFFFFFFFFFF00FFFFFFFFFFFFFFFFFFFFFFFFFFFFFF00FFFFFFFFFFFFFFFFFFFFFFFFFFFFFF00FFFFFFFFFFFFFFFFFFFFFFFFFFFFFF00FFFFFFFFFFFFFFFFFFFFFFFFFFFFFF00FFFFFFFFFFFFFFFFFFFFFFFFFFFFFF0000000BBBBBBBBBBBBBBBBBBF00000009999990FFFB
1004
BFFBFBFFBBFFB999999F0FFFFF90BBFFFBBFFBFBFFBB9FFFFF900FFFFF90FFBBFFBFBFFBFBFB9FFFFF900FFFFF90BFFFBBFFBFBFBBFF9FFFFF900FFFFF90FBBFFFBBFBBFFFBB9FFFFF900FFFFF90FFFBBFFBFFFBBFFF9FFFFF900FFFFF90BBFFFBBFBBFFFBBF9FFFFF900FFFFF90FFBBFBFBFFBBFFFB9FFFFF900FFFFF90BF
1004
BFBFFBBFFFBBFF9FFFFF900FFFFF90FBFFBFBFFBBFFFBB9FFFFF900FFFFF90FBFBFFBFBFFBBFFF9FFFFF900FFFFF90BFFBFBFFBFBFFBBF9FFFFF0F0FFFFF90FBBFFBFBFFBBFBFB9FFF9BBF0FFFFF90FFBFBFFBFBFBBFFB9F9B9BFF0FFFFF90BBFFBFBFFBFFBFBF99BBBBFF0FFFFF90FFBBFFBFBFBBFFBFBF0BBBFF00000000
1004
BBBBBBBBBBBBBBBBB9990FFF00FFFFFFFFFFFFFFFFFFFFFFFFFFFFFF00FFFFFFFFFFFFFFFFFFFFFFFFFFFFFF00FFFFFFFFFFFFFFFFFFFFFFFFFFFFFF00FFFFFFFFFFFFFFFFFFFFFFFFFFFFFF00FFFFFFFFFFFFFFFFFFFFFFFFFFFFFF00FFFFFFFFFFFFFFFFFFFFFFFFFFFFFF
  0
BLOCK_RECORD
  5
DB
100
AcDbSymbolTableRecord
100
AcDbBlockTableRecord
  2
SP979013
1001
CONTENTBLOCKICON
1071
        0
1004
2800000020000000200000000100040000000000000200000000000000000000000000000000000000000000000080000080000000808000800000008000800080800000C0C0C000808080000000FF0000FF000000FFFF00FF000000FF00FF00FFFF0000FFFFFF00FFFFFFFFFFFFFFFFFFFFFFFFFFFFFFFFFFFFFFFFFFFFFF
1004
FFFFFFFFFFFFFFFF00FFFFFFFFFFFFFFFFFFFFFFFFFFFFFF0FFFFFFFFFFFFFFFFFFFFFFFFFFFFFFF00FFFFFFFFFFFFFFFFFFFFFFFFFFFFFF00FFFFFFFFFFFFFFFFFFFFFFFFFFFFFF00FFFFFFFFFFFFFFFFFFFFFFFFFFFFFF00FFFFFFFFFFFFFFFFFFFFFFFFFFFFFF000F00000BBBBBBBBBBBBBBBBBBF0000009999999BFFFB
1004
BFFBFBFFBBFFB99999909FFFFF90BBFFFBBFFBFBFFBB0FFFFF909FFFFF90FFBBFFBFBFFBFBFB0FFFFF909FFFFF90BFFFBBFFBFBFBBFF0FFFFF909FFFFF90FBBFFFBBFBBFFFBB0FFFFF909FFFFF9BFFFBBFFBFFFBBFFF0FFFFF909FFFFF90BBFFFBBFBBFFFBBF0FFFFF909FFFFF90FFBBFBFBFFBBFFFB0FFFFF909FFFFF9BBF
1004
BFBFFBBFFFBBFF0FFFFF909FFFFF9BFBFFBFBFFBBFFFBB0FFFFF909FFFFF90FBFBFFBFBFFBBFFF0FFFFF909FFFFF90BFFBFBFFBFBFFBBF0FFFFF0F9FFFFF90FBBFFBFBFFBBFBFB0FFF9BBF9FFFFF9BFFBFBFFBFBFBBFFB0F0B9BFF9FFFFF90BBFFBFBFFBFFBFBF09BBBBFF9FFFFF90FFBBFFBFBFBBFFBFBF0BBBFF9999999B
1004
BBBBBBBBBBBBBBBBB0000FFF90FFFFFFFFFFFFFFFFFFFFFFFFFFFFFF90FFFFFFFFFFFFFFFFFFFFFFFFFFFFFF90FFFFFFFFFFFFFFFFFFFFFFFFFFFFFF90FFFFFFFFFFFFFFFFFFFFFFFFFFFFFF90FFFFFFFFFFFFFFFFFFFFFFFFFFFFFF90FFFFFFFFFFFFFFFFFFFFFFFFFFFFFF
  0
BLOCK_RECORD
  5
192
100
AcDbSymbolTableRecord
100
AcDbBlockTableRecord
  2
SP979014
1001
CONTENTBLOCKICON
1071
        0
1004
2800000020000000200000000100040000000000000200000000000000000000000000000000000000000000000080000080000000808000800000008000800080800000C0C0C000808080000000FF0000FF000000FFFF00FF000000FF00FF00FFFF0000FFFFFF00FFFFFFFFFFFFFFFFFFFFFFFFFFFFFFFFFFFFFFFFFFFFFF
1004
FFFFFFFFFFFFFFFFFFFFFFFFFFFFFFFFFFFFFFFFFFFFFFFFFFFFFFFFFFFFFFFFFFFFFFFFFFFFFFFFFF00FFFFFFFFFFFFFFFFFFFFFFFFFFFFFF90FFFFFFFFFFFFFFFFFFFFFFFFFFFFFF90FFFFFFFFFFFFFFFFFFFFFFFFFFFFFF90FFFFFFFFFFFFFFFFFFFFFFFFFFFFFF90FFFFFFFFFFFFFFFFFFFFFFFFFFFFFF90FFFFFFFFFF
1004
FFFFFFFFFFFFFFFFFFFF90FFFFFFFFFFFFFFFFFFFFFFFFFFFFFF9000000BBBBBBBBBBBBBBBBBBF00000099999990FFFBBFFBFBFFBBFFB999999F9FFFFF90BBFFFBBFFBFBFFBB0FFFFF909FFFFF90FFBBFFBFBFFBFBFBBFFFFF909FFFFF90BFFFBBFFBFBFBBFF0FFFFF909FFFFF90FBBFFFBBFBBFFFBB0FFFFF909FFFFF90FF
1004
FBBFFBFFFBBFFFBFFFFF909FFFFF90BBFFFBBFBBFFFBBF0FFFFF909FFFFF90FFBBFBFBFFBBFFFBBFFFFF909FFFFF90BFBFBFFBBFFFBBFF0FFFFF909FFFFF90FBFFBFBFFBBFFFBB0FFFFF909FFFFF90FBFBFFBFBFFBBFFFBFFFFF909FFFFF90BFFBFBFFBFBFFBBF0FFFFF0F9FFFFF90FBBFFBFBFFBBFBFBBFFF9BBF9FFFFF90
1004
FFBFBFFBFBFBBFFB0F0B9BFF9FFFFF90BBFFBFBFFBFFBFBF09BBBBFF9FFFFF90FFBBFFBFBFBBFFBFBF0BBBFF9999999BBBBBBBBBBBBBBBBBB0000FFFFFFFFFFFFFFFFFFFFFFFFFFFFFFFFFFFFFFFFFFFFFFFFFFFFFFFFFFFFFFFFFFFFFFFFFFFFFFFFFFFFFFFFFFFFFFFFFFF
  0
BLOCK_RECORD
  5
19E
100
AcDbSymbolTableRecord
100
AcDbBlockTableRecord
  2
SP979015
1001
CONTENTBLOCKICON
1071
        0
1004
2800000020000000200000000100040000000000000200000000000000000000000000000000000000000000000080000080000000808000800000008000800080800000C0C0C000808080000000FF0000FF000000FFFF00FF000000FF00FF00FFFF0000FFFFFF00FFFFFFFFFFFFFFFFFFFFFFFFFFFFFFFFFFFFFFFFFFFFFF
1004
FFFFFFFFFFFFFFFFFFFFFFFFFFFFFFFFFFFFFFFFFFFFFFFFFFFFFFFFFFFFFFFFFFFFFFFFFFFFFFFFFFFFFFFFFFFFFFFFFFFFFFFFFFFFFFFF00FFFFFFFFFFFFFFFFFFFFFFFFFFFFFF9FFFFFFFFFFFFFFFFFFFFFFFFFFFFFFF90FFFFFFFFFFFFFFFFFFFFFFFFFFFFFF90FFFFFFFFFFFFFFFFFFFFFFFFFFFFFF90FFFFFFFFFFFF
1004
FFFFFFFFFFFFFFFFFF90FFFFFFFFFFFFFFFFFFFFFFFFFFFFFF900F00000BBBBBBBBBBBBBBBBBBF0000909999999BFFFBBFFBFBFFBBFFB99999909FFFFF90BBFFFBBFFBFBFFBB9FFFFF909FFFFF90FFBBFFBFBFFBFBFBBFFFFF909FFFFF90BFFFBBFFBFBFBBFF9FFFFF909FFFFF90FBBFFFBBFBBFFFBB9FFFFF909FFFFF90FF
1004
FBBFFBFFFBBFFFBFFFFF909FFFFF90BBFFFBBFBBFFFBBF9FFFFF909FFFFF90FFBBFBFBFFBBFFFBBFFFFF909FFFFF90BFBFBFFBBFFFBBFF9FFFFF909FFFFF90FBFFBFBFFBBFFFBB9FFFFF909FFFFF90FBFBFFBFBFFBBFFFBFFFFF909FFFFF90BFFBFBFFBFBFFBBF9FFFFF0F9FFFFF90FBBFFBFBFFBBFBFBBFFF9BBF9FFFFF90
1004
FFBFBFFBFBFBBFFB9F9B9BFF9FFFFF90BBFFBFBFFBFFBFBF99BBBBFF9FFFFF90FFBBFFBFBFBBFFBFBF0BBBFF9999999BBBBBBBBBBBBBBBBBB9990FFFFFFFFFFFFFFFFFFFFFFFFFFFFFFFFFFFFFFFFFFFFFFFFFFFFFFFFFFFFFFFFFFFFFFFFFFFFFFFFFFFFFFFFFFFFFFFFFFF
  0
BLOCK_RECORD
  5
106
100
AcDbSymbolTableRecord
100
AcDbBlockTableRecord
  2
SP979020
1001
CONTENTBLOCKICON
1071
        0
1004
2800000020000000200000000100040000000000000200000000000000000000000000000000000000000000000080000080000000808000800000008000800080800000C0C0C000808080000000FF0000FF000000FFFF00FF000000FF00FF00FFFF0000FFFFFF00FFFFFFFFFFFFFFFFFFFFFFFFFFFFFFFFFFFFFFFFFFFFFF
1004
FFFFFFFFFFFFFFFFFFFFFFFFFFFFFFFFFFFFFFFFFFFFFFFFFFFFFFFFFFFFFFFFFFFFFFFFFFFFFFFFFFFFFFFFFFFFFFFFFFFFFFFFFFFFFFFFFFFFFFFFFFFFFFFFFFFFFFFFFFFFFFFFFFFFFFFFFFFFFFFFFFFFFFFFFFFFFFFFFF0F00000BBBBBBBBBBBBBBBBBBF0000000999999BFBFFBBFBFBFFBFBFB999999F0FFFFF90FBFB
1004
FBBFFBFBFFBF9FFFFF900FFFFF90BFFBFFBFBFFBFBFF9FFFFF900FFFFF90BFBFBBFFBFBFFBFB9FFFFF900FFFFF90FBBFFFBBFFBFBFFB9FFFFF900FFFFF90FFFBBFFFBBFFBFBF9FFFFF900FFFFF90BBFFFBBFFBFBFFBF9FFFFF900FFFFF90FFBBFFFBBFFBFBFB9FFFFF900FFFFF90BFFFBBFFFBBFBBFF9FFFFF900FFFFF90FB
1004
BFFFBBFBBFFFBB9FFFFF900FFFFF90BFFBBFFFBFFBBFFF9FFFFF900FFFFF90BBFFFBBFBFBFFBBF9FFFFF900FFFFF90FFBBFBFBFFBFBFFB9FFFFF900FFFFF90FBBFBFFBFBFFBBFF9FFFFF900FFFFF90FBFFBFBFFBFBFFBB9FFFFF900FFFFF90BFBBFFBFBFFBFBFF9FFFFF900000009BBBBBBBBBBBBBBBBBB0000090FFFFFFFF
1004
FFFFFFFFFFFFFFFFFFFFFFFFFFFFFFFFFFFFFFFFFFFFFFFFFFFFFFFFFFFFFFFFFFFFFFFFFFFFFFFFFFFFFFFFFFFFFFFFFFFFFFFFFFFFFFFFFFFFFFFFFFFFFFFFFFFFFFFFFFFFFFFFFFFFFFFFFFFFFFFFFFFFFFFFFFFFFFFFFFFFFFFFFFFFFFFFFFFFFFFFFFFFFFFFFFFFFFFF
  0
BLOCK_RECORD
  5
111
100
AcDbSymbolTableRecord
100
AcDbBlockTableRecord
  2
SP979020-20
1001
CONTENTBLOCKICON
1071
        0
1004
2800000020000000200000000100040000000000000200000000000000000000000000000000000000000000000080000080000000808000800000008000800080800000C0C0C000808080000000FF0000FF000000FFFF00FF000000FF00FF00FFFF0000FFFFFF00FFFFFFFFFFFFFFFFFFFFFFFFFFFFFFFFFFFFFFFFFFFFFF
1004
FFFFFFFFFFFFFFFFFFFFFFFFFFFFFFFFFFFFFFFFFFFFFFFFFFFFFFFFFFFFFFFFFFFFFFFFFFFFFFFFFFFFFFFFFFFFFFFFFFFFFFFFFFFFFFFFFFFFFFFFFFFFFFFFFFFFFFFFFFFFFFFFFFFFFFFFFFFFFFFFFFFFFFFFFFFFFFFFFFFFFFFFFFFFFFFFFFFFFFFFFFFFFFFFFFFFFFFFFFFFFFFFFFFFFFFFFFFFFFFFFFFFFFFFFFFFFF
1004
FFFFFFFFFFFFFFFFFFFFFFFFFFFFFFFFFFFFFFFFFFFFFFFFFFFFFFFFFFFFFFFFFFFFFFFFFFFFFFFFFFFF0F00000BBBBBBBBBBBBBBBBBBF0000009999999BFFFBBFFFBBFBBFFFB999999F9FFFFF90BBFFFBBFFBFFFBBF0FFFFF909FFFFF90FFBBFFFBBFBBFFFBBFFFFF909FFFFF90BFFFBBFBFBFFBBFF0FFFFF909FFFFF90FB
1004
BFBFBFFBBFFFBB0FFFFF909FFFFF90BFFBFFBFBFFBBFFFBFFFFF909999999BBBBBBBBBBBBBBBBBB0000090FFFFFFFFFFFFFFFFFFFFFFFFFFFFFFFFFFFFFFFFFFFFFFFFFFFFFFFFFFFFFFFFFFFFFFFFFFFFFFFFFFFFFFFFFFFFFFFFFFFFFFFFFFFFFFFFFFFFFFFFFFFFFFFFFFFFFFFFFFFFFFFFFFFFFFFFFFFFFFFFFFFFFFFF
1004
FFFFFFFFFFFFFFFFFFFFFFFFFFFFFFFFFFFFFFFFFFFFFFFFFFFFFFFFFFFFFFFFFFFFFFFFFFFFFFFFFFFFFFFFFFFFFFFFFFFFFFFFFFFFFFFFFFFFFFFFFFFFFFFFFFFFFFFFFFFFFFFFFFFFFFFFFFFFFFFFFFFFFFFFFFFFFFFFFFFFFFFFFFFFFFFFFFFFFFFFFFFFFFFFFFFFFFFF
  0
BLOCK_RECORD
  5
FB
100
AcDbSymbolTableRecord
100
AcDbBlockTableRecord
  2
SP979021
1001
CONTENTBLOCKICON
1071
        0
1004
2800000020000000200000000100040000000000000200000000000000000000000000000000000000000000000080000080000000808000800000008000800080800000C0C0C000808080000000FF0000FF000000FFFF00FF000000FF00FF00FFFF0000FFFFFF00FFFFFFFFFFFFFFFFFFFFFFFFFFFFFFFFFFFFFFFFFFFFFF
1004
FFFFFFFFFFFFFFFFFFFFFFFFFFFFFFFFFFFFFFFFFFFFFFFFFFFFFFFFFFFFFFFFFFFFFFFFFFFFFFFFFF0F00000BBBBBBBBBBBBBBBBBBF0000009999999BFBFFBBFBFBFFBFBFB999999F9FFFFF90FBFBFBBFFBFBFFBFBFFFFF909FFFFF90BFFBFFBFBFFBFBFFBFFFFF909FFFFF90BFBFBBFFBFBFFBFB9FFFFF909FFFFF90FBBF
1004
FFBBFFBFBFFB9FFFFF909FFFFF90FFFBBFFFBBFFBFBFBFFFFF909FFFFF90BBFFFBBFFBFBFFBF9FFFFF909FFFFF90FFBBFFFBBFFBFBFBBFFFFF909FFFFF90BFFFBBFFFBBFBBFF9FFFFF909FFFFF90FBBFFFBBFBBFFFBB9FFFFF909FFFFF90BFFBBFFFBFFBBFFFBFFFFF909FFFFF90BBFFFBBFBFBFFBBF9FFFFF909FFFFF90FF
1004
BBFBFBFFBFBFFBBFFFFF909FFFFF90FBBFBFFBFBFFBBFF9FFFFF909FFFFF90FBFFBFBFFBFBFFBB9FFFFF909FFFFF90BFBBFFBFBFFBFBFFBFFFFF909000009BBBBBBBBBBBBBBBBBB000009090FFFFFFFFFFFFFFFFFFFFFFFFFFFFFF90FFFFFFFFFFFFFFFFFFFFFFFFFFFFFF90FFFFFFFFFFFFFFFFFFFFFFFFFFFFFF90FFFFFF
1004
FFFFFFFFFFFFFFFFFFFFFFFF90FFFFFFFFFFFFFFFFFFFFFFFFFFFFFF90FFFFFFFFFFFFFFFFFFFFFFFFFFFFFF90FFFFFFFFFFFFFFFFFFFFFFFFFFFFFFFFFFFFFFFFFFFFFFFFFFFFFFFFFFFFFFFFFFFFFFFFFFFFFFFFFFFFFFFFFFFFFFFFFFFFFFFFFFFFFFFFFFFFFFFFFFFFFF
  0
BLOCK_RECORD
  5
178
100
AcDbSymbolTableRecord
100
AcDbBlockTableRecord
  2
SP979022
1001
CONTENTBLOCKICON
1071
        0
1004
2800000020000000200000000100040000000000000200000000000000000000000000000000000000000000000080000080000000808000800000008000800080800000C0C0C000808080000000FF0000FF000000FFFF00FF000000FF00FF00FFFF0000FFFFFF0000FFFFFFFFFFFFFFFFFFFFFFFFFFFFFF90FFFFFFFFFFFF
1004
FFFFFFFFFFFFFFFFFF90FFFFFFFFFFFFFFFFFFFFFFFFFFFFFF90FFFFFFFFFFFFFFFFFFFFFFFFFFFFFF90FFFFFFFFFFFFFFFFFFFFFFFFFFFFFF90FFFFFFFFFFFFFFFFFFFFFFFFFFFFFF90FFFFFFFFFFFFFFFFFFFFFFFFFFFFFF9000000BBBBBBBBBBBBBBBBBBF00000099999990FBFBBFFBFBFFBFBFB999999F9FFFFF90BBFF
1004
FBBFFBFBFFBF0FFFFF909FFFFF90FFBBFFBFBFFBFBFB0FFFFF909FFFFF90BFFFBBFFBFBFFBFF0FFFFF909FFFFF90FBBFFFBBFFBFBFBB0FFFFF909FFFFF90FFFBBFFFBBFBBFFF0FFFFF909FFFFF90BBFFFBBFBBFFFBBF0FFFFF909FFFFF90FFBBFFFBFFBBFFFB0FFFFF909FFFFF90BFFFBBFBFBFFBBFF0FFFFF909FFFFF90FB
1004
BFBFBFFBBFFFBB0FFFFF909FFFFF90BBFBFFBFBFFBBFFF0FFFFF909FFFFF90BFFBFBFFBFBFFBBF0FFFFF909FFFFF90FBBFFBFBFFBFBFFB0FFFFF909FFFFF90FFBFBFFBFBFFBBFB0FFFFF909FFFFF90BBFFBFBFFBFBFBBF0FFFFF909FFFFF90FFBBFFBFBFFBFFBFBFFFFF909999999BBBBBBBBBBBBBBBBBB000009090FFFFFF
1004
FFFFFFFFFFFFFFFFFFFFFFFF90FFFFFFFFFFFFFFFFFFFFFFFFFFFFFF90FFFFFFFFFFFFFFFFFFFFFFFFFFFFFF90FFFFFFFFFFFFFFFFFFFFFFFFFFFFFF90FFFFFFFFFFFFFFFFFFFFFFFFFFFFFF90FFFFFFFFFFFFFFFFFFFFFFFFFFFFFF90FFFFFFFFFFFFFFFFFFFFFFFFFFFFFF
  0
BLOCK_RECORD
  5
16D
100
AcDbSymbolTableRecord
100
AcDbBlockTableRecord
  2
SP979023
1001
CONTENTBLOCKICON
1071
        0
1004
2800000020000000200000000100040000000000000200000000000000000000000000000000000000000000000080000080000000808000800000008000800080800000C0C0C000808080000000FF0000FF000000FFFF00FF000000FF00FF00FFFF0000FFFFFF00FFFFFFFFFFFFFFFFFFFFFFFFFFFFFF00FFFFFFFFFFFFFF
1004
FFFFFFFFFFFFFFFF0FFFFFFFFFFFFFFFFFFFFFFFFFFFFFFF00FFFFFFFFFFFFFFFFFFFFFFFFFFFFFF00FFFFFFFFFFFFFFFFFFFFFFFFFFFFFF00FFFFFFFFFFFFFFFFFFFFFFFFFFFFFF00FFFFFFFFFFFFFFFFFFFFFFFFFFFFFF000F00000BBBBBBBBBBBBBBBBBBF0000000999999BFBFBBFFBFBFFBFBFB99999900FFFFF90BBFF
1004
FBBFFBFBFFBF0FFFFF900FFFFF90FFBBFFBFBFFBFBFB0FFFFF900FFFFF90BFFFBBFFBFBFFBFF0FFFFF900FFFFF90FBBFFFBBFFBFBFBB0FFFFF900FFFFF90FFFBBFFFBBFBBFFF0FFFFF900FFFFF90BBFFFBBFBBFFFBBF0FFFFF900FFFFF90FFBBFFFBFFBBFFFB0FFFFF900FFFFF90BFFFBBFBFBFFBBFF0FFFFF900FFFFF90FB
1004
BFBFBFFBBFFFBB0FFFFF900FFFFF90BBFBFFBFBFFBBFFF0FFFFF900FFFFF90BFFBFBFFBFBFFBBF0FFFFF900FFFFF90FBBFFBFBFFBFBFFB0FFFFF900FFFFF90FFBFBFFBFBFFBBFB0FFFFF900FFFFF90BBFFBFBFFBFBFBBF0FFFFF900FFFFF90FFBBFFBFBFFBFFBFBFFFFF900000009BBBBBBBBBBBBBBBBBB000009000FFFFFF
1004
FFFFFFFFFFFFFFFFFFFFFFFF00FFFFFFFFFFFFFFFFFFFFFFFFFFFFFF00FFFFFFFFFFFFFFFFFFFFFFFFFFFFFF00FFFFFFFFFFFFFFFFFFFFFFFFFFFFFF00FFFFFFFFFFFFFFFFFFFFFFFFFFFFFF90FFFFFFFFFFFFFFFFFFFFFFFFFFFFFF00FFFFFFFFFFFFFFFFFFFFFFFFFFFFFF
  0
BLOCK_RECORD
  5
32
100
AcDbSymbolTableRecord
100
AcDbBlockTableRecord
  2
SP979024
1001
CONTENTBLOCKICON
1071
        0
1004
2800000020000000200000000100040000000000000200000000000000000000000000000000000000000000000080000080000000808000800000008000800080800000C0C0C000808080000000FF0000FF000000FFFF00FF000000FF00FF00FFFF0000FFFFFF00FFFFFFFFFFFFFFFFFFFFFFFFFFFFFFFFFFFFFFFFFFFFFF
1004
FFFFFFFFFFFFFFFFFFFFFFFFFFFFFFFFFFFFFFFFFFFFFFFFFFFFFFFFFFFFFFFFFFFFFFFFFFFFFFFFFF0F00000BBBBBBBBBBBBBBBBBB00000009999999BFBFFBBFBFBFFBFBFB99999909FFFFF90FBFBFBBFFBFBFFBF9FFFFF909FFFFF90BFFBFFBFBFFBFBFF9FFFFF909FFFFF90BFBFBBFFBFBFFBFB9FFFFF909FFFFF90FBBF
1004
FFBBFFBFBFFB9FFFFF909FFFFF90FFFBBFFFBBFFBFBF9FFFFF909FFFFF90BBFFFBBFFBFBFFBF9FFFFF909FFFFF90FFBBFFFBBFFBFBFB9FFFFF909FFFFF90BFFFBBFFFBBFBBFF9FFFFF909FFFFF90FBBFFFBBFBBFFFBB9FFFFF909FFFFF90BFFBBFFFBFFBBFFF9FFFFF909FFFFF90BBFFFBBFBFBFFBBF9FFFFF909FFFFF90FF
1004
BBFBFBFFBFBFFB9FFFFF909FFFFF90FBBFBFFBFBFFBBFF9FFFFF909FFFFF90FBFFBFBFFBFBFFBB9FFFFF909FFFFF90BFBBFFBFBFFBFBFF9FFFFF9090000090BBBBBBBBBBBBBBBBB000009090FFFFFFFFFFFFFFFFFFFFFFFFFFFF9090FFFFFFFFFFFFFFFFFFFFFFFFFFFF9090FFFFFFFFFFFFFFFFFFFFFFFFFFFF9090FFFFFF
1004
FFFFFFFFFFFFFFFFFFFFFF9090FFFFFFFFFFFFFFFFFFFFFFFFFFFF9090FFFFFFFFFFFFFFFFFFFFFFFFFFFF9090FFFFFFFFFFFFFFFFFFFFFFFFFFFF90FFFFFFFFFFFFFFFFFFFFFFFFFFFFFFFFFFFFFFFFFFFFFFFFFFFFFFFFFFFFFFFFFFFFFFFFFFFFFFFFFFFFFFFFFFFFFFFF
  0
BLOCK_RECORD
  5
CD
100
AcDbSymbolTableRecord
100
AcDbBlockTableRecord
  2
SP979025
1001
CONTENTBLOCKICON
1071
        0
1004
2800000020000000200000000100040000000000000200000000000000000000000000000000000000000000000080000080000000808000800000008000800080800000C0C0C000808080000000FF0000FF000000FFFF00FF000000FF00FF00FFFF0000FFFFFF0000FFFFFFFFFFFFFFFFFFFFFFFFFFFFFF00FFFFFFFFFFFF
1004
FFFFFFFFFFFFFFFFFF00FFFFFFFFFFFFFFFFFFFFFFFFFFFFFF00FFFFFFFFFFFFFFFFFFFFFFFFFFFFFF00FFFFFFFFFFFFFFFFFFFFFFFFFFFFFF00FFFFFFFFFFFFFFFFFFFFFFFFFFFFFF00FFFFFFFFFFFFFFFFFFFFFFFFFFFFFF00000000BBBBBBBBBBBBBBBB0000000009999990FBFBBFFBFBFFBFBF099999900FFFFF90BBFF
1004
FBBFFBFBFFBF0FFFFF900FFFFF90FFBBFFBFBFFBFBFB0FFFFF900FFFFF90BFFFBBFFBFBFFBFF0FFFFF900FFFFF90FBBFFFBBFFBFBFBB0FFFFF900FFFFF90FFFBBFFFBBFBBFFF0FFFFF900FFFFF90BBFFFBBFBBFFFBBF0FFFFF900FFFFF90FFBBFFFBFFBBFFFB0FFFFF900FFFFF90BFFFBBFBFBFFBBFF0FFFFF900FFFFF90FB
1004
BFBFBFFBBFFFBB0FFFFF900FFFFF90BBFBFFBFBFFBBFFF0FFFFF900FFFFF90BFFBFBFFBFBFFBBF0FFFFF900FFFFF90FBBFFBFBFFBFBFFB0FFFFF900FFFFF90FFBFBFFBFBFFBBFB0FFFFF900FFFFF90BBFFBFBFFBFBFBBF0FFFFF900FFFFF90FFBBFFBFBFFBFFBF0FFFFF9000000000BBBBBBBBBBBBBBBB0000000000FFFFFF
1004
FFFFFFFFFFFFFFFFFFFFFF0000FFFFFFFFFFFFFFFFFFFFFFFFFFFF0000FFFFFFFFFFFFFFFFFFFFFFFFFFFF0000FFFFFFFFFFFFFFFFFFFFFFFFFFFF0000FFFFFFFFFFFFFFFFFFFFFFFFFFFF0000FFFFFFFFFFFFFFFFFFFFFFFFFFFF0000FFFFFFFFFFFFFFFFFFFFFFFFFFFF00
  0
ENDTAB
  0
ENDSEC
  0
SECTION
  2
BLOCKS
  0
BLOCK
  5
3
100
AcDbEntity
  8
0
100
AcDbBlockBegin
  2
*MODEL_SPACE
 70
     0
 10
0.0
 20
0.0
 30
0.0
  3
*MODEL_SPACE
  1

  0
ENDBLK
  5
6
100
AcDbEntity
  8
0
100
AcDbBlockEnd
  0
BLOCK
  5
8
100
AcDbEntity
 67
     1
  8
0
100
AcDbBlockBegin
  2
*PAPER_SPACE
 70
     0
 10
0.0
 20
0.0
 30
0.0
  3
*PAPER_SPACE
  1

  0
ENDBLK
  5
9
100
AcDbEntity
 67
     1
  8
0
100
AcDbBlockEnd
  0
BLOCK
  5
2F
100
AcDbEntity
  8
0
100
AcDbBlockBegin
  2
SIDA
 70
     0
 10
0.0
 20
0.0
 30
0.0
  3
SIDA
  1

  0
LWPOLYLINE
  5
20
100
AcDbEntity
  8
RAM
 62
     5
100
AcDbPolyline
 90
        4
 70
     1
 43
0.0
 10
-20.0
 20
35.0
 10
-20.0
 20
560.0
 10
-380.0
 20
560.0
 10
-380.0
 20
35.0
  0
LINE
  5
22
100
AcDbEntity
  8
RAM
  6
DASHDOT
 62
     6
100
AcDbLine
 10
-260.0
 20
307.5
 30
0.0
 11
-260.0
 21
287.5
 31
0.0
  0
LINE
  5
24
100
AcDbEntity
  8
RAM
  6
DASHDOT
 62
     6
100
AcDbLine
 10
-270.0
 20
167.5
 30
0.0
 11
-250.0
 21
167.5
 31
0.0
  0
LINE
  5
25
100
AcDbEntity
  8
RAM
  6
DASHDOT
 62
     6
100
AcDbLine
 10
-260.0
 20
177.5
 30
0.0
 11
-260.0
 21
157.5
 31
0.0
  0
LINE
  5
26
100
AcDbEntity
  8
RAM
  6
DASHDOT
 62
     6
100
AcDbLine
 10
-270.0
 20
297.5
 30
0.0
 11
-250.0
 21
297.5
 31
0.0
  0
LINE
  5
27
100
AcDbEntity
  8
RAM
  6
DASHDOT
 62
     6
100
AcDbLine
 10
-270.0
 20
427.5
 30
0.0
 11
-250.0
 21
427.5
 31
0.0
  0
LINE
  5
28
100
AcDbEntity
  8
RAM
  6
DASHDOT
 62
     6
100
AcDbLine
 10
-260.0
 20
437.5
 30
0.0
 11
-260.0
 21
417.5
 31
0.0
  0
LINE
  5
29
100
AcDbEntity
  8
RAM
  6
DASHDOT
 62
     6
100
AcDbLine
 10
-140.0
 20
307.5
 30
0.0
 11
-140.0
 21
287.5
 31
0.0
  0
LINE
  5
2A
100
AcDbEntity
  8
RAM
  6
DASHDOT
 62
     6
100
AcDbLine
 10
-140.0
 20
177.5
 30
0.0
 11
-140.0
 21
157.5
 31
0.0
  0
LINE
  5
2B
100
AcDbEntity
  8
RAM
  6
DASHDOT
 62
     6
100
AcDbLine
 10
-150.0
 20
167.5
 30
0.0
 11
-130.0
 21
167.5
 31
0.0
  0
LINE
  5
2C
100
AcDbEntity
  8
RAM
  6
DASHDOT
 62
     6
100
AcDbLine
 10
-150.0
 20
297.5
 30
0.0
 11
-130.0
 21
297.5
 31
0.0
  0
LINE
  5
2D
100
AcDbEntity
  8
RAM
  6
DASHDOT
 62
     6
100
AcDbLine
 10
-150.0
 20
427.5
 30
0.0
 11
-130.0
 21
427.5
 31
0.0
  0
LINE
  5
2E
100
AcDbEntity
  8
RAM
  6
DASHDOT
 62
     6
100
AcDbLine
 10
-140.0
 20
437.5
 30
0.0
 11
-140.0
 21
417.5
 31
0.0
  0
ENDBLK
  5
30
100
AcDbEntity
  8
0
100
AcDbBlockEnd
  0
BLOCK
  5
F2
100
AcDbEntity
  8
0
100
AcDbBlockBegin
  2
*X1
 70
     1
 10
0.0
 20
0.0
 30
0.0
  3
*X1
  1

  0
LINE
  5
E8
100
AcDbEntity
  8
0
 62
     0
100
AcDbLine
 10
418.490967
 20
310.1066
 30
0.0
 11
421.167604
 21
313.296491
 31
0.0
  0
LINE
  5
E9
100
AcDbEntity
  8
0
 62
     0
100
AcDbLine
 10
423.349042
 20
315.896228
 30
0.0
 11
424.080112
 21
316.767482
 31
0.0
  0
LINE
  5
EA
100
AcDbEntity
  8
0
 62
     0
100
AcDbLine
 10
422.064957
 20
314.365914
 30
0.0
 11
422.918328
 21
315.382923
 31
0.0
  0
LINE
  5
EB
100
AcDbEntity
  8
0
 62
     0
100
AcDbLine
 10
418.226804
 20
311.736438
 30
0.0
 11
420.663771
 21
314.640701
 31
0.0
  0
LINE
  5
EC
100
AcDbEntity
  8
0
 62
     0
100
AcDbLine
 10
421.575811
 20
315.727628
 30
0.0
 11
422.569739
 21
316.912145
 31
0.0
  0
LINE
  5
ED
100
AcDbEntity
  8
0
 62
     0
100
AcDbLine
 10
417.857133
 20
313.240535
 30
0.0
 11
420.696467
 21
316.624321
 31
0.0
  0
LINE
  5
EE
100
AcDbEntity
  8
0
 62
     0
100
AcDbLine
 10
416.898348
 20
314.042554
 30
0.0
 11
418.169933
 21
315.55797
 31
0.0
  0
LINE
  5
EF
100
AcDbEntity
  8
0
 62
     0
100
AcDbLine
 10
418.751032
 20
308.471878
 30
0.0
 11
420.838188
 21
310.959254
 31
0.0
  0
LINE
  5
F0
100
AcDbEntity
  8
0
 62
     0
100
AcDbLine
 10
419.246616
 20
307.117837
 30
0.0
 11
421.130916
 21
309.363458
 31
0.0
  0
LINE
  5
F1
100
AcDbEntity
  8
0
 62
     0
100
AcDbLine
 10
421.204244
 20
307.506193
 30
0.0
 11
422.301392
 21
308.813723
 31
0.0
  0
ENDBLK
  5
F3
100
AcDbEntity
  8
0
100
AcDbBlockEnd
  0
BLOCK
  5
F4
100
AcDbEntity
  8
0
100
AcDbBlockBegin
  2
SP40010
 70
     0
 10
0.0
 20
0.0
 30
0.0
  3
SP40010
  1

  0
LWPOLYLINE
  5
E5
100
AcDbEntity
  8
GLAS_MED_FOGNING
100
AcDbPolyline
 90
       27
 70
     0
 43
0.0
 10
-8.905528
 20
18.626989
 10
-11.04147
 20
18.263989
 42
0.47758
 10
-11.422076
 20
17.585713
 10
-11.282581
 20
17.236207
 42
-1.066974
 10
-12.209806
 20
16.934105
 10
-12.855648
 20
19.46147
 10
-12.95764
 20
20.795213
 42
-0.851446
 10
-12.019738
 20
21.021209
 42
0.34625
 10
-11.479327
 20
20.720659
 10
-7.420891
 20
21.324081
 42
0.253088
 10
-6.015863
 20
22.369183
 10
-5.627377
 20
23.238611
 42
-0.653084
 10
-5.261375
 20
23.225047
 10
-4.446993
 20
21.166246
 42
0.887127
 10
-4.490032
 20
20.572081
 42
-0.212108
 10
-4.15725
 20
20.339586
 42
-0.212173
 10
-3.459619
 20
14.779472
 42
-0.418069
 10
-3.711416
 20
14.646619
 10
-4.293984
 20
14.830968
 42
-0.397156
 10
-4.360758
 20
14.950843
 42
0.194939
 10
-4.977068
 20
19.415768
 42
1.053912
 10
-5.578133
 20
19.061579
 10
-4.456808
 20
16.774085
 42
-0.459605
 10
-4.576654
 20
16.495183
 10
-5.081649
 20
16.337131
 42
-0.312484
 10
-5.190355
 20
16.371046
 42
0.373013
 10
-9.071884
 20
18.598717
  0
INSERT
  5
E6
100
AcDbEntity
  8
GLAS_MED_FOGNING
100
AcDbBlockReference
  2
*X1
 10
-314.5231
 20
443.46412
 30
0.0
 50
269.250599
1001
ACAD
1000
HATCH
1002
{
1070
    16
1000
ANSI31
1040
10.0
1040
0.087266
1002
}
  0
ENDBLK
  5
F5
100
AcDbEntity
  8
0
100
AcDbBlockEnd
  0
BLOCK
  5
152
100
AcDbEntity
  8
0
100
AcDbBlockBegin
  2
*X3
 70
     1
 10
0.0
 20
0.0
 30
0.0
  3
*X3
  1

  0
LINE
  5
116
100
AcDbEntity
  8
0
 62
     0
100
AcDbLine
 10
-40.7808
 20
-8.672231
 30
0.0
 11
-42.101482
 21
-5.84002
 31
0.0
  0
LINE
  5
117
100
AcDbEntity
  8
0
 62
     0
100
AcDbLine
 10
-43.422164
 20
-3.007808
 30
0.0
 11
-44.742846
 21
-0.175596
 31
0.0
  0
LINE
  5
118
100
AcDbEntity
  8
0
 62
     0
100
AcDbLine
 10
-46.063528
 20
2.656616
 30
0.0
 11
-47.38421
 21
5.488828
 31
0.0
  0
LINE
  5
119
100
AcDbEntity
  8
0
 62
     0
100
AcDbLine
 10
-48.704892
 20
8.32104
 30
0.0
 11
-49.487805
 21
10.0
 31
0.0
  0
LINE
  5
11A
100
AcDbEntity
  8
0
 62
     0
100
AcDbLine
 10
-43.609707
 20
-10.0
 30
0.0
 11
-43.613012
 21
-9.992913
 31
0.0
  0
LINE
  5
11B
100
AcDbEntity
  8
0
 62
     0
100
AcDbLine
 10
-44.933694
 20
-7.160702
 30
0.0
 11
-46.254376
 21
-4.32849
 31
0.0
  0
LINE
  5
11C
100
AcDbEntity
  8
0
 62
     0
100
AcDbLine
 10
-47.575058
 20
-1.496278
 30
0.0
 11
-48.89574
 21
1.335934
 31
0.0
  0
LINE
  5
11D
100
AcDbEntity
  8
0
 62
     0
100
AcDbLine
 10
-50.216422
 20
4.168146
 30
0.0
 11
-51.537104
 21
7.000358
 31
0.0
  0
LINE
  5
11E
100
AcDbEntity
  8
0
 62
     0
100
AcDbLine
 10
-52.857786
 20
9.832569
 30
0.0
 11
-52.935861
 21
10.0
 31
0.0
  0
LINE
  5
11F
100
AcDbEntity
  8
0
 62
     0
100
AcDbLine
 10
-47.057763
 20
-10.0
 30
0.0
 11
-47.765906
 21
-8.481384
 31
0.0
  0
LINE
  5
120
100
AcDbEntity
  8
0
 62
     0
100
AcDbLine
 10
-49.086588
 20
-5.649172
 30
0.0
 11
-50.40727
 21
-2.81696
 31
0.0
  0
LINE
  5
121
100
AcDbEntity
  8
0
 62
     0
100
AcDbLine
 10
-51.727952
 20
0.015252
 30
0.0
 11
-53.048634
 21
2.847464
 31
0.0
  0
LINE
  5
122
100
AcDbEntity
  8
0
 62
     0
100
AcDbLine
 10
-54.369316
 20
5.679675
 30
0.0
 11
-55.689998
 21
8.511887
 31
0.0
  0
LINE
  5
123
100
AcDbEntity
  8
0
 62
     0
100
AcDbLine
 10
-50.598118
 20
-9.802066
 30
0.0
 11
-51.9188
 21
-6.969854
 31
0.0
  0
LINE
  5
124
100
AcDbEntity
  8
0
 62
     0
100
AcDbLine
 10
-53.239482
 20
-4.137642
 30
0.0
 11
-54.560164
 21
-1.30543
 31
0.0
  0
LINE
  5
125
100
AcDbEntity
  8
0
 62
     0
100
AcDbLine
 10
-55.880846
 20
1.526782
 30
0.0
 11
-57.201528
 21
4.358993
 31
0.0
  0
LINE
  5
126
100
AcDbEntity
  8
0
 62
     0
100
AcDbLine
 10
-58.52221
 20
7.191205
 30
0.0
 11
-59.831973
 21
10.0
 31
0.0
  0
LINE
  5
127
100
AcDbEntity
  8
0
 62
     0
100
AcDbLine
 10
-54.751012
 20
-8.290536
 30
0.0
 11
-56.071694
 21
-5.458324
 31
0.0
  0
LINE
  5
128
100
AcDbEntity
  8
0
 62
     0
100
AcDbLine
 10
-57.392376
 20
-2.626112
 30
0.0
 11
-58.713058
 21
0.2061
 31
0.0
  0
LINE
  5
129
100
AcDbEntity
  8
0
 62
     0
100
AcDbLine
 10
-60.03374
 20
3.038311
 30
0.0
 11
-61.354422
 21
5.870523
 31
0.0
  0
LINE
  5
12A
100
AcDbEntity
  8
0
 62
     0
100
AcDbLine
 10
-62.675104
 20
8.702735
 30
0.0
 11
-63.280029
 21
10.0
 31
0.0
  0
LINE
  5
12B
100
AcDbEntity
  8
0
 62
     0
100
AcDbLine
 10
-57.401931
 20
-10.0
 30
0.0
 11
-57.583223
 21
-9.611218
 31
0.0
  0
LINE
  5
12C
100
AcDbEntity
  8
0
 62
     0
100
AcDbLine
 10
-58.903905
 20
-6.779006
 30
0.0
 11
-60.224587
 21
-3.946794
 31
0.0
  0
LINE
  5
12D
100
AcDbEntity
  8
0
 62
     0
100
AcDbLine
 10
-61.54527
 20
-1.114583
 30
0.0
 11
-62.865952
 21
1.717629
 31
0.0
  0
LINE
  5
12E
100
AcDbEntity
  8
0
 62
     0
100
AcDbLine
 10
-64.186634
 20
4.549841
 30
0.0
 11
-65.507316
 21
7.382053
 31
0.0
  0
LINE
  5
12F
100
AcDbEntity
  8
0
 62
     0
100
AcDbLine
 10
-60.849987
 20
-10.0
 30
0.0
 11
-61.736117
 21
-8.099688
 31
0.0
  0
LINE
  5
130
100
AcDbEntity
  8
0
 62
     0
100
AcDbLine
 10
-63.056799
 20
-5.267476
 30
0.0
 11
-64.377481
 21
-2.435265
 31
0.0
  0
LINE
  5
131
100
AcDbEntity
  8
0
 62
     0
100
AcDbLine
 10
-65.698163
 20
0.396947
 30
0.0
 11
-67.018846
 21
3.229159
 31
0.0
  0
LINE
  5
132
100
AcDbEntity
  8
0
 62
     0
100
AcDbLine
 10
-68.339528
 20
6.061371
 30
0.0
 11
-69.66021
 21
8.893583
 31
0.0
  0
LINE
  5
133
100
AcDbEntity
  8
0
 62
     0
100
AcDbLine
 10
-64.568329
 20
-9.42037
 30
0.0
 11
-65.889011
 21
-6.588159
 31
0.0
  0
LINE
  5
134
100
AcDbEntity
  8
0
 62
     0
100
AcDbLine
 10
-67.209693
 20
-3.755947
 30
0.0
 11
-68.530375
 21
-0.923735
 31
0.0
  0
LINE
  5
135
100
AcDbEntity
  8
0
 62
     0
100
AcDbLine
 10
-69.851057
 20
1.908477
 30
0.0
 11
-70.0
 21
2.227885
 31
0.0
  0
LINE
  5
136
100
AcDbEntity
  8
0
 62
     0
100
AcDbLine
 10
-68.721223
 20
-7.908841
 30
0.0
 11
-70.0
 21
-5.166494
 31
0.0
  0
LINE
  5
137
100
AcDbEntity
  8
0
 62
     0
100
AcDbLine
 10
-36.713595
 20
-10.0
 30
0.0
 11
-37.948588
 21
-7.351549
 31
0.0
  0
LINE
  5
138
100
AcDbEntity
  8
0
 62
     0
100
AcDbLine
 10
-39.26927
 20
-4.519337
 30
0.0
 11
-40.589952
 21
-1.687126
 31
0.0
  0
LINE
  5
139
100
AcDbEntity
  8
0
 62
     0
100
AcDbLine
 10
-41.910634
 20
1.145086
 30
0.0
 11
-43.231316
 21
3.977298
 31
0.0
  0
LINE
  5
13A
100
AcDbEntity
  8
0
 62
     0
100
AcDbLine
 10
-44.551999
 20
6.80951
 30
0.0
 11
-45.872681
 21
9.641722
 31
0.0
  0
LINE
  5
13B
100
AcDbEntity
  8
0
 62
     0
100
AcDbLine
 10
-33.265539
 20
-10.0
 30
0.0
 11
-33.795694
 21
-8.863079
 31
0.0
  0
LINE
  5
13C
100
AcDbEntity
  8
0
 62
     0
100
AcDbLine
 10
-35.116376
 20
-6.030867
 30
0.0
 11
-36.437058
 21
-3.198655
 31
0.0
  0
LINE
  5
13D
100
AcDbEntity
  8
0
 62
     0
100
AcDbLine
 10
-37.757741
 20
-0.366444
 30
0.0
 11
-39.078423
 21
2.465768
 31
0.0
  0
LINE
  5
13E
100
AcDbEntity
  8
0
 62
     0
100
AcDbLine
 10
-40.399105
 20
5.29798
 30
0.0
 11
-41.719787
 21
8.130192
 31
0.0
  0
LINE
  5
13F
100
AcDbEntity
  8
0
 62
     0
100
AcDbLine
 10
-30.963482
 20
-7.542397
 30
0.0
 11
-32.284165
 21
-4.710185
 31
0.0
  0
LINE
  5
140
100
AcDbEntity
  8
0
 62
     0
100
AcDbLine
 10
-33.604847
 20
-1.877973
 30
0.0
 11
-34.925529
 21
0.954238
 31
0.0
  0
LINE
  5
141
100
AcDbEntity
  8
0
 62
     0
100
AcDbLine
 10
-36.246211
 20
3.78645
 30
0.0
 11
-37.566893
 21
6.618662
 31
0.0
  0
LINE
  5
142
100
AcDbEntity
  8
0
 62
     0
100
AcDbLine
 10
-38.887575
 20
9.450874
 30
0.0
 11
-39.143637
 21
10.0
 31
0.0
  0
LINE
  5
143
100
AcDbEntity
  8
0
 62
     0
100
AcDbLine
 10
-26.810589
 20
-9.053927
 30
0.0
 11
-28.131271
 21
-6.221715
 31
0.0
  0
LINE
  5
144
100
AcDbEntity
  8
0
 62
     0
100
AcDbLine
 10
-29.451953
 20
-3.389503
 30
0.0
 11
-30.772635
 21
-0.557291
 31
0.0
  0
LINE
  5
145
100
AcDbEntity
  8
0
 62
     0
100
AcDbLine
 10
-32.093317
 20
2.274921
 30
0.0
 11
-33.413999
 21
5.107132
 31
0.0
  0
LINE
  5
146
100
AcDbEntity
  8
0
 62
     0
100
AcDbLine
 10
-34.734681
 20
7.939344
 30
0.0
 11
-35.695581
 21
10.0
 31
0.0
  0
LINE
  5
147
100
AcDbEntity
  8
0
 62
     0
100
AcDbLine
 10
-22.921371
 20
-10.0
 30
0.0
 11
-23.978377
 21
-7.733245
 31
0.0
  0
LINE
  5
148
100
AcDbEntity
  8
0
 62
     0
100
AcDbLine
 10
-25.299059
 20
-4.901033
 30
0.0
 11
-26.619741
 21
-2.068821
 31
0.0
  0
LINE
  5
149
100
AcDbEntity
  8
0
 62
     0
100
AcDbLine
 10
-27.940423
 20
0.763391
 30
0.0
 11
-29.261105
 21
3.595603
 31
0.0
  0
LINE
  5
14A
100
AcDbEntity
  8
0
 62
     0
100
AcDbLine
 10
-30.581787
 20
6.427814
 30
0.0
 11
-31.902469
 21
9.260026
 31
0.0
  0
LINE
  5
14B
100
AcDbEntity
  8
0
 62
     0
100
AcDbLine
 10
-21.146165
 20
-6.412563
 30
0.0
 11
-22.466847
 21
-3.580351
 31
0.0
  0
LINE
  5
14C
100
AcDbEntity
  8
0
 62
     0
100
AcDbLine
 10
-23.787529
 20
-0.748139
 30
0.0
 11
-25.108211
 21
2.084073
 31
0.0
  0
LINE
  5
14D
100
AcDbEntity
  8
0
 62
     0
100
AcDbLine
 10
-26.428893
 20
4.916285
 30
0.0
 11
-27.749575
 21
7.748497
 31
0.0
  0
LINE
  5
14E
100
AcDbEntity
  8
0
 62
     0
100
AcDbLine
 10
-20.0
 20
-1.476141
 30
0.0
 11
-20.955317
 21
0.572543
 31
0.0
  0
LINE
  5
14F
100
AcDbEntity
  8
0
 62
     0
100
AcDbLine
 10
-22.275999
 20
3.404755
 30
0.0
 11
-23.596681
 21
6.236967
 31
0.0
  0
LINE
  5
150
100
AcDbEntity
  8
0
 62
     0
100
AcDbLine
 10
-24.917363
 20
9.069179
 30
0.0
 11
-25.351413
 21
10.0
 31
0.0
  0
LINE
  5
151
100
AcDbEntity
  8
0
 62
     0
100
AcDbLine
 10
-20.76447
 20
7.557649
 30
0.0
 11
-21.903357
 21
10.0
 31
0.0
  0
ENDBLK
  5
153
100
AcDbEntity
  8
0
100
AcDbBlockEnd
  0
BLOCK
  5
C0
100
AcDbEntity
  8
0
100
AcDbBlockBegin
  2
*X4
 70
     1
 10
0.0
 20
0.0
 30
0.0
  3
*X4
  1

  0
LINE
  5
35
100
AcDbEntity
  8
0
 62
     0
100
AcDbLine
 10
-33.167037
 20
-25.0
 30
0.0
 11
-34.17739
 21
-22.833291
 31
0.0
  0
LINE
  5
36
100
AcDbEntity
  8
0
 62
     0
100
AcDbLine
 10
-35.498072
 20
-20.001079
 30
0.0
 11
-36.818754
 21
-17.168867
 31
0.0
  0
LINE
  5
37
100
AcDbEntity
  8
0
 62
     0
100
AcDbLine
 10
-38.139436
 20
-14.336655
 30
0.0
 11
-39.460118
 21
-11.504443
 31
0.0
  0
LINE
  5
38
100
AcDbEntity
  8
0
 62
     0
100
AcDbLine
 10
-40.7808
 20
-8.672231
 30
0.0
 11
-42.101482
 21
-5.84002
 31
0.0
  0
LINE
  5
39
100
AcDbEntity
  8
0
 62
     0
100
AcDbLine
 10
-43.422164
 20
-3.007808
 30
0.0
 11
-44.742846
 21
-0.175596
 31
0.0
  0
LINE
  5
3A
100
AcDbEntity
  8
0
 62
     0
100
AcDbLine
 10
-46.063528
 20
2.656616
 30
0.0
 11
-47.38421
 21
5.488828
 31
0.0
  0
LINE
  5
3B
100
AcDbEntity
  8
0
 62
     0
100
AcDbLine
 10
-48.704892
 20
8.32104
 30
0.0
 11
-50.025575
 21
11.153251
 31
0.0
  0
LINE
  5
3C
100
AcDbEntity
  8
0
 62
     0
100
AcDbLine
 10
-51.346257
 20
13.985463
 30
0.0
 11
-52.666939
 21
16.817675
 31
0.0
  0
LINE
  5
3D
100
AcDbEntity
  8
0
 62
     0
100
AcDbLine
 10
-53.987621
 20
19.649887
 30
0.0
 11
-55.308303
 21
22.482099
 31
0.0
  0
LINE
  5
3E
100
AcDbEntity
  8
0
 62
     0
100
AcDbLine
 10
-37.009602
 20
-24.153973
 30
0.0
 11
-38.330284
 21
-21.321761
 31
0.0
  0
LINE
  5
3F
100
AcDbEntity
  8
0
 62
     0
100
AcDbLine
 10
-39.650966
 20
-18.489549
 30
0.0
 11
-40.971648
 21
-15.657337
 31
0.0
  0
LINE
  5
40
100
AcDbEntity
  8
0
 62
     0
100
AcDbLine
 10
-42.29233
 20
-12.825125
 30
0.0
 11
-43.613012
 21
-9.992913
 31
0.0
  0
LINE
  5
41
100
AcDbEntity
  8
0
 62
     0
100
AcDbLine
 10
-44.933694
 20
-7.160702
 30
0.0
 11
-46.254376
 21
-4.32849
 31
0.0
  0
LINE
  5
42
100
AcDbEntity
  8
0
 62
     0
100
AcDbLine
 10
-47.575058
 20
-1.496278
 30
0.0
 11
-48.89574
 21
1.335934
 31
0.0
  0
LINE
  5
43
100
AcDbEntity
  8
0
 62
     0
100
AcDbLine
 10
-50.216422
 20
4.168146
 30
0.0
 11
-51.537104
 21
7.000358
 31
0.0
  0
LINE
  5
44
100
AcDbEntity
  8
0
 62
     0
100
AcDbLine
 10
-52.857786
 20
9.832569
 30
0.0
 11
-54.178468
 21
12.664781
 31
0.0
  0
LINE
  5
45
100
AcDbEntity
  8
0
 62
     0
100
AcDbLine
 10
-55.49915
 20
15.496993
 30
0.0
 11
-56.819833
 21
18.329205
 31
0.0
  0
LINE
  5
46
100
AcDbEntity
  8
0
 62
     0
100
AcDbLine
 10
-58.140515
 20
21.161417
 30
0.0
 11
-59.461197
 21
23.993629
 31
0.0
  0
LINE
  5
47
100
AcDbEntity
  8
0
 62
     0
100
AcDbLine
 10
-41.162495
 20
-22.642443
 30
0.0
 11
-42.483178
 21
-19.810231
 31
0.0
  0
LINE
  5
48
100
AcDbEntity
  8
0
 62
     0
100
AcDbLine
 10
-43.80386
 20
-16.978019
 30
0.0
 11
-45.124542
 21
-14.145807
 31
0.0
  0
LINE
  5
49
100
AcDbEntity
  8
0
 62
     0
100
AcDbLine
 10
-46.445224
 20
-11.313596
 30
0.0
 11
-47.765906
 21
-8.481384
 31
0.0
  0
LINE
  5
4A
100
AcDbEntity
  8
0
 62
     0
100
AcDbLine
 10
-49.086588
 20
-5.649172
 30
0.0
 11
-50.40727
 21
-2.81696
 31
0.0
  0
LINE
  5
4B
100
AcDbEntity
  8
0
 62
     0
100
AcDbLine
 10
-51.727952
 20
0.015252
 30
0.0
 11
-53.048634
 21
2.847464
 31
0.0
  0
LINE
  5
4C
100
AcDbEntity
  8
0
 62
     0
100
AcDbLine
 10
-54.369316
 20
5.679675
 30
0.0
 11
-55.689998
 21
8.511887
 31
0.0
  0
LINE
  5
4D
100
AcDbEntity
  8
0
 62
     0
100
AcDbLine
 10
-57.01068
 20
11.344099
 30
0.0
 11
-58.331362
 21
14.176311
 31
0.0
  0
LINE
  5
4E
100
AcDbEntity
  8
0
 62
     0
100
AcDbLine
 10
-59.652044
 20
17.008523
 30
0.0
 11
-60.972726
 21
19.840735
 31
0.0
  0
LINE
  5
4F
100
AcDbEntity
  8
0
 62
     0
100
AcDbLine
 10
-62.293409
 20
22.672946
 30
0.0
 11
-63.378531
 21
25.0
 31
0.0
  0
LINE
  5
50
100
AcDbEntity
  8
0
 62
     0
100
AcDbLine
 10
-43.511204
 20
-25.0
 30
0.0
 11
-43.994707
 21
-23.963125
 31
0.0
  0
LINE
  5
51
100
AcDbEntity
  8
0
 62
     0
100
AcDbLine
 10
-45.315389
 20
-21.130913
 30
0.0
 11
-46.636071
 21
-18.298701
 31
0.0
  0
LINE
  5
52
100
AcDbEntity
  8
0
 62
     0
100
AcDbLine
 10
-47.956753
 20
-15.466489
 30
0.0
 11
-49.277436
 21
-12.634278
 31
0.0
  0
LINE
  5
53
100
AcDbEntity
  8
0
 62
     0
100
AcDbLine
 10
-50.598118
 20
-9.802066
 30
0.0
 11
-51.9188
 21
-6.969854
 31
0.0
  0
LINE
  5
54
100
AcDbEntity
  8
0
 62
     0
100
AcDbLine
 10
-53.239482
 20
-4.137642
 30
0.0
 11
-54.560164
 21
-1.30543
 31
0.0
  0
LINE
  5
55
100
AcDbEntity
  8
0
 62
     0
100
AcDbLine
 10
-55.880846
 20
1.526782
 30
0.0
 11
-57.201528
 21
4.358993
 31
0.0
  0
LINE
  5
56
100
AcDbEntity
  8
0
 62
     0
100
AcDbLine
 10
-58.52221
 20
7.191205
 30
0.0
 11
-59.842892
 21
10.023417
 31
0.0
  0
LINE
  5
57
100
AcDbEntity
  8
0
 62
     0
100
AcDbLine
 10
-61.163574
 20
12.855629
 30
0.0
 11
-62.484256
 21
15.687841
 31
0.0
  0
LINE
  5
58
100
AcDbEntity
  8
0
 62
     0
100
AcDbLine
 10
-63.804938
 20
18.520053
 30
0.0
 11
-65.12562
 21
21.352264
 31
0.0
  0
LINE
  5
59
100
AcDbEntity
  8
0
 62
     0
100
AcDbLine
 10
-66.446302
 20
24.184476
 30
0.0
 11
-66.826587
 21
25.0
 31
0.0
  0
LINE
  5
5A
100
AcDbEntity
  8
0
 62
     0
100
AcDbLine
 10
-46.95926
 20
-25.0
 30
0.0
 11
-48.147601
 21
-22.451595
 31
0.0
  0
LINE
  5
5B
100
AcDbEntity
  8
0
 62
     0
100
AcDbLine
 10
-49.468283
 20
-19.619383
 30
0.0
 11
-50.788965
 21
-16.787171
 31
0.0
  0
LINE
  5
5C
100
AcDbEntity
  8
0
 62
     0
100
AcDbLine
 10
-52.109647
 20
-13.95496
 30
0.0
 11
-53.430329
 21
-11.122748
 31
0.0
  0
LINE
  5
5D
100
AcDbEntity
  8
0
 62
     0
100
AcDbLine
 10
-54.751012
 20
-8.290536
 30
0.0
 11
-56.071694
 21
-5.458324
 31
0.0
  0
LINE
  5
5E
100
AcDbEntity
  8
0
 62
     0
100
AcDbLine
 10
-57.392376
 20
-2.626112
 30
0.0
 11
-58.713058
 21
0.2061
 31
0.0
  0
LINE
  5
5F
100
AcDbEntity
  8
0
 62
     0
100
AcDbLine
 10
-60.03374
 20
3.038311
 30
0.0
 11
-61.354422
 21
5.870523
 31
0.0
  0
LINE
  5
60
100
AcDbEntity
  8
0
 62
     0
100
AcDbLine
 10
-62.675104
 20
8.702735
 30
0.0
 11
-63.995786
 21
11.534947
 31
0.0
  0
LINE
  5
61
100
AcDbEntity
  8
0
 62
     0
100
AcDbLine
 10
-65.316468
 20
14.367159
 30
0.0
 11
-66.63715
 21
17.199371
 31
0.0
  0
LINE
  5
62
100
AcDbEntity
  8
0
 62
     0
100
AcDbLine
 10
-67.957832
 20
20.031582
 30
0.0
 11
-69.278514
 21
22.863794
 31
0.0
  0
LINE
  5
63
100
AcDbEntity
  8
0
 62
     0
100
AcDbLine
 10
-50.979813
 20
-23.772277
 30
0.0
 11
-52.300495
 21
-20.940065
 31
0.0
  0
LINE
  5
64
100
AcDbEntity
  8
0
 62
     0
100
AcDbLine
 10
-53.621177
 20
-18.107854
 30
0.0
 11
-54.941859
 21
-15.275642
 31
0.0
  0
LINE
  5
65
100
AcDbEntity
  8
0
 62
     0
100
AcDbLine
 10
-56.262541
 20
-12.44343
 30
0.0
 11
-57.583223
 21
-9.611218
 31
0.0
  0
LINE
  5
66
100
AcDbEntity
  8
0
 62
     0
100
AcDbLine
 10
-58.903905
 20
-6.779006
 30
0.0
 11
-60.224587
 21
-3.946794
 31
0.0
  0
LINE
  5
67
100
AcDbEntity
  8
0
 62
     0
100
AcDbLine
 10
-61.54527
 20
-1.114583
 30
0.0
 11
-62.865952
 21
1.717629
 31
0.0
  0
LINE
  5
68
100
AcDbEntity
  8
0
 62
     0
100
AcDbLine
 10
-64.186634
 20
4.549841
 30
0.0
 11
-65.507316
 21
7.382053
 31
0.0
  0
LINE
  5
69
100
AcDbEntity
  8
0
 62
     0
100
AcDbLine
 10
-66.827998
 20
10.214265
 30
0.0
 11
-68.14868
 21
13.046477
 31
0.0
  0
LINE
  5
6A
100
AcDbEntity
  8
0
 62
     0
100
AcDbLine
 10
-69.469362
 20
15.878688
 30
0.0
 11
-70.0
 21
17.016645
 31
0.0
  0
LINE
  5
6B
100
AcDbEntity
  8
0
 62
     0
100
AcDbLine
 10
-55.132707
 20
-22.260747
 30
0.0
 11
-56.453389
 21
-19.428536
 31
0.0
  0
LINE
  5
6C
100
AcDbEntity
  8
0
 62
     0
100
AcDbLine
 10
-57.774071
 20
-16.596324
 30
0.0
 11
-59.094753
 21
-13.764112
 31
0.0
  0
LINE
  5
6D
100
AcDbEntity
  8
0
 62
     0
100
AcDbLine
 10
-60.415435
 20
-10.9319
 30
0.0
 11
-61.736117
 21
-8.099688
 31
0.0
  0
LINE
  5
6E
100
AcDbEntity
  8
0
 62
     0
100
AcDbLine
 10
-63.056799
 20
-5.267476
 30
0.0
 11
-64.377481
 21
-2.435265
 31
0.0
  0
LINE
  5
6F
100
AcDbEntity
  8
0
 62
     0
100
AcDbLine
 10
-65.698163
 20
0.396947
 30
0.0
 11
-67.018846
 21
3.229159
 31
0.0
  0
LINE
  5
70
100
AcDbEntity
  8
0
 62
     0
100
AcDbLine
 10
-68.339528
 20
6.061371
 30
0.0
 11
-69.66021
 21
8.893583
 31
0.0
  0
LINE
  5
71
100
AcDbEntity
  8
0
 62
     0
100
AcDbLine
 10
-57.303428
 20
-25.0
 30
0.0
 11
-57.964919
 21
-23.58143
 31
0.0
  0
LINE
  5
72
100
AcDbEntity
  8
0
 62
     0
100
AcDbLine
 10
-59.285601
 20
-20.749218
 30
0.0
 11
-60.606283
 21
-17.917006
 31
0.0
  0
LINE
  5
73
100
AcDbEntity
  8
0
 62
     0
100
AcDbLine
 10
-61.926965
 20
-15.084794
 30
0.0
 11
-63.247647
 21
-12.252582
 31
0.0
  0
LINE
  5
74
100
AcDbEntity
  8
0
 62
     0
100
AcDbLine
 10
-64.568329
 20
-9.42037
 30
0.0
 11
-65.889011
 21
-6.588159
 31
0.0
  0
LINE
  5
75
100
AcDbEntity
  8
0
 62
     0
100
AcDbLine
 10
-67.209693
 20
-3.755947
 30
0.0
 11
-68.530375
 21
-0.923735
 31
0.0
  0
LINE
  5
76
100
AcDbEntity
  8
0
 62
     0
100
AcDbLine
 10
-69.851057
 20
1.908477
 30
0.0
 11
-70.0
 21
2.227885
 31
0.0
  0
LINE
  5
77
100
AcDbEntity
  8
0
 62
     0
100
AcDbLine
 10
-60.797131
 20
-24.902112
 30
0.0
 11
-62.117813
 21
-22.0699
 31
0.0
  0
LINE
  5
78
100
AcDbEntity
  8
0
 62
     0
100
AcDbLine
 10
-63.438495
 20
-19.237688
 30
0.0
 11
-64.759177
 21
-16.405476
 31
0.0
  0
LINE
  5
79
100
AcDbEntity
  8
0
 62
     0
100
AcDbLine
 10
-66.079859
 20
-13.573264
 30
0.0
 11
-67.400541
 21
-10.741052
 31
0.0
  0
LINE
  5
7A
100
AcDbEntity
  8
0
 62
     0
100
AcDbLine
 10
-68.721223
 20
-7.908841
 30
0.0
 11
-70.0
 21
-5.166494
 31
0.0
  0
LINE
  5
7B
100
AcDbEntity
  8
0
 62
     0
100
AcDbLine
 10
-64.950024
 20
-23.390582
 30
0.0
 11
-66.270707
 21
-20.55837
 31
0.0
  0
LINE
  5
7C
100
AcDbEntity
  8
0
 62
     0
100
AcDbLine
 10
-67.591389
 20
-17.726158
 30
0.0
 11
-68.912071
 21
-14.893946
 31
0.0
  0
LINE
  5
7D
100
AcDbEntity
  8
0
 62
     0
100
AcDbLine
 10
-67.647596
 20
-25.0
 30
0.0
 11
-67.782236
 21
-24.711264
 31
0.0
  0
LINE
  5
7E
100
AcDbEntity
  8
0
 62
     0
100
AcDbLine
 10
-69.102918
 20
-21.879052
 30
0.0
 11
-70.0
 21
-19.955254
 31
0.0
  0
LINE
  5
7F
100
AcDbEntity
  8
0
 62
     0
100
AcDbLine
 10
-29.718981
 20
-25.0
 30
0.0
 11
-30.024496
 21
-24.34482
 31
0.0
  0
LINE
  5
80
100
AcDbEntity
  8
0
 62
     0
100
AcDbLine
 10
-31.345178
 20
-21.512608
 30
0.0
 11
-32.66586
 21
-18.680397
 31
0.0
  0
LINE
  5
81
100
AcDbEntity
  8
0
 62
     0
100
AcDbLine
 10
-33.986542
 20
-15.848185
 30
0.0
 11
-35.307224
 21
-13.015973
 31
0.0
  0
LINE
  5
82
100
AcDbEntity
  8
0
 62
     0
100
AcDbLine
 10
-36.627906
 20
-10.183761
 30
0.0
 11
-37.948588
 21
-7.351549
 31
0.0
  0
LINE
  5
83
100
AcDbEntity
  8
0
 62
     0
100
AcDbLine
 10
-39.26927
 20
-4.519337
 30
0.0
 11
-40.589952
 21
-1.687126
 31
0.0
  0
LINE
  5
84
100
AcDbEntity
  8
0
 62
     0
100
AcDbLine
 10
-41.910634
 20
1.145086
 30
0.0
 11
-43.231316
 21
3.977298
 31
0.0
  0
LINE
  5
85
100
AcDbEntity
  8
0
 62
     0
100
AcDbLine
 10
-44.551999
 20
6.80951
 30
0.0
 11
-45.872681
 21
9.641722
 31
0.0
  0
LINE
  5
86
100
AcDbEntity
  8
0
 62
     0
100
AcDbLine
 10
-47.193363
 20
12.473934
 30
0.0
 11
-48.514045
 21
15.306145
 31
0.0
  0
LINE
  5
87
100
AcDbEntity
  8
0
 62
     0
100
AcDbLine
 10
-49.834727
 20
18.138357
 30
0.0
 11
-51.155409
 21
20.970569
 31
0.0
  0
LINE
  5
88
100
AcDbEntity
  8
0
 62
     0
100
AcDbLine
 10
-52.476091
 20
23.802781
 30
0.0
 11
-53.034363
 21
25.0
 31
0.0
  0
LINE
  5
89
100
AcDbEntity
  8
0
 62
     0
100
AcDbLine
 10
-27.192284
 20
-23.024138
 30
0.0
 11
-28.512966
 21
-20.191926
 31
0.0
  0
LINE
  5
8A
100
AcDbEntity
  8
0
 62
     0
100
AcDbLine
 10
-29.833648
 20
-17.359715
 30
0.0
 11
-31.15433
 21
-14.527503
 31
0.0
  0
LINE
  5
8B
100
AcDbEntity
  8
0
 62
     0
100
AcDbLine
 10
-32.475012
 20
-11.695291
 30
0.0
 11
-33.795694
 21
-8.863079
 31
0.0
  0
LINE
  5
8C
100
AcDbEntity
  8
0
 62
     0
100
AcDbLine
 10
-35.116376
 20
-6.030867
 30
0.0
 11
-36.437058
 21
-3.198655
 31
0.0
  0
LINE
  5
8D
100
AcDbEntity
  8
0
 62
     0
100
AcDbLine
 10
-37.757741
 20
-0.366444
 30
0.0
 11
-39.078423
 21
2.465768
 31
0.0
  0
LINE
  5
8E
100
AcDbEntity
  8
0
 62
     0
100
AcDbLine
 10
-40.399105
 20
5.29798
 30
0.0
 11
-41.719787
 21
8.130192
 31
0.0
  0
LINE
  5
8F
100
AcDbEntity
  8
0
 62
     0
100
AcDbLine
 10
-43.040469
 20
10.962404
 30
0.0
 11
-44.361151
 21
13.794616
 31
0.0
  0
LINE
  5
90
100
AcDbEntity
  8
0
 62
     0
100
AcDbLine
 10
-45.681833
 20
16.626827
 30
0.0
 11
-47.002515
 21
19.459039
 31
0.0
  0
LINE
  5
91
100
AcDbEntity
  8
0
 62
     0
100
AcDbLine
 10
-48.323197
 20
22.291251
 30
0.0
 11
-49.586307
 21
25.0
 31
0.0
  0
LINE
  5
92
100
AcDbEntity
  8
0
 62
     0
100
AcDbLine
 10
-23.03939
 20
-24.535668
 30
0.0
 11
-24.360072
 21
-21.703456
 31
0.0
  0
LINE
  5
93
100
AcDbEntity
  8
0
 62
     0
100
AcDbLine
 10
-25.680754
 20
-18.871244
 30
0.0
 11
-27.001436
 21
-16.039033
 31
0.0
  0
LINE
  5
94
100
AcDbEntity
  8
0
 62
     0
100
AcDbLine
 10
-28.322118
 20
-13.206821
 30
0.0
 11
-29.6428
 21
-10.374609
 31
0.0
  0
LINE
  5
95
100
AcDbEntity
  8
0
 62
     0
100
AcDbLine
 10
-30.963482
 20
-7.542397
 30
0.0
 11
-32.284165
 21
-4.710185
 31
0.0
  0
LINE
  5
96
100
AcDbEntity
  8
0
 62
     0
100
AcDbLine
 10
-33.604847
 20
-1.877973
 30
0.0
 11
-34.925529
 21
0.954238
 31
0.0
  0
LINE
  5
97
100
AcDbEntity
  8
0
 62
     0
100
AcDbLine
 10
-36.246211
 20
3.78645
 30
0.0
 11
-37.566893
 21
6.618662
 31
0.0
  0
LINE
  5
98
100
AcDbEntity
  8
0
 62
     0
100
AcDbLine
 10
-38.887575
 20
9.450874
 30
0.0
 11
-40.208257
 21
12.283086
 31
0.0
  0
LINE
  5
99
100
AcDbEntity
  8
0
 62
     0
100
AcDbLine
 10
-41.528939
 20
15.115298
 30
0.0
 11
-42.849621
 21
17.947509
 31
0.0
  0
LINE
  5
9A
100
AcDbEntity
  8
0
 62
     0
100
AcDbLine
 10
-44.170303
 20
20.779721
 30
0.0
 11
-45.490985
 21
23.611933
 31
0.0
  0
LINE
  5
9B
100
AcDbEntity
  8
0
 62
     0
100
AcDbLine
 10
-20.0
 20
-23.659281
 30
0.0
 11
-20.207178
 21
-23.214986
 31
0.0
  0
LINE
  5
9C
100
AcDbEntity
  8
0
 62
     0
100
AcDbLine
 10
-21.52786
 20
-20.382774
 30
0.0
 11
-22.848542
 21
-17.550562
 31
0.0
  0
LINE
  5
9D
100
AcDbEntity
  8
0
 62
     0
100
AcDbLine
 10
-24.169224
 20
-14.71835
 30
0.0
 11
-25.489907
 21
-11.886139
 31
0.0
  0
LINE
  5
9E
100
AcDbEntity
  8
0
 62
     0
100
AcDbLine
 10
-26.810589
 20
-9.053927
 30
0.0
 11
-28.131271
 21
-6.221715
 31
0.0
  0
LINE
  5
9F
100
AcDbEntity
  8
0
 62
     0
100
AcDbLine
 10
-29.451953
 20
-3.389503
 30
0.0
 11
-30.772635
 21
-0.557291
 31
0.0
  0
LINE
  5
A0
100
AcDbEntity
  8
0
 62
     0
100
AcDbLine
 10
-32.093317
 20
2.274921
 30
0.0
 11
-33.413999
 21
5.107132
 31
0.0
  0
LINE
  5
A1
100
AcDbEntity
  8
0
 62
     0
100
AcDbLine
 10
-34.734681
 20
7.939344
 30
0.0
 11
-36.055363
 21
10.771556
 31
0.0
  0
LINE
  5
A2
100
AcDbEntity
  8
0
 62
     0
100
AcDbLine
 10
-37.376045
 20
13.603768
 30
0.0
 11
-38.696727
 21
16.43598
 31
0.0
  0
LINE
  5
A3
100
AcDbEntity
  8
0
 62
     0
100
AcDbLine
 10
-40.017409
 20
19.268192
 30
0.0
 11
-41.338091
 21
22.100403
 31
0.0
  0
LINE
  5
A4
100
AcDbEntity
  8
0
 62
     0
100
AcDbLine
 10
-42.658773
 20
24.932615
 30
0.0
 11
-42.690195
 21
25.0
 31
0.0
  0
LINE
  5
A5
100
AcDbEntity
  8
0
 62
     0
100
AcDbLine
 10
-20.016331
 20
-16.22988
 30
0.0
 11
-21.337013
 21
-13.397668
 31
0.0
  0
LINE
  5
A6
100
AcDbEntity
  8
0
 62
     0
100
AcDbLine
 10
-22.657695
 20
-10.565457
 30
0.0
 11
-23.978377
 21
-7.733245
 31
0.0
  0
LINE
  5
A7
100
AcDbEntity
  8
0
 62
     0
100
AcDbLine
 10
-25.299059
 20
-4.901033
 30
0.0
 11
-26.619741
 21
-2.068821
 31
0.0
  0
LINE
  5
A8
100
AcDbEntity
  8
0
 62
     0
100
AcDbLine
 10
-27.940423
 20
0.763391
 30
0.0
 11
-29.261105
 21
3.595603
 31
0.0
  0
LINE
  5
A9
100
AcDbEntity
  8
0
 62
     0
100
AcDbLine
 10
-30.581787
 20
6.427814
 30
0.0
 11
-31.902469
 21
9.260026
 31
0.0
  0
LINE
  5
AA
100
AcDbEntity
  8
0
 62
     0
100
AcDbLine
 10
-33.223151
 20
12.092238
 30
0.0
 11
-34.543833
 21
14.92445
 31
0.0
  0
LINE
  5
AB
100
AcDbEntity
  8
0
 62
     0
100
AcDbLine
 10
-35.864515
 20
17.756662
 30
0.0
 11
-37.185197
 21
20.588874
 31
0.0
  0
LINE
  5
AC
100
AcDbEntity
  8
0
 62
     0
100
AcDbLine
 10
-38.505879
 20
23.421085
 30
0.0
 11
-39.242139
 21
25.0
 31
0.0
  0
LINE
  5
AD
100
AcDbEntity
  8
0
 62
     0
100
AcDbLine
 10
-21.146165
 20
-6.412563
 30
0.0
 11
-22.466847
 21
-3.580351
 31
0.0
  0
LINE
  5
AE
100
AcDbEntity
  8
0
 62
     0
100
AcDbLine
 10
-23.787529
 20
-0.748139
 30
0.0
 11
-25.108211
 21
2.084073
 31
0.0
  0
LINE
  5
AF
100
AcDbEntity
  8
0
 62
     0
100
AcDbLine
 10
-26.428893
 20
4.916285
 30
0.0
 11
-27.749575
 21
7.748497
 31
0.0
  0
LINE
  5
B0
100
AcDbEntity
  8
0
 62
     0
100
AcDbLine
 10
-29.070257
 20
10.580708
 30
0.0
 11
-30.390939
 21
13.41292
 31
0.0
  0
LINE
  5
B1
100
AcDbEntity
  8
0
 62
     0
100
AcDbLine
 10
-31.711621
 20
16.245132
 30
0.0
 11
-33.032304
 21
19.077344
 31
0.0
  0
LINE
  5
B2
100
AcDbEntity
  8
0
 62
     0
100
AcDbLine
 10
-34.352986
 20
21.909556
 30
0.0
 11
-35.673668
 21
24.741768
 31
0.0
  0
LINE
  5
B3
100
AcDbEntity
  8
0
 62
     0
100
AcDbLine
 10
-20.0
 20
-1.476141
 30
0.0
 11
-20.955317
 21
0.572543
 31
0.0
  0
LINE
  5
B4
100
AcDbEntity
  8
0
 62
     0
100
AcDbLine
 10
-22.275999
 20
3.404755
 30
0.0
 11
-23.596681
 21
6.236967
 31
0.0
  0
LINE
  5
B5
100
AcDbEntity
  8
0
 62
     0
100
AcDbLine
 10
-24.917363
 20
9.069179
 30
0.0
 11
-26.238045
 21
11.90139
 31
0.0
  0
LINE
  5
B6
100
AcDbEntity
  8
0
 62
     0
100
AcDbLine
 10
-27.558728
 20
14.733602
 30
0.0
 11
-28.87941
 21
17.565814
 31
0.0
  0
LINE
  5
B7
100
AcDbEntity
  8
0
 62
     0
100
AcDbLine
 10
-30.200092
 20
20.398026
 30
0.0
 11
-31.520774
 21
23.230238
 31
0.0
  0
LINE
  5
B8
100
AcDbEntity
  8
0
 62
     0
100
AcDbLine
 10
-20.76447
 20
7.557649
 30
0.0
 11
-22.085152
 21
10.389861
 31
0.0
  0
LINE
  5
B9
100
AcDbEntity
  8
0
 62
     0
100
AcDbLine
 10
-23.405834
 20
13.222073
 30
0.0
 11
-24.726516
 21
16.054284
 31
0.0
  0
LINE
  5
BA
100
AcDbEntity
  8
0
 62
     0
100
AcDbLine
 10
-26.047198
 20
18.886496
 30
0.0
 11
-27.36788
 21
21.718708
 31
0.0
  0
LINE
  5
BB
100
AcDbEntity
  8
0
 62
     0
100
AcDbLine
 10
-28.688562
 20
24.55092
 30
0.0
 11
-28.897971
 21
25.0
 31
0.0
  0
LINE
  5
BC
100
AcDbEntity
  8
0
 62
     0
100
AcDbLine
 10
-20.0
 20
13.312619
 30
0.0
 11
-20.573622
 21
14.542755
 31
0.0
  0
LINE
  5
BD
100
AcDbEntity
  8
0
 62
     0
100
AcDbLine
 10
-21.894304
 20
17.374966
 30
0.0
 11
-23.214986
 21
20.207178
 31
0.0
  0
LINE
  5
BE
100
AcDbEntity
  8
0
 62
     0
100
AcDbLine
 10
-24.535668
 20
23.03939
 30
0.0
 11
-25.449915
 21
25.0
 31
0.0
  0
LINE
  5
BF
100
AcDbEntity
  8
0
 62
     0
100
AcDbLine
 10
-20.382774
 20
21.52786
 30
0.0
 11
-21.703456
 21
24.360072
 31
0.0
  0
ENDBLK
  5
C1
100
AcDbEntity
  8
0
100
AcDbBlockEnd
  0
BLOCK
  5
18D
100
AcDbEntity
  8
0
100
AcDbBlockBegin
  2
SP979010
 70
     0
 10
0.0
 20
0.0
 30
0.0
  3
SP979010
  1

  0
INSERT
  5
185
100
AcDbEntity
  8
GLAS_MED_FOGNING
100
AcDbBlockReference
  2
*X4
 10
0.0
 20
0.0
 30
0.0
1001
ACAD
1000
HATCH
1002
{
1070
    16
1000
DASH
1040
25.0
1040
2.007129
1002
}
  0
LWPOLYLINE
  5
186
100
AcDbEntity
  8
SPKONTUR
100
AcDbPolyline
 90
       25
 70
     0
 43
0.0
 10
-8.1
 20
18.4
 10
-8.114719
 20
18.4
 10
-8.1
 20
18.4
 42
-0.414214
 10
-5.6
 20
15.9
 10
-5.6
 20
13.8
 42
0.414214
 10
-3.8
 20
12.0
 10
-3.6
 20
12.0
 42
-0.414214
 10
0.0
 20
8.4
 10
0.0
 20
-23.2
 42
-0.414214
 10
-1.8
 20
-25.0
 10
-18.2
 20
-25.0
 42
-0.414214
 10
-20.0
 20
-23.2
 10
-20.0
 20
23.2
 42
-0.414214
 10
-18.2
 20
25.0
 10
-7.9
 20
25.0
 42
-0.414214
 10
-6.1
 20
23.2
 10
-6.1
 20
23.199
 42
-0.414214
 10
-7.899
 20
21.4
 10
-12.6
 20
21.4
 42
0.414214
 10
-14.4
 20
19.6
 10
-14.4
 20
18.2
 42
0.414214
 10
-12.6
 20
16.4
 42
0.198912
 10
-10.47868
 20
17.27868
 10
-10.236039
 20
17.52132
 42
-0.198912
 10
-8.114719
 20
18.4
  0
LWPOLYLINE
  5
187
100
AcDbEntity
  8
STALPROFIL
100
AcDbPolyline
 90
       22
 70
     1
 43
1.8
 10
-8.114719
 20
17.5
 10
-8.1
 20
17.5
 42
-0.414214
 10
-6.5
 20
15.9
 10
-6.5
 20
13.8
 42
0.414214
 10
-3.8
 20
11.1
 10
-3.6
 20
11.1
 42
-0.414214
 10
-0.9
 20
8.4
 10
-0.9
 20
-23.2
 42
-0.414214
 10
-1.8
 20
-24.1
 10
-18.2
 20
-24.1
 42
-0.414214
 10
-19.1
 20
-23.2
 10
-19.1
 20
23.2
 42
-0.414214
 10
-18.2
 20
24.1
 10
-7.9
 20
24.1
 42
-0.414214
 10
-7.0
 20
23.199
 42
-0.414214
 10
-7.899
 20
22.3
 10
-12.6
 20
22.3
 42
0.414214
 10
-15.3
 20
19.6
 10
-15.3
 20
18.2
 42
0.414214
 10
-12.6
 20
15.5
 42
0.198912
 10
-9.842284
 20
16.642284
 10
-9.599643
 20
16.884924
 42
-0.198912
  0
LWPOLYLINE
  5
188
100
AcDbEntity
  8
SPKONTUR
100
AcDbPolyline
 90
        8
 70
     1
 43
0.0
 10
-90.0
 20
23.2
 42
-0.414214
 10
-88.2
 20
25.0
 10
-71.8
 20
25.0
 42
-0.414214
 10
-70.0
 20
23.2
 10
-70.0
 20
-23.2
 42
-0.414214
 10
-71.8
 20
-25.0
 10
-88.2
 20
-25.0
 42
-0.414214
 10
-90.0
 20
-23.2
  0
LWPOLYLINE
  5
189
100
AcDbEntity
  8
STALPROFIL
100
AcDbPolyline
 90
        8
 70
     1
 43
1.8
 10
-89.1
 20
23.2
 42
-0.414214
 10
-88.2
 20
24.1
 10
-71.8
 20
24.1
 42
-0.414214
 10
-70.9
 20
23.2
 10
-70.9
 20
-23.2
 42
-0.414214
 10
-71.8
 20
-24.1
 10
-88.2
 20
-24.1
 42
-0.414214
 10
-89.1
 20
-23.2
  0
LWPOLYLINE
  5
18A
100
AcDbEntity
  8
GLAS_MED_FOGNING
100
AcDbPolyline
 90
        4
 70
     0
 43
0.0
 10
-20.0
 20
-23.2
 10
-20.0
 20
-25.0
 10
-70.0
 20
-25.0
 10
-70.0
 20
-23.2
  0
LWPOLYLINE
  5
18B
100
AcDbEntity
  8
GLAS_MED_FOGNING
100
AcDbPolyline
 90
        4
 70
     0
 43
0.0
 10
-20.0
 20
23.2
 10
-20.0
 20
25.0
 10
-70.0
 20
25.0
 10
-70.0
 20
23.2
  0
INSERT
  5
18C
100
AcDbEntity
  8
GLAS_MED_FOGNING
100
AcDbBlockReference
  2
SP40010
 10
0.0
 20
0.0
 30
0.0
  0
ENDBLK
  5
18E
100
AcDbEntity
  8
0
100
AcDbBlockEnd
  0
BLOCK
  5
1B3
100
AcDbEntity
  8
0
100
AcDbBlockBegin
  2
SP979011
 70
     0
 10
0.0
 20
0.0
 30
0.0
  3
SP979011
  1

  0
LWPOLYLINE
  5
1AB
100
AcDbEntity
  8
STALPROFIL
100
AcDbPolyline
 90
       11
 70
     1
 43
1.8
 10
-86.4
 20
24.1
 10
-71.8
 20
24.1
 42
-0.414214
 10
-70.9
 20
23.2
 10
-70.9
 20
-23.2
 42
-0.414214
 10
-71.8
 20
-24.1
 10
-88.2
 20
-24.1
 42
-0.414214
 10
-89.1
 20
-23.2
 10
-89.1
 20
43.2
 42
-0.414214
 10
-88.199
 20
44.1
 42
-0.414214
 10
-87.3
 20
43.201
 10
-87.3
 20
25.0
 42
0.414214
  0
LWPOLYLINE
  5
1AC
100
AcDbEntity
  8
SPKONTUR
100
AcDbPolyline
 90
       11
 70
     1
 43
0.0
 10
-86.4
 20
25.0
 10
-71.8
 20
25.0
 42
-0.414214
 10
-70.0
 20
23.2
 10
-70.0
 20
-23.2
 42
-0.414214
 10
-71.8
 20
-25.0
 10
-88.2
 20
-25.0
 42
-0.414214
 10
-90.0
 20
-23.2
 10
-90.0
 20
43.2
 42
-0.414214
 10
-88.2
 20
45.0
 10
-88.199
 20
45.0
 42
-0.414214
 10
-86.4
 20
43.201
  0
INSERT
  5
1AD
100
AcDbEntity
  8
GLAS_MED_FOGNING
100
AcDbBlockReference
  2
*X4
 10
0.0
 20
0.0
 30
0.0
1001
ACAD
1000
HATCH
1002
{
1070
    16
1000
DASH
1040
25.0
1040
2.007129
1002
}
  0
LWPOLYLINE
  5
1AE
100
AcDbEntity
  8
SPKONTUR
100
AcDbPolyline
 90
       25
 70
     0
 43
0.0
 10
-8.1
 20
18.4
 10
-8.114719
 20
18.4
 10
-8.1
 20
18.4
 42
-0.414214
 10
-5.6
 20
15.9
 10
-5.6
 20
13.8
 42
0.414214
 10
-3.8
 20
12.0
 10
-3.6
 20
12.0
 42
-0.414214
 10
0.0
 20
8.4
 10
0.0
 20
-23.2
 42
-0.414214
 10
-1.8
 20
-25.0
 10
-18.2
 20
-25.0
 42
-0.414214
 10
-20.0
 20
-23.2
 10
-20.0
 20
23.2
 42
-0.414214
 10
-18.2
 20
25.0
 10
-7.9
 20
25.0
 42
-0.414214
 10
-6.1
 20
23.2
 10
-6.1
 20
23.199
 42
-0.414214
 10
-7.899
 20
21.4
 10
-12.6
 20
21.4
 42
0.414214
 10
-14.4
 20
19.6
 10
-14.4
 20
18.2
 42
0.414214
 10
-12.6
 20
16.4
 42
0.198912
 10
-10.47868
 20
17.27868
 10
-10.236039
 20
17.52132
 42
-0.198912
 10
-8.114719
 20
18.4
  0
LWPOLYLINE
  5
1AF
100
AcDbEntity
  8
STALPROFIL
100
AcDbPolyline
 90
       22
 70
     1
 43
1.8
 10
-8.114719
 20
17.5
 10
-8.1
 20
17.5
 42
-0.414214
 10
-6.5
 20
15.9
 10
-6.5
 20
13.8
 42
0.414214
 10
-3.8
 20
11.1
 10
-3.6
 20
11.1
 42
-0.414214
 10
-0.9
 20
8.4
 10
-0.9
 20
-23.2
 42
-0.414214
 10
-1.8
 20
-24.1
 10
-18.2
 20
-24.1
 42
-0.414214
 10
-19.1
 20
-23.2
 10
-19.1
 20
23.2
 42
-0.414214
 10
-18.2
 20
24.1
 10
-7.9
 20
24.1
 42
-0.414214
 10
-7.0
 20
23.199
 42
-0.414214
 10
-7.899
 20
22.3
 10
-12.6
 20
22.3
 42
0.414214
 10
-15.3
 20
19.6
 10
-15.3
 20
18.2
 42
0.414214
 10
-12.6
 20
15.5
 42
0.198912
 10
-9.842284
 20
16.642284
 10
-9.599643
 20
16.884924
 42
-0.198912
  0
LWPOLYLINE
  5
1B0
100
AcDbEntity
  8
GLAS_MED_FOGNING
100
AcDbPolyline
 90
        4
 70
     0
 43
0.0
 10
-20.0
 20
-23.2
 10
-20.0
 20
-25.0
 10
-70.0
 20
-25.0
 10
-70.0
 20
-23.2
  0
LWPOLYLINE
  5
1B1
100
AcDbEntity
  8
GLAS_MED_FOGNING
100
AcDbPolyline
 90
        4
 70
     0
 43
0.0
 10
-20.0
 20
23.2
 10
-20.0
 20
25.0
 10
-70.0
 20
25.0
 10
-70.0
 20
23.2
  0
INSERT
  5
1B2
100
AcDbEntity
  8
GLAS_MED_FOGNING
100
AcDbBlockReference
  2
SP40010
 10
0.0
 20
0.0
 30
0.0
  0
ENDBLK
  5
1B4
100
AcDbEntity
  8
0
100
AcDbBlockEnd
  0
BLOCK
  5
165
100
AcDbEntity
  8
0
100
AcDbBlockBegin
  2
SP979012
 70
     0
 10
0.0
 20
0.0
 30
0.0
  3
SP979012
  1

  0
INSERT
  5
15D
100
AcDbEntity
  8
GLAS_MED_FOGNING
100
AcDbBlockReference
  2
*X4
 10
0.0
 20
0.0
 30
0.0
1001
ACAD
1000
HATCH
1002
{
1070
    16
1000
DASH
1040
25.0
1040
2.007129
1002
}
  0
LWPOLYLINE
  5
15E
100
AcDbEntity
  8
SPKONTUR
100
AcDbPolyline
 90
       25
 70
     0
 43
0.0
 10
-8.1
 20
18.4
 10
-8.114719
 20
18.4
 10
-8.1
 20
18.4
 42
-0.414214
 10
-5.6
 20
15.9
 10
-5.6
 20
13.8
 42
0.414214
 10
-3.8
 20
12.0
 10
-3.6
 20
12.0
 42
-0.414214
 10
0.0
 20
8.4
 10
0.0
 20
-23.2
 42
-0.414214
 10
-1.8
 20
-25.0
 10
-18.2
 20
-25.0
 42
-0.414214
 10
-20.0
 20
-23.2
 10
-20.0
 20
23.2
 42
-0.414214
 10
-18.2
 20
25.0
 10
-7.9
 20
25.0
 42
-0.414214
 10
-6.1
 20
23.2
 10
-6.1
 20
23.199
 42
-0.414214
 10
-7.899
 20
21.4
 10
-12.6
 20
21.4
 42
0.414214
 10
-14.4
 20
19.6
 10
-14.4
 20
18.2
 42
0.414214
 10
-12.6
 20
16.4
 42
0.198912
 10
-10.47868
 20
17.27868
 10
-10.236039
 20
17.52132
 42
-0.198912
 10
-8.114719
 20
18.4
  0
LWPOLYLINE
  5
15F
100
AcDbEntity
  8
STALPROFIL
100
AcDbPolyline
 90
       22
 70
     1
 43
1.8
 10
-8.114719
 20
17.5
 10
-8.1
 20
17.5
 42
-0.414214
 10
-6.5
 20
15.9
 10
-6.5
 20
13.8
 42
0.414214
 10
-3.8
 20
11.1
 10
-3.6
 20
11.1
 42
-0.414214
 10
-0.9
 20
8.4
 10
-0.9
 20
-23.2
 42
-0.414214
 10
-1.8
 20
-24.1
 10
-18.2
 20
-24.1
 42
-0.414214
 10
-19.1
 20
-23.2
 10
-19.1
 20
23.2
 42
-0.414214
 10
-18.2
 20
24.1
 10
-7.9
 20
24.1
 42
-0.414214
 10
-7.0
 20
23.199
 42
-0.414214
 10
-7.899
 20
22.3
 10
-12.6
 20
22.3
 42
0.414214
 10
-15.3
 20
19.6
 10
-15.3
 20
18.2
 42
0.414214
 10
-12.6
 20
15.5
 42
0.198912
 10
-9.842284
 20
16.642284
 10
-9.599643
 20
16.884924
 42
-0.198912
  0
LWPOLYLINE
  5
160
100
AcDbEntity
  8
GLAS_MED_FOGNING
100
AcDbPolyline
 90
        4
 70
     0
 43
0.0
 10
-20.0
 20
23.2
 10
-20.0
 20
25.0
 10
-70.0
 20
25.0
 10
-70.0
 20
23.2
  0
LWPOLYLINE
  5
161
100
AcDbEntity
  8
STALPROFIL
100
AcDbPolyline
 90
       16
 70
     1
 43
1.8
 10
-89.1
 20
0.0
 10
-89.1
 20
-43.2
 42
0.414214
 10
-88.199
 20
-44.1
 42
0.414214
 10
-87.3
 20
-43.201
 10
-87.3
 20
-25.0
 42
-0.414214
 10
-86.4
 20
-24.1
 10
-71.8
 20
-24.1
 42
0.414214
 10
-70.9
 20
-23.2
 10
-70.9
 20
0.0
 10
-70.9
 20
23.2
 42
0.414214
 10
-71.8
 20
24.1
 10
-86.4
 20
24.1
 42
-0.414214
 10
-87.3
 20
25.0
 10
-87.3
 20
43.201
 42
0.414214
 10
-88.2
 20
44.1
 42
0.414214
 10
-89.1
 20
43.2
  0
LWPOLYLINE
  5
162
100
AcDbEntity
  8
SPKONTUR
100
AcDbPolyline
 90
       16
 70
     1
 43
0.0
 10
-90.0
 20
0.0
 10
-90.0
 20
-43.2
 42
0.414214
 10
-88.2
 20
-45.0
 10
-88.199
 20
-45.0
 42
0.414214
 10
-86.4
 20
-43.201
 10
-86.4
 20
-25.0
 10
-71.8
 20
-25.0
 42
0.414214
 10
-70.0
 20
-23.2
 10
-70.0
 20
0.0
 10
-70.0
 20
23.2
 42
0.414214
 10
-71.8
 20
25.0
 10
-86.4
 20
25.0
 10
-86.4
 20
43.201
 42
0.414214
 10
-88.199
 20
45.0
 10
-88.2
 20
45.0
 42
0.414214
 10
-90.0
 20
43.2
  0
LWPOLYLINE
  5
163
100
AcDbEntity
  8
GLAS_MED_FOGNING
100
AcDbPolyline
 90
        4
 70
     0
 43
0.0
 10
-20.0
 20
-23.2
 10
-20.0
 20
-25.0
 10
-70.0
 20
-25.0
 10
-70.0
 20
-23.2
  0
INSERT
  5
164
100
AcDbEntity
  8
GLAS_MED_FOGNING
100
AcDbBlockReference
  2
SP40010
 10
0.0
 20
0.0
 30
0.0
  0
ENDBLK
  5
166
100
AcDbEntity
  8
0
100
AcDbBlockEnd
  0
BLOCK
  5
F6
100
AcDbEntity
  8
0
100
AcDbBlockBegin
  2
SP979013
 70
     0
 10
0.0
 20
0.0
 30
0.0
  3
SP979013
  1

  0
LWPOLYLINE
  5
DC
100
AcDbEntity
  8
SPKONTUR
100
AcDbPolyline
 90
       11
 70
     1
 43
0.0
 10
-86.4
 20
25.0
 10
-71.8
 20
25.0
 42
-0.414214
 10
-70.0
 20
23.2
 10
-70.0
 20
-23.2
 42
-0.414214
 10
-71.8
 20
-25.0
 10
-88.2
 20
-25.0
 42
-0.414214
 10
-90.0
 20
-23.2
 10
-90.0
 20
43.2
 42
-0.414214
 10
-88.2
 20
45.0
 10
-88.199
 20
45.0
 42
-0.414214
 10
-86.4
 20
43.201
  0
LWPOLYLINE
  5
DD
100
AcDbEntity
  8
STALPROFIL
100
AcDbPolyline
 90
       11
 70
     1
 43
1.8
 10
-86.4
 20
24.1
 10
-71.8
 20
24.1
 42
-0.414214
 10
-70.9
 20
23.2
 10
-70.9
 20
-23.2
 42
-0.414214
 10
-71.8
 20
-24.1
 10
-88.2
 20
-24.1
 42
-0.414214
 10
-89.1
 20
-23.2
 10
-89.1
 20
43.2
 42
-0.414214
 10
-88.199
 20
44.1
 42
-0.414214
 10
-87.3
 20
43.201
 10
-87.3
 20
25.0
 42
0.414214
  0
INSERT
  5
DE
100
AcDbEntity
  8
GLAS_MED_FOGNING
100
AcDbBlockReference
  2
*X4
 10
0.0
 20
0.0
 30
0.0
1001
ACAD
1000
HATCH
1002
{
1070
    16
1000
DASH
1040
25.0
1040
2.007129
1002
}
  0
LWPOLYLINE
  5
DF
100
AcDbEntity
  8
STALPROFIL
100
AcDbPolyline
 90
       25
 70
     1
 43
1.8
 10
-8.114719
 20
17.5
 10
-8.1
 20
17.5
 42
-0.414214
 10
-6.5
 20
15.9
 10
-6.5
 20
13.8
 42
0.414214
 10
-3.8
 20
11.1
 10
-3.6
 20
11.1
 42
-0.414214
 10
-0.9
 20
8.4
 10
-0.9
 20
-43.2
 42
-0.414214
 10
-1.801
 20
-44.1
 42
-0.414214
 10
-2.7
 20
-43.201
 10
-2.7
 20
-25.0
 42
0.414214
 10
-3.6
 20
-24.1
 10
-18.2
 20
-24.1
 42
-0.414214
 10
-19.1
 20
-23.2
 10
-19.1
 20
23.2
 42
-0.414214
 10
-18.2
 20
24.1
 10
-7.9
 20
24.1
 42
-0.414214
 10
-7.0
 20
23.199
 42
-0.414214
 10
-7.899
 20
22.3
 10
-12.6
 20
22.3
 42
0.414214
 10
-15.3
 20
19.6
 10
-15.3
 20
18.2
 42
0.414214
 10
-12.6
 20
15.5
 42
0.198912
 10
-9.842284
 20
16.642284
 10
-9.599643
 20
16.884924
 42
-0.198912
  0
LWPOLYLINE
  5
E0
100
AcDbEntity
  8
SPKONTUR
100
AcDbPolyline
 90
       28
 70
     0
 43
0.0
 10
-8.1
 20
18.4
 10
-8.114719
 20
18.4
 10
-8.1
 20
18.4
 42
-0.414214
 10
-5.6
 20
15.9
 10
-5.6
 20
13.8
 42
0.414214
 10
-3.8
 20
12.0
 10
-3.6
 20
12.0
 42
-0.414214
 10
0.0
 20
8.4
 10
0.0
 20
-43.2
 42
-0.414214
 10
-1.8
 20
-45.0
 10
-1.801
 20
-45.0
 42
-0.414214
 10
-3.6
 20
-43.201
 10
-3.6
 20
-25.0
 10
-18.2
 20
-25.0
 42
-0.414214
 10
-20.0
 20
-23.2
 10
-20.0
 20
23.2
 42
-0.414214
 10
-18.2
 20
25.0
 10
-7.9
 20
25.0
 42
-0.414214
 10
-6.1
 20
23.2
 10
-6.1
 20
23.199
 42
-0.414214
 10
-7.899
 20
21.4
 10
-12.6
 20
21.4
 42
0.414214
 10
-14.4
 20
19.6
 10
-14.4
 20
18.2
 42
0.414214
 10
-12.6
 20
16.4
 42
0.198912
 10
-10.47868
 20
17.27868
 10
-10.236039
 20
17.52132
 42
-0.198912
 10
-8.114719
 20
18.4
  0
LWPOLYLINE
  5
E1
100
AcDbEntity
  8
GLAS_MED_FOGNING
100
AcDbPolyline
 90
        4
 70
     0
 43
0.0
 10
-20.0
 20
-23.2
 10
-20.0
 20
-25.0
 10
-70.0
 20
-25.0
 10
-70.0
 20
-23.2
  0
LWPOLYLINE
  5
E2
100
AcDbEntity
  8
GLAS_MED_FOGNING
100
AcDbPolyline
 90
        4
 70
     0
 43
0.0
 10
-20.0
 20
23.2
 10
-20.0
 20
25.0
 10
-70.0
 20
25.0
 10
-70.0
 20
23.2
  0
INSERT
  5
E3
100
AcDbEntity
  8
GLAS_MED_FOGNING
100
AcDbBlockReference
  2
SP40010
 10
0.0
 20
0.0
 30
0.0
  0
ENDBLK
  5
F7
100
AcDbEntity
  8
0
100
AcDbBlockEnd
  0
BLOCK
  5
19B
100
AcDbEntity
  8
0
100
AcDbBlockBegin
  2
SP979014
 70
     0
 10
0.0
 20
0.0
 30
0.0
  3
SP979014
  1

  0
LWPOLYLINE
  5
193
100
AcDbEntity
  8
STALPROFIL
100
AcDbPolyline
 90
       22
 70
     1
 43
1.8
 10
-8.114719
 20
17.5
 10
-8.1
 20
17.5
 42
-0.414214
 10
-6.5
 20
15.9
 10
-6.5
 20
13.8
 42
0.414214
 10
-3.8
 20
11.1
 10
-3.6
 20
11.1
 42
-0.414214
 10
-0.9
 20
8.4
 10
-0.9
 20
-23.2
 42
-0.414214
 10
-1.8
 20
-24.1
 10
-18.2
 20
-24.1
 42
-0.414214
 10
-19.1
 20
-23.2
 10
-19.1
 20
23.2
 42
-0.414214
 10
-18.2
 20
24.1
 10
-7.9
 20
24.1
 42
-0.414214
 10
-7.0
 20
23.199
 42
-0.414214
 10
-7.899
 20
22.3
 10
-12.6
 20
22.3
 42
0.414214
 10
-15.3
 20
19.6
 10
-15.3
 20
18.2
 42
0.414214
 10
-12.6
 20
15.5
 42
0.198912
 10
-9.842284
 20
16.642284
 10
-9.599643
 20
16.884924
 42
-0.198912
  0
LWPOLYLINE
  5
194
100
AcDbEntity
  8
SPKONTUR
100
AcDbPolyline
 90
       25
 70
     0
 43
0.0
 10
-8.1
 20
18.4
 10
-8.114719
 20
18.4
 10
-8.1
 20
18.4
 42
-0.414214
 10
-5.6
 20
15.9
 10
-5.6
 20
13.8
 42
0.414214
 10
-3.8
 20
12.0
 10
-3.6
 20
12.0
 42
-0.414214
 10
0.0
 20
8.4
 10
0.0
 20
-23.2
 42
-0.414214
 10
-1.8
 20
-25.0
 10
-18.2
 20
-25.0
 42
-0.414214
 10
-20.0
 20
-23.2
 10
-20.0
 20
23.2
 42
-0.414214
 10
-18.2
 20
25.0
 10
-7.9
 20
25.0
 42
-0.414214
 10
-6.1
 20
23.2
 10
-6.1
 20
23.199
 42
-0.414214
 10
-7.899
 20
21.4
 10
-12.6
 20
21.4
 42
0.414214
 10
-14.4
 20
19.6
 10
-14.4
 20
18.2
 42
0.414214
 10
-12.6
 20
16.4
 42
0.198912
 10
-10.47868
 20
17.27868
 10
-10.236039
 20
17.52132
 42
-0.198912
 10
-8.114719
 20
18.4
  0
INSERT
  5
195
100
AcDbEntity
  8
GLAS_MED_FOGNING
100
AcDbBlockReference
  2
*X4
 10
0.0
 20
0.0
 30
0.0
1001
ACAD
1000
HATCH
1002
{
1070
    16
1000
DASH
1040
25.0
1040
2.007129
1002
}
  0
LWPOLYLINE
  5
196
100
AcDbEntity
  8
SPKONTUR
100
AcDbPolyline
 90
       11
 70
     1
 43
0.0
 10
-86.4
 20
-25.0
 10
-71.8
 20
-25.0
 42
0.414214
 10
-70.0
 20
-23.2
 10
-70.0
 20
23.2
 42
0.414214
 10
-71.8
 20
25.0
 10
-88.2
 20
25.0
 42
0.414214
 10
-90.0
 20
23.2
 10
-90.0
 20
-43.2
 42
0.414214
 10
-88.2
 20
-45.0
 10
-88.199
 20
-45.0
 42
0.414214
 10
-86.4
 20
-43.201
  0
LWPOLYLINE
  5
197
100
AcDbEntity
  8
STALPROFIL
100
AcDbPolyline
 90
       11
 70
     1
 43
1.8
 10
-86.4
 20
-24.1
 10
-71.8
 20
-24.1
 42
0.414214
 10
-70.9
 20
-23.2
 10
-70.9
 20
23.2
 42
0.414214
 10
-71.8
 20
24.1
 10
-88.2
 20
24.1
 42
0.414214
 10
-89.1
 20
23.2
 10
-89.1
 20
-43.2
 42
0.414214
 10
-88.199
 20
-44.1
 42
0.414214
 10
-87.3
 20
-43.201
 10
-87.3
 20
-25.0
 42
-0.414214
  0
LWPOLYLINE
  5
198
100
AcDbEntity
  8
GLAS_MED_FOGNING
100
AcDbPolyline
 90
        4
 70
     0
 43
0.0
 10
-20.0
 20
-23.2
 10
-20.0
 20
-25.0
 10
-70.0
 20
-25.0
 10
-70.0
 20
-23.2
  0
LWPOLYLINE
  5
199
100
AcDbEntity
  8
GLAS_MED_FOGNING
100
AcDbPolyline
 90
        4
 70
     0
 43
0.0
 10
-20.0
 20
23.2
 10
-20.0
 20
25.0
 10
-70.0
 20
25.0
 10
-70.0
 20
23.2
  0
INSERT
  5
19A
100
AcDbEntity
  8
GLAS_MED_FOGNING
100
AcDbBlockReference
  2
SP40010
 10
0.0
 20
0.0
 30
0.0
  0
ENDBLK
  5
19C
100
AcDbEntity
  8
0
100
AcDbBlockEnd
  0
BLOCK
  5
1A7
100
AcDbEntity
  8
0
100
AcDbBlockBegin
  2
SP979015
 70
     0
 10
0.0
 20
0.0
 30
0.0
  3
SP979015
  1

  0
LWPOLYLINE
  5
19F
100
AcDbEntity
  8
SPKONTUR
100
AcDbPolyline
 90
       28
 70
     0
 43
0.0
 10
-8.1
 20
18.4
 10
-8.114719
 20
18.4
 10
-8.1
 20
18.4
 42
-0.414214
 10
-5.6
 20
15.9
 10
-5.6
 20
13.8
 42
0.414214
 10
-3.8
 20
12.0
 10
-3.6
 20
12.0
 42
-0.414214
 10
0.0
 20
8.4
 10
0.0
 20
-43.2
 42
-0.414214
 10
-1.8
 20
-45.0
 10
-1.801
 20
-45.0
 42
-0.414214
 10
-3.6
 20
-43.201
 10
-3.6
 20
-25.0
 10
-18.2
 20
-25.0
 42
-0.414214
 10
-20.0
 20
-23.2
 10
-20.0
 20
23.2
 42
-0.414214
 10
-18.2
 20
25.0
 10
-7.9
 20
25.0
 42
-0.414214
 10
-6.1
 20
23.2
 10
-6.1
 20
23.199
 42
-0.414214
 10
-7.899
 20
21.4
 10
-12.6
 20
21.4
 42
0.414214
 10
-14.4
 20
19.6
 10
-14.4
 20
18.2
 42
0.414214
 10
-12.6
 20
16.4
 42
0.198912
 10
-10.47868
 20
17.27868
 10
-10.236039
 20
17.52132
 42
-0.198912
 10
-8.114719
 20
18.4
  0
LWPOLYLINE
  5
1A0
100
AcDbEntity
  8
STALPROFIL
100
AcDbPolyline
 90
       25
 70
     1
 43
1.8
 10
-8.114719
 20
17.5
 10
-8.1
 20
17.5
 42
-0.414214
 10
-6.5
 20
15.9
 10
-6.5
 20
13.8
 42
0.414214
 10
-3.8
 20
11.1
 10
-3.6
 20
11.1
 42
-0.414214
 10
-0.9
 20
8.4
 10
-0.9
 20
-43.2
 42
-0.414214
 10
-1.801
 20
-44.1
 42
-0.414214
 10
-2.7
 20
-43.201
 10
-2.7
 20
-25.0
 42
0.414214
 10
-3.6
 20
-24.1
 10
-18.2
 20
-24.1
 42
-0.414214
 10
-19.1
 20
-23.2
 10
-19.1
 20
23.2
 42
-0.414214
 10
-18.2
 20
24.1
 10
-7.9
 20
24.1
 42
-0.414214
 10
-7.0
 20
23.199
 42
-0.414214
 10
-7.899
 20
22.3
 10
-12.6
 20
22.3
 42
0.414214
 10
-15.3
 20
19.6
 10
-15.3
 20
18.2
 42
0.414214
 10
-12.6
 20
15.5
 42
0.198912
 10
-9.842284
 20
16.642284
 10
-9.599643
 20
16.884924
 42
-0.198912
  0
INSERT
  5
1A1
100
AcDbEntity
  8
GLAS_MED_FOGNING
100
AcDbBlockReference
  2
*X4
 10
0.0
 20
0.0
 30
0.0
1001
ACAD
1000
HATCH
1002
{
1070
    16
1000
DASH
1040
25.0
1040
2.007129
1002
}
  0
LWPOLYLINE
  5
1A2
100
AcDbEntity
  8
SPKONTUR
100
AcDbPolyline
 90
        8
 70
     1
 43
0.0
 10
-90.0
 20
23.2
 42
-0.414214
 10
-88.2
 20
25.0
 10
-71.8
 20
25.0
 42
-0.414214
 10
-70.0
 20
23.2
 10
-70.0
 20
-23.2
 42
-0.414214
 10
-71.8
 20
-25.0
 10
-88.2
 20
-25.0
 42
-0.414214
 10
-90.0
 20
-23.2
  0
LWPOLYLINE
  5
1A3
100
AcDbEntity
  8
STALPROFIL
100
AcDbPolyline
 90
        8
 70
     1
 43
1.8
 10
-89.1
 20
23.2
 42
-0.414214
 10
-88.2
 20
24.1
 10
-71.8
 20
24.1
 42
-0.414214
 10
-70.9
 20
23.2
 10
-70.9
 20
-23.2
 42
-0.414214
 10
-71.8
 20
-24.1
 10
-88.2
 20
-24.1
 42
-0.414214
 10
-89.1
 20
-23.2
  0
LWPOLYLINE
  5
1A4
100
AcDbEntity
  8
GLAS_MED_FOGNING
100
AcDbPolyline
 90
        4
 70
     0
 43
0.0
 10
-20.0
 20
-23.2
 10
-20.0
 20
-25.0
 10
-70.0
 20
-25.0
 10
-70.0
 20
-23.2
  0
LWPOLYLINE
  5
1A5
100
AcDbEntity
  8
GLAS_MED_FOGNING
100
AcDbPolyline
 90
        4
 70
     0
 43
0.0
 10
-20.0
 20
23.2
 10
-20.0
 20
25.0
 10
-70.0
 20
25.0
 10
-70.0
 20
23.2
  0
INSERT
  5
1A6
100
AcDbEntity
  8
GLAS_MED_FOGNING
100
AcDbBlockReference
  2
SP40010
 10
0.0
 20
0.0
 30
0.0
  0
ENDBLK
  5
1A8
100
AcDbEntity
  8
0
100
AcDbBlockEnd
  0
BLOCK
  5
10E
100
AcDbEntity
  8
0
100
AcDbBlockBegin
  2
SP979020
 70
     0
 10
0.0
 20
0.0
 30
0.0
  3
SP979020
  1

  0
INSERT
  5
107
100
AcDbEntity
  8
GLAS_MED_FOGNING
100
AcDbBlockReference
  2
*X4
 10
0.0
 20
0.0
 30
0.0
1001
ACAD
1000
HATCH
1002
{
1070
    16
1000
DASH
1040
25.0
1040
2.007129
1002
}
  0
LWPOLYLINE
  5
108
100
AcDbEntity
  8
SPKONTUR
100
AcDbPolyline
 90
        8
 70
     1
 43
0.0
 10
-20.0
 20
23.2
 42
-0.414214
 10
-18.2
 20
25.0
 10
-1.8
 20
25.0
 42
-0.414214
 10
0.0
 20
23.2
 10
0.0
 20
-23.2
 42
-0.414214
 10
-1.8
 20
-25.0
 10
-18.2
 20
-25.0
 42
-0.414214
 10
-20.0
 20
-23.2
  0
LWPOLYLINE
  5
109
100
AcDbEntity
  8
STALPROFIL
100
AcDbPolyline
 90
        8
 70
     1
 43
1.8
 10
-19.1
 20
23.2
 42
-0.414214
 10
-18.2
 20
24.1
 10
-1.8
 20
24.1
 42
-0.414214
 10
-0.9
 20
23.2
 10
-0.9
 20
-23.2
 42
-0.414214
 10
-1.8
 20
-24.1
 10
-18.2
 20
-24.1
 42
-0.414214
 10
-19.1
 20
-23.2
  0
LWPOLYLINE
  5
10A
100
AcDbEntity
  8
STALPROFIL
100
AcDbPolyline
 90
        8
 70
     1
 43
1.8
 10
-89.1
 20
23.2
 42
-0.414214
 10
-88.2
 20
24.1
 10
-71.8
 20
24.1
 42
-0.414214
 10
-70.9
 20
23.2
 10
-70.9
 20
-23.2
 42
-0.414214
 10
-71.8
 20
-24.1
 10
-88.2
 20
-24.1
 42
-0.414214
 10
-89.1
 20
-23.2
  0
LWPOLYLINE
  5
10B
100
AcDbEntity
  8
SPKONTUR
100
AcDbPolyline
 90
        8
 70
     1
 43
0.0
 10
-90.0
 20
23.2
 42
-0.414214
 10
-88.2
 20
25.0
 10
-71.8
 20
25.0
 42
-0.414214
 10
-70.0
 20
23.2
 10
-70.0
 20
-23.2
 42
-0.414214
 10
-71.8
 20
-25.0
 10
-88.2
 20
-25.0
 42
-0.414214
 10
-90.0
 20
-23.2
  0
LWPOLYLINE
  5
10C
100
AcDbEntity
  8
GLAS_MED_FOGNING
100
AcDbPolyline
 90
        4
 70
     0
 43
0.0
 10
-20.0
 20
-23.2
 10
-20.0
 20
-25.0
 10
-70.0
 20
-25.0
 10
-70.0
 20
-23.2
  0
LWPOLYLINE
  5
10D
100
AcDbEntity
  8
GLAS_MED_FOGNING
100
AcDbPolyline
 90
        4
 70
     0
 43
0.0
 10
-20.0
 20
23.2
 10
-20.0
 20
25.0
 10
-70.0
 20
25.0
 10
-70.0
 20
23.2
  0
ENDBLK
  5
10F
100
AcDbEntity
  8
0
100
AcDbBlockEnd
  0
BLOCK
  5
158
100
AcDbEntity
  8
0
100
AcDbBlockBegin
  2
SP979020-20
 70
     0
 10
0.0
 20
0.0
 30
0.0
  3
SP979020-20
  1

  0
LWPOLYLINE
  5
112
100
AcDbEntity
  8
STALPROFIL
100
AcDbPolyline
 90
        8
 70
     1
 43
1.8
 10
-19.1
 20
8.2
 42
-0.414214
 10
-18.2
 20
9.1
 10
-1.8
 20
9.1
 42
-0.414214
 10
-0.9
 20
8.2
 10
-0.9
 20
-8.2
 42
-0.414214
 10
-1.8
 20
-9.1
 10
-18.2
 20
-9.1
 42
-0.414214
 10
-19.1
 20
-8.2
  0
LWPOLYLINE
  5
113
100
AcDbEntity
  8
SPKONTUR
100
AcDbPolyline
 90
        8
 70
     1
 43
0.0
 10
-20.0
 20
8.2
 42
-0.414214
 10
-18.2
 20
10.0
 10
-1.8
 20
10.0
 42
-0.414214
 10
0.0
 20
8.2
 10
0.0
 20
-8.2
 42
-0.414214
 10
-1.8
 20
-10.0
 10
-18.2
 20
-10.0
 42
-0.414214
 10
-20.0
 20
-8.2
  0
INSERT
  5
114
100
AcDbEntity
  8
GLAS_MED_FOGNING
100
AcDbBlockReference
  2
*X3
 10
0.0
 20
0.0
 30
0.0
1001
ACAD
1000
HATCH
1002
{
1070
    16
1000
DASH
1040
25.0
1040
2.007129
1002
}
  0
LWPOLYLINE
  5
154
100
AcDbEntity
  8
SPKONTUR
100
AcDbPolyline
 90
        8
 70
     1
 43
0.0
 10
-90.0
 20
8.2
 42
-0.414214
 10
-88.2
 20
10.0
 10
-71.8
 20
10.0
 42
-0.414214
 10
-70.0
 20
8.2
 10
-70.0
 20
-8.2
 42
-0.414214
 10
-71.8
 20
-10.0
 10
-88.2
 20
-10.0
 42
-0.414214
 10
-90.0
 20
-8.2
  0
LWPOLYLINE
  5
155
100
AcDbEntity
  8
STALPROFIL
100
AcDbPolyline
 90
        8
 70
     1
 43
1.8
 10
-89.1
 20
8.2
 42
-0.414214
 10
-88.2
 20
9.1
 10
-71.8
 20
9.1
 42
-0.414214
 10
-70.9
 20
8.2
 10
-70.9
 20
-8.2
 42
-0.414214
 10
-71.8
 20
-9.1
 10
-88.2
 20
-9.1
 42
-0.414214
 10
-89.1
 20
-8.2
  0
LWPOLYLINE
  5
156
100
AcDbEntity
  8
GLAS_MED_FOGNING
100
AcDbPolyline
 90
        4
 70
     0
 43
0.0
 10
-20.0
 20
-8.2
 10
-20.0
 20
-10.0
 10
-70.0
 20
-10.0
 10
-70.0
 20
-8.2
  0
LWPOLYLINE
  5
157
100
AcDbEntity
  8
GLAS_MED_FOGNING
100
AcDbPolyline
 90
        4
 70
     0
 43
0.0
 10
-20.0
 20
8.2
 10
-20.0
 20
10.0
 10
-70.0
 20
10.0
 10
-70.0
 20
8.2
  0
ENDBLK
  5
159
100
AcDbEntity
  8
0
100
AcDbBlockEnd
  0
BLOCK
  5
103
100
AcDbEntity
  8
0
100
AcDbBlockBegin
  2
SP979021
 70
     0
 10
0.0
 20
0.0
 30
0.0
  3
SP979021
  1

  0
LWPOLYLINE
  5
FC
100
AcDbEntity
  8
SPKONTUR
100
AcDbPolyline
 90
        8
 70
     1
 43
0.0
 10
-20.0
 20
23.2
 42
-0.414214
 10
-18.2
 20
25.0
 10
-1.8
 20
25.0
 42
-0.414214
 10
0.0
 20
23.2
 10
0.0
 20
-23.2
 42
-0.414214
 10
-1.8
 20
-25.0
 10
-18.2
 20
-25.0
 42
-0.414214
 10
-20.0
 20
-23.2
  0
LWPOLYLINE
  5
FD
100
AcDbEntity
  8
STALPROFIL
100
AcDbPolyline
 90
        8
 70
     1
 43
1.8
 10
-19.1
 20
23.2
 42
-0.414214
 10
-18.2
 20
24.1
 10
-1.8
 20
24.1
 42
-0.414214
 10
-0.9
 20
23.2
 10
-0.9
 20
-23.2
 42
-0.414214
 10
-1.8
 20
-24.1
 10
-18.2
 20
-24.1
 42
-0.414214
 10
-19.1
 20
-23.2
  0
INSERT
  5
FE
100
AcDbEntity
  8
GLAS_MED_FOGNING
100
AcDbBlockReference
  2
*X4
 10
0.0
 20
0.0
 30
0.0
1001
ACAD
1000
HATCH
1002
{
1070
    16
1000
DASH
1040
25.0
1040
2.007129
1002
}
  0
LWPOLYLINE
  5
FF
100
AcDbEntity
  8
SPKONTUR
100
AcDbPolyline
 90
       11
 70
     1
 43
0.0
 10
-86.4
 20
25.0
 10
-71.8
 20
25.0
 42
-0.414214
 10
-70.0
 20
23.2
 10
-70.0
 20
-23.2
 42
-0.414214
 10
-71.8
 20
-25.0
 10
-88.2
 20
-25.0
 42
-0.414214
 10
-90.0
 20
-23.2
 10
-90.0
 20
43.2
 42
-0.414214
 10
-88.2
 20
45.0
 10
-88.199
 20
45.0
 42
-0.414214
 10
-86.4
 20
43.201
  0
LWPOLYLINE
  5
100
100
AcDbEntity
  8
STALPROFIL
100
AcDbPolyline
 90
       11
 70
     1
 43
1.8
 10
-86.4
 20
24.1
 10
-71.8
 20
24.1
 42
-0.414214
 10
-70.9
 20
23.2
 10
-70.9
 20
-23.2
 42
-0.414214
 10
-71.8
 20
-24.1
 10
-88.2
 20
-24.1
 42
-0.414214
 10
-89.1
 20
-23.2
 10
-89.1
 20
43.2
 42
-0.414214
 10
-88.199
 20
44.1
 42
-0.414214
 10
-87.3
 20
43.201
 10
-87.3
 20
25.0
 42
0.414214
  0
LWPOLYLINE
  5
101
100
AcDbEntity
  8
GLAS_MED_FOGNING
100
AcDbPolyline
 90
        4
 70
     0
 43
0.0
 10
-20.0
 20
-23.2
 10
-20.0
 20
-25.0
 10
-70.0
 20
-25.0
 10
-70.0
 20
-23.2
  0
LWPOLYLINE
  5
102
100
AcDbEntity
  8
GLAS_MED_FOGNING
100
AcDbPolyline
 90
        4
 70
     0
 43
0.0
 10
-20.0
 20
23.2
 10
-20.0
 20
25.0
 10
-70.0
 20
25.0
 10
-70.0
 20
23.2
  0
ENDBLK
  5
104
100
AcDbEntity
  8
0
100
AcDbBlockEnd
  0
BLOCK
  5
180
100
AcDbEntity
  8
0
100
AcDbBlockBegin
  2
SP979022
 70
     0
 10
0.0
 20
0.0
 30
0.0
  3
SP979022
  1

  0
INSERT
  5
179
100
AcDbEntity
  8
GLAS_MED_FOGNING
100
AcDbBlockReference
  2
*X4
 10
0.0
 20
0.0
 30
0.0
1001
ACAD
1000
HATCH
1002
{
1070
    16
1000
DASH
1040
25.0
1040
2.007129
1002
}
  0
LWPOLYLINE
  5
17A
100
AcDbEntity
  8
STALPROFIL
100
AcDbPolyline
 90
        8
 70
     1
 43
1.8
 10
-19.1
 20
23.2
 42
-0.414214
 10
-18.2
 20
24.1
 10
-1.8
 20
24.1
 42
-0.414214
 10
-0.9
 20
23.2
 10
-0.9
 20
-23.2
 42
-0.414214
 10
-1.8
 20
-24.1
 10
-18.2
 20
-24.1
 42
-0.414214
 10
-19.1
 20
-23.2
  0
LWPOLYLINE
  5
17B
100
AcDbEntity
  8
SPKONTUR
100
AcDbPolyline
 90
        8
 70
     1
 43
0.0
 10
-20.0
 20
23.2
 42
-0.414214
 10
-18.2
 20
25.0
 10
-1.8
 20
25.0
 42
-0.414214
 10
0.0
 20
23.2
 10
0.0
 20
-23.2
 42
-0.414214
 10
-1.8
 20
-25.0
 10
-18.2
 20
-25.0
 42
-0.414214
 10
-20.0
 20
-23.2
  0
LWPOLYLINE
  5
17C
100
AcDbEntity
  8
SPKONTUR
100
AcDbPolyline
 90
       16
 70
     1
 43
0.0
 10
-90.0
 20
0.0
 10
-90.0
 20
-43.2
 42
0.414214
 10
-88.2
 20
-45.0
 10
-88.199
 20
-45.0
 42
0.414214
 10
-86.4
 20
-43.201
 10
-86.4
 20
-25.0
 10
-71.8
 20
-25.0
 42
0.414214
 10
-70.0
 20
-23.2
 10
-70.0
 20
0.0
 10
-70.0
 20
23.2
 42
0.414214
 10
-71.8
 20
25.0
 10
-86.4
 20
25.0
 10
-86.4
 20
43.201
 42
0.414214
 10
-88.199
 20
45.0
 10
-88.2
 20
45.0
 42
0.414214
 10
-90.0
 20
43.2
  0
LWPOLYLINE
  5
17D
100
AcDbEntity
  8
STALPROFIL
100
AcDbPolyline
 90
       16
 70
     1
 43
1.8
 10
-89.1
 20
0.0
 10
-89.1
 20
-43.2
 42
0.414214
 10
-88.199
 20
-44.1
 42
0.414214
 10
-87.3
 20
-43.201
 10
-87.3
 20
-25.0
 42
-0.414214
 10
-86.4
 20
-24.1
 10
-71.8
 20
-24.1
 42
0.414214
 10
-70.9
 20
-23.2
 10
-70.9
 20
0.0
 10
-70.9
 20
23.2
 42
0.414214
 10
-71.8
 20
24.1
 10
-86.4
 20
24.1
 42
-0.414214
 10
-87.3
 20
25.0
 10
-87.3
 20
43.201
 42
0.414214
 10
-88.2
 20
44.1
 42
0.414214
 10
-89.1
 20
43.2
  0
LWPOLYLINE
  5
17E
100
AcDbEntity
  8
GLAS_MED_FOGNING
100
AcDbPolyline
 90
        4
 70
     0
 43
0.0
 10
-20.0
 20
-23.2
 10
-20.0
 20
-25.0
 10
-70.0
 20
-25.0
 10
-70.0
 20
-23.2
  0
LWPOLYLINE
  5
17F
100
AcDbEntity
  8
GLAS_MED_FOGNING
100
AcDbPolyline
 90
        4
 70
     0
 43
0.0
 10
-20.0
 20
23.2
 10
-20.0
 20
25.0
 10
-70.0
 20
25.0
 10
-70.0
 20
23.2
  0
ENDBLK
  5
181
100
AcDbEntity
  8
0
100
AcDbBlockEnd
  0
BLOCK
  5
175
100
AcDbEntity
  8
0
100
AcDbBlockBegin
  2
SP979023
 70
     0
 10
0.0
 20
0.0
 30
0.0
  3
SP979023
  1

  0
INSERT
  5
16E
100
AcDbEntity
  8
GLAS_MED_FOGNING
100
AcDbBlockReference
  2
*X4
 10
0.0
 20
0.0
 30
0.0
1001
ACAD
1000
HATCH
1002
{
1070
    16
1000
DASH
1040
25.0
1040
2.007129
1002
}
  0
LWPOLYLINE
  5
16F
100
AcDbEntity
  8
STALPROFIL
100
AcDbPolyline
 90
       11
 70
     1
 43
1.8
 10
-3.6
 20
-24.1
 10
-18.2
 20
-24.1
 42
-0.414214
 10
-19.1
 20
-23.2
 10
-19.1
 20
23.2
 42
-0.414214
 10
-18.2
 20
24.1
 10
-1.8
 20
24.1
 42
-0.414214
 10
-0.9
 20
23.2
 10
-0.9
 20
-43.2
 42
-0.414214
 10
-1.801
 20
-44.1
 42
-0.414214
 10
-2.7
 20
-43.201
 10
-2.7
 20
-25.0
 42
0.414214
  0
LWPOLYLINE
  5
170
100
AcDbEntity
  8
SPKONTUR
100
AcDbPolyline
 90
       11
 70
     1
 43
0.0
 10
-3.6
 20
-25.0
 10
-18.2
 20
-25.0
 42
-0.414214
 10
-20.0
 20
-23.2
 10
-20.0
 20
23.2
 42
-0.414214
 10
-18.2
 20
25.0
 10
-1.8
 20
25.0
 42
-0.414214
 10
0.0
 20
23.2
 10
0.0
 20
-43.2
 42
-0.414214
 10
-1.8
 20
-45.0
 10
-1.801
 20
-45.0
 42
-0.414214
 10
-3.6
 20
-43.201
  0
LWPOLYLINE
  5
171
100
AcDbEntity
  8
STALPROFIL
100
AcDbPolyline
 90
       11
 70
     1
 43
1.8
 10
-86.4
 20
24.1
 10
-71.8
 20
24.1
 42
-0.414214
 10
-70.9
 20
23.2
 10
-70.9
 20
-23.2
 42
-0.414214
 10
-71.8
 20
-24.1
 10
-88.2
 20
-24.1
 42
-0.414214
 10
-89.1
 20
-23.2
 10
-89.1
 20
43.2
 42
-0.414214
 10
-88.199
 20
44.1
 42
-0.414214
 10
-87.3
 20
43.201
 10
-87.3
 20
25.0
 42
0.414214
  0
LWPOLYLINE
  5
172
100
AcDbEntity
  8
SPKONTUR
100
AcDbPolyline
 90
       11
 70
     1
 43
0.0
 10
-86.4
 20
25.0
 10
-71.8
 20
25.0
 42
-0.414214
 10
-70.0
 20
23.2
 10
-70.0
 20
-23.2
 42
-0.414214
 10
-71.8
 20
-25.0
 10
-88.2
 20
-25.0
 42
-0.414214
 10
-90.0
 20
-23.2
 10
-90.0
 20
43.2
 42
-0.414214
 10
-88.2
 20
45.0
 10
-88.199
 20
45.0
 42
-0.414214
 10
-86.4
 20
43.201
  0
LWPOLYLINE
  5
173
100
AcDbEntity
  8
GLAS_MED_FOGNING
100
AcDbPolyline
 90
        4
 70
     0
 43
0.0
 10
-20.0
 20
-23.2
 10
-20.0
 20
-25.0
 10
-70.0
 20
-25.0
 10
-70.0
 20
-23.2
  0
LWPOLYLINE
  5
174
100
AcDbEntity
  8
GLAS_MED_FOGNING
100
AcDbPolyline
 90
        4
 70
     0
 43
0.0
 10
-20.0
 20
23.2
 10
-20.0
 20
25.0
 10
-70.0
 20
25.0
 10
-70.0
 20
23.2
  0
ENDBLK
  5
176
100
AcDbEntity
  8
0
100
AcDbBlockEnd
  0
BLOCK
  5
CA
100
AcDbEntity
  8
0
100
AcDbBlockBegin
  2
SP979024
 70
     0
 10
0.0
 20
0.0
 30
0.0
  3
SP979024
  1

  0
INSERT
  5
33
100
AcDbEntity
  8
GLAS_MED_FOGNING
100
AcDbBlockReference
  2
*X4
 10
0.0
 20
0.0
 30
0.0
1001
ACAD
1000
HATCH
1002
{
1070
    16
1000
DASH
1040
25.0
1040
2.007129
1002
}
  0
LWPOLYLINE
  5
C2
100
AcDbEntity
  8
SPKONTUR
100
AcDbPolyline
 90
       11
 70
     1
 43
0.0
 10
-3.6
 20
25.0
 10
-18.2
 20
25.0
 42
0.414214
 10
-20.0
 20
23.2
 10
-20.0
 20
-23.2
 42
0.414214
 10
-18.2
 20
-25.0
 10
-1.8
 20
-25.0
 42
0.414214
 10
0.0
 20
-23.2
 10
0.0
 20
43.2
 42
0.414214
 10
-1.8
 20
45.0
 10
-1.801
 20
45.0
 42
0.414214
 10
-3.6
 20
43.201
  0
LWPOLYLINE
  5
C4
100
AcDbEntity
  8
STALPROFIL
100
AcDbPolyline
 90
       11
 70
     1
 43
1.8
 10
-3.6
 20
24.1
 10
-18.2
 20
24.1
 42
0.414214
 10
-19.1
 20
23.2
 10
-19.1
 20
-23.2
 42
0.414214
 10
-18.2
 20
-24.1
 10
-1.8
 20
-24.1
 42
0.414214
 10
-0.9
 20
-23.2
 10
-0.9
 20
43.2
 42
0.414214
 10
-1.801
 20
44.1
 42
0.414214
 10
-2.7
 20
43.201
 10
-2.7
 20
25.0
 42
-0.414214
  0
LWPOLYLINE
  5
C6
100
AcDbEntity
  8
GLAS_MED_FOGNING
100
AcDbPolyline
 90
        4
 70
     0
 43
0.0
 10
-20.0
 20
23.2
 10
-20.0
 20
25.0
 10
-70.0
 20
25.0
 10
-70.0
 20
23.2
  0
LWPOLYLINE
  5
C7
100
AcDbEntity
  8
SPKONTUR
100
AcDbPolyline
 90
       11
 70
     1
 43
0.0
 10
-86.4
 20
25.0
 10
-71.8
 20
25.0
 42
-0.414214
 10
-70.0
 20
23.2
 10
-70.0
 20
-23.2
 42
-0.414214
 10
-71.8
 20
-25.0
 10
-88.2
 20
-25.0
 42
-0.414214
 10
-90.0
 20
-23.2
 10
-90.0
 20
43.2
 42
-0.414214
 10
-88.2
 20
45.0
 10
-88.199
 20
45.0
 42
-0.414214
 10
-86.4
 20
43.201
  0
LWPOLYLINE
  5
C8
100
AcDbEntity
  8
STALPROFIL
100
AcDbPolyline
 90
       11
 70
     1
 43
1.8
 10
-86.4
 20
24.1
 10
-71.8
 20
24.1
 42
-0.414214
 10
-70.9
 20
23.2
 10
-70.9
 20
-23.2
 42
-0.414214
 10
-71.8
 20
-24.1
 10
-88.2
 20
-24.1
 42
-0.414214
 10
-89.1
 20
-23.2
 10
-89.1
 20
43.2
 42
-0.414214
 10
-88.199
 20
44.1
 42
-0.414214
 10
-87.3
 20
43.201
 10
-87.3
 20
25.0
 42
0.414214
  0
LWPOLYLINE
  5
C9
100
AcDbEntity
  8
GLAS_MED_FOGNING
100
AcDbPolyline
 90
        4
 70
     0
 43
0.0
 10
-20.0
 20
-23.2
 10
-20.0
 20
-25.0
 10
-70.0
 20
-25.0
 10
-70.0
 20
-23.2
  0
ENDBLK
  5
CB
100
AcDbEntity
  8
0
100
AcDbBlockEnd
  0
BLOCK
  5
D5
100
AcDbEntity
  8
0
100
AcDbBlockBegin
  2
SP979025
 70
     0
 10
0.0
 20
0.0
 30
0.0
  3
SP979025
  1

  0
INSERT
  5
CE
100
AcDbEntity
  8
GLAS_MED_FOGNING
100
AcDbBlockReference
  2
*X4
 10
0.0
 20
0.0
 30
0.0
1001
ACAD
1000
HATCH
1002
{
1070
    16
1000
DASH
1040
25.0
1040
2.007129
1002
}
  0
LWPOLYLINE
  5
CF
100
AcDbEntity
  8
GLAS_MED_FOGNING
100
AcDbPolyline
 90
        4
 70
     0
 43
0.0
 10
-20.0
 20
23.2
 10
-20.0
 20
25.0
 10
-70.0
 20
25.0
 10
-70.0
 20
23.2
  0
LWPOLYLINE
  5
D0
100
AcDbEntity
  8
GLAS_MED_FOGNING
100
AcDbPolyline
 90
        4
 70
     0
 43
0.0
 10
-20.0
 20
-23.2
 10
-20.0
 20
-25.0
 10
-70.0
 20
-25.0
 10
-70.0
 20
-23.2
  0
LWPOLYLINE
  5
D1
100
AcDbEntity
  8
STALPROFIL
100
AcDbPolyline
 90
       16
 70
     1
 43
1.8
 10
-89.1
 20
0.0
 10
-89.1
 20
-43.2
 42
0.414214
 10
-88.199
 20
-44.1
 42
0.414214
 10
-87.3
 20
-43.201
 10
-87.3
 20
-25.0
 42
-0.414214
 10
-86.4
 20
-24.1
 10
-71.8
 20
-24.1
 42
0.414214
 10
-70.9
 20
-23.2
 10
-70.9
 20
0.0
 10
-70.9
 20
23.2
 42
0.414214
 10
-71.8
 20
24.1
 10
-86.4
 20
24.1
 42
-0.414214
 10
-87.3
 20
25.0
 10
-87.3
 20
43.201
 42
0.414214
 10
-88.2
 20
44.1
 42
0.414214
 10
-89.1
 20
43.2
  0
LWPOLYLINE
  5
D2
100
AcDbEntity
  8
SPKONTUR
100
AcDbPolyline
 90
       16
 70
     1
 43
0.0
 10
-90.0
 20
0.0
 10
-90.0
 20
-43.2
 42
0.414214
 10
-88.2
 20
-45.0
 10
-88.199
 20
-45.0
 42
0.414214
 10
-86.4
 20
-43.201
 10
-86.4
 20
-25.0
 10
-71.8
 20
-25.0
 42
0.414214
 10
-70.0
 20
-23.2
 10
-70.0
 20
0.0
 10
-70.0
 20
23.2
 42
0.414214
 10
-71.8
 20
25.0
 10
-86.4
 20
25.0
 10
-86.4
 20
43.201
 42
0.414214
 10
-88.199
 20
45.0
 10
-88.2
 20
45.0
 42
0.414214
 10
-90.0
 20
43.2
  0
LWPOLYLINE
  5
D3
100
AcDbEntity
  8
STALPROFIL
100
AcDbPolyline
 90
       11
 70
     1
 43
1.8
 10
-3.6
 20
24.1
 10
-18.2
 20
24.1
 42
0.414214
 10
-19.1
 20
23.2
 10
-19.1
 20
-23.2
 42
0.414214
 10
-18.2
 20
-24.1
 10
-1.8
 20
-24.1
 42
0.414214
 10
-0.9
 20
-23.2
 10
-0.9
 20
43.2
 42
0.414214
 10
-1.801
 20
44.1
 42
0.414214
 10
-2.7
 20
43.201
 10
-2.7
 20
25.0
 42
-0.414214
  0
LWPOLYLINE
  5
D4
100
AcDbEntity
  8
SPKONTUR
100
AcDbPolyline
 90
       11
 70
     1
 43
0.0
 10
-3.6
 20
25.0
 10
-18.2
 20
25.0
 42
0.414214
 10
-20.0
 20
23.2
 10
-20.0
 20
-23.2
 42
0.414214
 10
-18.2
 20
-25.0
 10
-1.8
 20
-25.0
 42
0.414214
 10
0.0
 20
-23.2
 10
0.0
 20
43.2
 42
0.414214
 10
-1.8
 20
45.0
 10
-1.801
 20
45.0
 42
0.414214
 10
-3.6
 20
43.201
  0
ENDBLK
  5
D6
100
AcDbEntity
  8
0
100
AcDbBlockEnd
  0
ENDSEC
  0
SECTION
  2
ENTITIES
  0
INSERT
  5
1E
100
AcDbEntity
  8
0
100
AcDbBlockReference
  2
SIDA
 10
0.0
 20
0.0
 30
0.0
  0
INSERT
  5
31
100
AcDbEntity
  8
0
100
AcDbBlockReference
  2
SP979024
 10
-30.0
 20
235.0
 30
0.0
  0
INSERT
  5
CC
100
AcDbEntity
  8
0
100
AcDbBlockReference
  2
SP979025
 10
-30.0
 20
105.0
 30
0.0
  0
TEXT
  5
D7
100
AcDbEntity
  8
TEXT
100
AcDbText
 10
-108.0
 20
88.252381
 30
0.0
 40
5.0
  1
%%USP 979025
 50
90.0
 41
0.8
  7
ROMANS
 72
     1
 11
-108.0
 21
105.0
 31
0.0
100
AcDbText
  0
INSERT
  5
DA
100
AcDbEntity
  8
0
100
AcDbBlockReference
  2
SP979013
 10
-270.0
 20
105.0
 30
0.0
  0
TEXT
  5
F8
100
AcDbEntity
  8
TEXT
100
AcDbText
 10
-348.0
 20
88.252381
 30
0.0
 40
5.0
  1
%%USP 979013
 50
90.0
 41
0.8
  7
ROMANS
 72
     1
 11
-348.0
 21
105.0
 31
0.0
100
AcDbText
  0
TEXT
  5
F9
100
AcDbEntity
  8
TEXT
100
AcDbText
 10
-228.0
 20
88.266667
 30
0.0
 40
5.0
  1
%%USP 979021
 50
90.0
 41
0.8
  7
ROMANS
 72
     1
 11
-228.0
 21
105.0
 31
0.0
100
AcDbText
  0
INSERT
  5
FA
100
AcDbEntity
  8
0
100
AcDbBlockReference
  2
SP979021
 10
-150.0
 20
105.0
 30
0.0
  0
INSERT
  5
105
100
AcDbEntity
  8
0
100
AcDbBlockReference
  2
SP979020
 10
-150.0
 20
265.0
 30
0.0
  0
INSERT
  5
110
100
AcDbEntity
  8
0
100
AcDbBlockReference
  2
SP979020-20
 10
-150.0
 20
200.0
 30
0.0
  0
TEXT
  5
15A
100
AcDbEntity
  8
TEXT
100
AcDbText
 10
-248.0
 20
177.347619
 30
0.0
 40
5.0
  1
%%USP 979020/20
 50
90.0
 41
0.8
  7
ROMANS
 72
     1
 11
-248.0
 21
200.0
 31
0.0
100
AcDbText
  0
INSERT
  5
15B
100
AcDbEntity
  8
0
100
AcDbBlockReference
  2
SP979012
 10
-270.0
 20
235.0
 30
0.0
  0
TEXT
  5
167
100
AcDbEntity
  8
TEXT
100
AcDbText
 10
-348.0
 20
218.252381
 30
0.0
 40
5.0
  1
%%USP 979012
 50
90.0
 41
0.8
  7
ROMANS
 72
     1
 11
-348.0
 21
235.0
 31
0.0
100
AcDbText
  0
TEXT
  5
168
100
AcDbEntity
  8
TEXT
100
AcDbText
 10
-228.0
 20
248.252381
 30
0.0
 40
5.0
  1
%%USP 979020
 50
90.0
 41
0.8
  7
ROMANS
 72
     1
 11
-228.0
 21
265.0
 31
0.0
100
AcDbText
  0
TEXT
  5
169
100
AcDbEntity
  8
TEXT
100
AcDbText
 10
-108.0
 20
218.157143
 30
0.0
 40
5.0
  1
%%USP 979024
 50
90.0
 41
0.8
  7
ROMANS
 72
     1
 11
-108.0
 21
235.0
 31
0.0
100
AcDbText
  0
TEXT
  5
16A
100
AcDbEntity
  8
TEXT
100
AcDbText
 10
-89.952381
 20
40.0
 30
0.0
 40
5.0
  1
SP 979000  %%UPAGE24
 41
0.8
  7
ROMANS
 72
     2
 11
-25.0
 21
40.0
 31
0.0
100
AcDbText
  0
TEXT
  5
16B
100
AcDbEntity
  8
TEXT
100
AcDbText
 10
-100.809524
 20
25.0
 30
0.0
 40
5.0
  1
File name  %%U9790PAGE24
 41
0.8
  7
ROMANS
 72
     2
 11
-25.0
 21
25.0
 31
0.0
100
AcDbText
  0
INSERT
  5
16C
100
AcDbEntity
  8
0
100
AcDbBlockReference
  2
SP979023
 10
-30.0
 20
365.0
 30
0.0
  0
INSERT
  5
177
100
AcDbEntity
  8
0
100
AcDbBlockReference
  2
SP979022
 10
-30.0
 20
495.0
 30
0.0
  0
TEXT
  5
182
100
AcDbEntity
  8
TEXT
100
AcDbText
 10
-108.0
 20
478.252381
 30
0.0
 40
5.0
  1
%%USP 979022
 50
90.0
 41
0.8
  7
ROMANS
 72
     1
 11
-108.0
 21
495.0
 31
0.0
100
AcDbText
  0
INSERT
  5
183
100
AcDbEntity
  8
0
100
AcDbBlockReference
  2
SP979010
 10
-270.0
 20
495.0
 30
0.0
  0
TEXT
  5
18F
100
AcDbEntity
  8
TEXT
100
AcDbText
 10
-348.0
 20
478.252381
 30
0.0
 40
5.0
  1
%%USP 979010
 50
90.0
 41
0.8
  7
ROMANS
 72
     1
 11
-348.0
 21
495.0
 31
0.0
100
AcDbText
  0
TEXT
  5
190
100
AcDbEntity
  8
TEXT
100
AcDbText
 10
-228.0
 20
478.157143
 30
0.0
 40
5.0
  1
%%USP 979014
 50
90.0
 41
0.8
  7
ROMANS
 72
     1
 11
-228.0
 21
495.0
 31
0.0
100
AcDbText
  0
INSERT
  5
191
100
AcDbEntity
  8
0
100
AcDbBlockReference
  2
SP979014
 10
-150.0
 20
495.0
 30
0.0
  0
INSERT
  5
19D
100
AcDbEntity
  8
0
100
AcDbBlockReference
  2
SP979015
 10
-150.0
 20
365.0
 30
0.0
  0
INSERT
  5
1A9
100
AcDbEntity
  8
0
100
AcDbBlockReference
  2
SP979011
 10
-270.0
 20
365.0
 30
0.0
  0
TEXT
  5
1B5
100
AcDbEntity
  8
TEXT
100
AcDbText
 10
-348.0
 20
348.266667
 30
0.0
 40
5.0
  1
%%USP 979011
 50
90.0
 41
0.8
  7
ROMANS
 72
     1
 11
-348.0
 21
365.0
 31
0.0
100
AcDbText
  0
TEXT
  5
1B6
100
AcDbEntity
  8
TEXT
100
AcDbText
 10
-228.0
 20
348.252381
 30
0.0
 40
5.0
  1
%%USP 979015
 50
90.0
 41
0.8
  7
ROMANS
 72
     1
 11
-228.0
 21
365.0
 31
0.0
100
AcDbText
  0
TEXT
  5
1B7
100
AcDbEntity
  8
TEXT
100
AcDbText
 10
-108.0
 20
348.252381
 30
0.0
 40
5.0
  1
%%USP 979023
 50
90.0
 41
0.8
  7
ROMANS
 72
     1
 11
-108.0
 21
365.0
 31
0.0
100
AcDbText
  0
ENDSEC
  0
SECTION
  2
OBJECTS
  0
DICTIONARY
  5
1A
100
AcDbDictionary
  3
ACAD_GROUP
350
18
  3
ACAD_LAYOUT
350
1C4
  3
ACAD_MLINESTYLE
350
19
  3
ACAD_PLOTSETTINGS
350
1C5
  3
ACAD_PLOTSTYLENAME
350
1C2
  3
ACDBHEADERROUNDTRIPXREC
350
1CE
  0
DICTIONARY
  5
1CC
100
AcDbDictionary
280
     1
  3
ACAD_XREC_ROUNDTRIP
360
1CD
  0
DICTIONARY
  5
1EE
100
AcDbDictionary
280
     1
  3
ACAD_LAYOUTSELFREF
360
1EF
  0
DICTIONARY
  5
1F0
100
AcDbDictionary
280
     1
  3
ACAD_LAYOUTSELFREF
360
1F1
  0
DICTIONARY
  5
18
102
{ACAD_REACTORS
330
1A
102
}
100
AcDbDictionary
  0
DICTIONARY
  5
1C4
102
{ACAD_XDICTIONARY
360
200
102
}
102
{ACAD_REACTORS
330
1A
102
}
100
AcDbDictionary
  3
LAYOUT1
350
1C7
  3
MODEL
350
1C6
  0
DICTIONARY
  5
19
102
{ACAD_REACTORS
330
1A
102
}
100
AcDbDictionary
  3
STANDARD
350
1C
  0
DICTIONARY
  5
1C5
102
{ACAD_REACTORS
330
1A
102
}
100
AcDbDictionary
  0
ACAD_PROXY_OBJECT
  5
1C2
102
{ACAD_REACTORS
330
1A
102
}
100
AcDbProxyObject
 90
      499
 91
      501
 93
       86
310
405010041939BDC9B585B0
350
1C3
340
1C3
 94
        0
  0
DICTIONARY
  5
1CE
102
{ACAD_REACTORS
330
1A
102
}
100
AcDbDictionary
  3
CEPSNTYPE
350
1D8
  3
FINGERPRINTGUID
350
1D9
  3
HYPERLINKBASE
350
1D1
  3
INSUNITS
350
1D7
  3
LAYOUTDICT
350
1D3
  3
LWETCUNION
350
1D6
  3
PLOTSETDICT
350
1D4
  3
PLOTSTYLNAMDICT
350
1D5
  3
PSVPSCALE
350
1DB
  3
PUCSBASE
350
1DE
  3
PUCSORGBACK
350
1E4
  3
PUCSORGBOTTOM
350
1E0
  3
PUCSORGFRONT
350
1E3
  3
PUCSORGLEFT
350
1E1
  3
PUCSORGRIGHT
350
1E2
  3
PUCSORGTOP
350
1DF
  3
PUCSORTHOREF
350
1DC
  3
PUCSORTHOVIEW
350
1DD
  3
STYLESHEET
350
1D2
  3
TSTACKALIGN
350
1CF
  3
TSTACKSIZE
350
1D0
  3
UCSBASE
350
1E7
  3
UCSORGBACK
350
1ED
  3
UCSORGBOTTOM
350
1E9
  3
UCSORGFRONT
350
1EC
  3
UCSORGLEFT
350
1EA
  3
UCSORGRIGHT
350
1EB
  3
UCSORGTOP
350
1E8
  3
UCSORTHOREF
350
1E5
  3
UCSORTHOVIEW
350
1E6
  3
VERSIONGUID
350
1DA
  0
XRECORD
  5
1CD
102
{ACAD_REACTORS
330
1CC
102
}
100
AcDbXrecord
102
EXTNAMES
  1
*ACTIVE
  2
*Active
102
UCS
 74
     0
 71
     1
 10
0.0
 20
0.0
 30
0.0
 10
1.0
 20
0.0
 30
0.0
 10
0.0
 20
1.0
 30
0.0
146
0.0
 79
     0
102
VIEW
281
     0
  0
XRECORD
  5
1EF
102
{ACAD_REACTORS
330
1EE
102
}
100
AcDbXrecord
340
2
  0
XRECORD
  5
1F1
102
{ACAD_REACTORS
330
1F0
102
}
100
AcDbXrecord
340
7
  0
DICTIONARY
  5
200
100
AcDbDictionary
280
     1
  3
ACAD_XREC_ROUNDTRIP
360
201
  0
ACAD_PROXY_OBJECT
  5
1C7
102
{ACAD_REACTORS
330
1C4
102
}
100
AcDbProxyObject
 90
      499
 91
      503
 93
     1284
310
91D4850204C617365724A65742034562F344D5620506F73745363726970742C00AAAAAA416AA591069074C61796F757431405011C70A3BEF7026090000000000000049C03CD17DD1E0D11F50000000000000000000000000000000000000000000101E900000000000241C902A6A6A10232D5E076BC5510408CB5781DAF154
310
410232D5E076BC5510408CB5781DAF15C410232D5E076BC5710408CB5781DAF15C42
330
7
330
0
340
0
340
0
 94
        0
  0
ACAD_PROXY_OBJECT
  5
1C6
102
{ACAD_REACTORS
330
1C4
102
}
100
AcDbProxyObject
 90
      499
 91
      503
 93
      668
310
91D4850204C617365724A65742034562F344D5620506F73745363726970742C01AAAAAAAAA5A69054D6F64656C901A800000000000000000000000000000000000000000000A1000000000000008902A6A6AAAAF
330
2
330
0
340
0
340
0
 94
        0
  0
MLINESTYLE
  5
1C
102
{ACAD_REACTORS
330
19
102
}
100
AcDbMlineStyle
  2
STANDARD
 70
     0
  3

 62
     0
 51
90.0
 52
90.0
 71
     2
 49
0.5
 62
   256
  6
BYLAYER
 49
-0.5
 62
   256
  6
BYLAYER
  0
ACAD_PROXY_OBJECT
  5
1C3
102
{ACAD_REACTORS
330
1C2
102
}
100
AcDbProxyObject
 90
      499
 91
      502
 93
        0
 94
        0
  0
XRECORD
  5
1D8
102
{ACAD_REACTORS
330
1CE
102
}
100
AcDbXrecord
 90
        0
  0
XRECORD
  5
1D9
102
{ACAD_REACTORS
330
1CE
102
}
100
AcDbXrecord
  1
{DCFA0B40-0BE8-11D6-AA0B-00D0B7E2A69D}
  0
XRECORD
  5
1D1
102
{ACAD_REACTORS
330
1CE
102
}
100
AcDbXrecord
  1

  0
XRECORD
  5
1D7
102
{ACAD_REACTORS
330
1CE
102
}
100
AcDbXrecord
 90
        0
  0
XRECORD
  5
1D3
102
{ACAD_REACTORS
330
1CE
102
}
100
AcDbXrecord
340
1C4
  0
XRECORD
  5
1D6
102
{ACAD_REACTORS
330
1CE
102
}
100
AcDbXrecord
 90
    14877
  0
XRECORD
  5
1D4
102
{ACAD_REACTORS
330
1CE
102
}
100
AcDbXrecord
340
1C5
  0
XRECORD
  5
1D5
102
{ACAD_REACTORS
330
1CE
102
}
100
AcDbXrecord
340
1C2
  0
XRECORD
  5
1DB
102
{ACAD_REACTORS
330
1CE
102
}
100
AcDbXrecord
 40
0.0
  0
XRECORD
  5
1DE
102
{ACAD_REACTORS
330
1CE
102
}
100
AcDbXrecord
340
0
  0
XRECORD
  5
1E4
102
{ACAD_REACTORS
330
1CE
102
}
100
AcDbXrecord
 10
0.0
 20
0.0
 30
0.0
  0
XRECORD
  5
1E0
102
{ACAD_REACTORS
330
1CE
102
}
100
AcDbXrecord
 10
0.0
 20
0.0
 30
0.0
  0
XRECORD
  5
1E3
102
{ACAD_REACTORS
330
1CE
102
}
100
AcDbXrecord
 10
0.0
 20
0.0
 30
0.0
  0
XRECORD
  5
1E1
102
{ACAD_REACTORS
330
1CE
102
}
100
AcDbXrecord
 10
0.0
 20
0.0
 30
0.0
  0
XRECORD
  5
1E2
102
{ACAD_REACTORS
330
1CE
102
}
100
AcDbXrecord
 10
0.0
 20
0.0
 30
0.0
  0
XRECORD
  5
1DF
102
{ACAD_REACTORS
330
1CE
102
}
100
AcDbXrecord
 10
0.0
 20
0.0
 30
0.0
  0
XRECORD
  5
1DC
102
{ACAD_REACTORS
330
1CE
102
}
100
AcDbXrecord
340
0
  0
XRECORD
  5
1DD
102
{ACAD_REACTORS
330
1CE
102
}
100
AcDbXrecord
 70
     0
  0
XRECORD
  5
1D2
102
{ACAD_REACTORS
330
1CE
102
}
100
AcDbXrecord
  1

  0
XRECORD
  5
1CF
102
{ACAD_REACTORS
330
1CE
102
}
100
AcDbXrecord
 90
        1
  0
XRECORD
  5
1D0
102
{ACAD_REACTORS
330
1CE
102
}
100
AcDbXrecord
 90
       70
  0
XRECORD
  5
1E7
102
{ACAD_REACTORS
330
1CE
102
}
100
AcDbXrecord
340
0
  0
XRECORD
  5
1ED
102
{ACAD_REACTORS
330
1CE
102
}
100
AcDbXrecord
 10
0.0
 20
0.0
 30
0.0
  0
XRECORD
  5
1E9
102
{ACAD_REACTORS
330
1CE
102
}
100
AcDbXrecord
 10
0.0
 20
0.0
 30
0.0
  0
XRECORD
  5
1EC
102
{ACAD_REACTORS
330
1CE
102
}
100
AcDbXrecord
 10
0.0
 20
0.0
 30
0.0
  0
XRECORD
  5
1EA
102
{ACAD_REACTORS
330
1CE
102
}
100
AcDbXrecord
 10
0.0
 20
0.0
 30
0.0
  0
XRECORD
  5
1EB
102
{ACAD_REACTORS
330
1CE
102
}
100
AcDbXrecord
 10
0.0
 20
0.0
 30
0.0
  0
XRECORD
  5
1E8
102
{ACAD_REACTORS
330
1CE
102
}
100
AcDbXrecord
 10
0.0
 20
0.0
 30
0.0
  0
XRECORD
  5
1E5
102
{ACAD_REACTORS
330
1CE
102
}
100
AcDbXrecord
340
0
  0
XRECORD
  5
1E6
102
{ACAD_REACTORS
330
1CE
102
}
100
AcDbXrecord
 70
     0
  0
XRECORD
  5
1DA
102
{ACAD_REACTORS
330
1CE
102
}
100
AcDbXrecord
  1
{DCFA0B42-0BE8-11D6-AA0B-00D0B7E2A69D}
  0
XRECORD
  5
201
102
{ACAD_REACTORS
330
200
102
}
100
AcDbXrecord
102
EXTNAMES
  1
LAYOUT1
  2
Layout1
  1
MODEL
  2
Model
  0
ENDSEC
  0
EOF
