  0
SECTION
  2
HEADER
  9
$ACADVER
  1
AC1014
  9
$ACADMAINTVER
 70
     0
  9
$DWGCODEPAGE
  3
ANSI_1252
  9
$INSBASE
 10
-5.0
 20
20.0
 30
0.0
  9
$EXTMIN
 10
-380.0
 20
23.333333
 30
-7.878462
  9
$EXTMAX
 10
-20.0
 20
560.0
 30
0.0
  9
$LIMMIN
 10
0.0
 20
0.0
  9
$LIMMAX
 10
840.0
 20
600.0
  9
$ORTHOMODE
 70
     0
  9
$REGENMODE
 70
     1
  9
$FILLMODE
 70
     1
  9
$QTEXTMODE
 70
     0
  9
$MIRRTEXT
 70
     1
  9
$DRAGMODE
 70
     2
  9
$LTSCALE
 40
5.0
  9
$OSMODE
 70
   547
  9
$ATTMODE
 70
     1
  9
$TEXTSIZE
 40
3.15
  9
$TRACEWID
 40
0.05
  9
$TEXTSTYLE
  7
STANDARD
  9
$CLAYER
  8
GLAS_MED_FOGNING
  9
$CELTYPE
  6
BYLAYER
  9
$CECOLOR
 62
   256
  9
$CELTSCALE
 40
1.0
  9
$DELOBJ
 70
     1
  9
$DISPSILH
 70
     0
  9
$DIMSCALE
 40
1.0
  9
$DIMASZ
 40
0.0
  9
$DIMEXO
 40
1.0
  9
$DIMDLI
 40
10.0
  9
$DIMRND
 40
0.0
  9
$DIMDLE
 40
0.0
  9
$DIMEXE
 40
2.0
  9
$DIMTP
 40
0.0
  9
$DIMTM
 40
0.0
  9
$DIMTXT
 40
3.5
  9
$DIMCEN
 40
2.5
  9
$DIMTSZ
 40
1.0
  9
$DIMTOL
 70
     0
  9
$DIMLIM
 70
     0
  9
$DIMTIH
 70
     0
  9
$DIMTOH
 70
     0
  9
$DIMSE1
 70
     0
  9
$DIMSE2
 70
     0
  9
$DIMTAD
 70
     1
  9
$DIMZIN
 70
     8
  9
$DIMBLK
  1

  9
$DIMASO
 70
     1
  9
$DIMSHO
 70
     1
  9
$DIMPOST
  1

  9
$DIMAPOST
  1

  9
$DIMALT
 70
     0
  9
$DIMALTD
 70
     2
  9
$DIMALTF
 40
25.4
  9
$DIMLFAC
 40
1.0
  9
$DIMTOFL
 70
     1
  9
$DIMTVP
 40
0.0
  9
$DIMTIX
 70
     0
  9
$DIMSOXD
 70
     0
  9
$DIMSAH
 70
     0
  9
$DIMBLK1
  1

  9
$DIMBLK2
  1

  9
$DIMSTYLE
  2
STANDARD
  9
$DIMCLRD
 70
     0
  9
$DIMCLRE
 70
     0
  9
$DIMCLRT
 70
     6
  9
$DIMTFAC
 40
1.0
  9
$DIMGAP
 40
0.1
  9
$DIMJUST
 70
     0
  9
$DIMSD1
 70
     0
  9
$DIMSD2
 70
     0
  9
$DIMTOLJ
 70
     1
  9
$DIMTZIN
 70
     0
  9
$DIMALTZ
 70
     0
  9
$DIMALTTZ
 70
     0
  9
$DIMFIT
 70
     3
  9
$DIMUPT
 70
     0
  9
$DIMUNIT
 70
     2
  9
$DIMDEC
 70
     4
  9
$DIMTDEC
 70
     4
  9
$DIMALTU
 70
     2
  9
$DIMALTTD
 70
     2
  9
$DIMTXSTY
  7
STANDARD
  9
$DIMAUNIT
 70
     0
  9
$LUNITS
 70
     2
  9
$LUPREC
 70
     2
  9
$SKETCHINC
 40
0.1
  9
$FILLETRAD
 40
0.5
  9
$AUNITS
 70
     0
  9
$AUPREC
 70
     4
  9
$MENU
  1
acad
  9
$ELEVATION
 40
0.0
  9
$PELEVATION
 40
0.0
  9
$THICKNESS
 40
0.0
  9
$LIMCHECK
 70
     0
  9
$BLIPMODE
 70
     0
  9
$CHAMFERA
 40
10.0
  9
$CHAMFERB
 40
10.0
  9
$CHAMFERC
 40
0.0
  9
$CHAMFERD
 40
0.0
  9
$SKPOLY
 70
     0
  9
$TDCREATE
 40
2450609.792654861
  9
$TDUPDATE
 40
2452293.586735764
  9
$TDINDWG
 40
0.0040254630
  9
$TDUSRTIMER
 40
0.0040254630
  9
$USRTIMER
 70
     1
  9
$ANGBASE
 50
0.0
  9
$ANGDIR
 70
     0
  9
$PDMODE
 70
    35
  9
$PDSIZE
 40
0.0
  9
$PLINEWID
 40
0.0
  9
$COORDS
 70
     1
  9
$SPLFRAME
 70
     0
  9
$SPLINETYPE
 70
     6
  9
$SPLINESEGS
 70
     8
  9
$ATTDIA
 70
     0
  9
$ATTREQ
 70
     1
  9
$HANDLING
 70
     1
  9
$HANDSEED
  5
62A
  9
$SURFTAB1
 70
     6
  9
$SURFTAB2
 70
     6
  9
$SURFTYPE
 70
     6
  9
$SURFU
 70
     6
  9
$SURFV
 70
     6
  9
$UCSNAME
  2

  9
$UCSORG
 10
0.0
 20
0.0
 30
0.0
  9
$UCSXDIR
 10
1.0
 20
0.0
 30
0.0
  9
$UCSYDIR
 10
0.0
 20
1.0
 30
0.0
  9
$PUCSNAME
  2

  9
$PUCSORG
 10
0.0
 20
0.0
 30
0.0
  9
$PUCSXDIR
 10
1.0
 20
0.0
 30
0.0
  9
$PUCSYDIR
 10
0.0
 20
1.0
 30
0.0
  9
$USERI1
 70
     0
  9
$USERI2
 70
     0
  9
$USERI3
 70
     0
  9
$USERI4
 70
     0
  9
$USERI5
 70
     0
  9
$USERR1
 40
0.0
  9
$USERR2
 40
0.0
  9
$USERR3
 40
0.0
  9
$USERR4
 40
0.0
  9
$USERR5
 40
0.0
  9
$WORLDVIEW
 70
     1
  9
$SHADEDGE
 70
     3
  9
$SHADEDIF
 70
    70
  9
$TILEMODE
 70
     1
  9
$MAXACTVP
 70
    16
  9
$PINSBASE
 10
0.0
 20
0.0
 30
0.0
  9
$PLIMCHECK
 70
     0
  9
$PEXTMIN
 10
1.000000E+20
 20
1.000000E+20
 30
1.000000E+20
  9
$PEXTMAX
 10
-1.000000E+20
 20
-1.000000E+20
 30
-1.000000E+20
  9
$PLIMMIN
 10
0.0
 20
0.0
  9
$PLIMMAX
 10
420.0
 20
297.0
  9
$UNITMODE
 70
     0
  9
$VISRETAIN
 70
     0
  9
$PLINEGEN
 70
     0
  9
$PSLTSCALE
 70
     1
  9
$TREEDEPTH
 70
  3020
  9
$PICKSTYLE
 70
     1
  9
$CMLSTYLE
  2
STANDARD
  9
$CMLJUST
 70
     0
  9
$CMLSCALE
 40
1.0
  9
$PROXYGRAPHICS
 70
     1
  9
$MEASUREMENT
 70
     0
  0
ENDSEC
  0
SECTION
  2
CLASSES
  0
CLASS
  1
LWPOLYLINE
  2
AcDbPolyline
  3
"AutoCAD"
 90
        0
280
     0
281
     1
  0
CLASS
  1
ACDBDICTIONARYWDFLT
  2
AcDbDictionaryWithDefault
  3
AutoCAD 2000
 90
        0
280
     0
281
     0
  0
CLASS
  1
ACDBPLACEHOLDER
  2
AcDbPlaceHolder
  3
AutoCAD 2000
 90
        0
280
     0
281
     0
  0
CLASS
  1
LAYOUT
  2
AcDbLayout
  3
AutoCAD 2000
 90
        0
280
     0
281
     0
  0
CLASS
  1
LONG_TRANSACTION
  2
AcDbLongTransaction
  3
AutoCAD 2000
 90
        0
280
     0
281
     0
  0
CLASS
  1
LWPOLYLINE
  2
AcDbPolyline
  3
"AutoCAD"
 90
        0
280
     0
281
     1
  0
CLASS
  1
HATCH
  2
AcDbHatch
  3
"ACAD_SEDONA"
 90
        0
280
     0
281
     1
  0
CLASS
  1
XRECORD
  2
AcDbXrecord
  3
"<Built In>"
 90
        0
280
     0
281
     0
  0
ENDSEC
  0
SECTION
  2
TABLES
  0
TABLE
  2
VPORT
  5
12
100
AcDbSymbolTable
 70
     1
  0
VPORT
  5
5FD
102
{ACAD_XDICTIONARY
360
5FE
102
}
100
AcDbSymbolTableRecord
100
AcDbViewportTableRecord
  2
*ACTIVE
 70
     0
 10
0.0
 20
0.0
 11
1.0
 21
1.0
 12
-114.303394
 22
298.342083
 13
0.0
 23
0.0
 14
5.0
 24
5.0
 15
10.0
 25
10.0
 16
0.0
 26
0.0
 36
1.0
 17
0.0
 27
0.0
 37
0.0
 40
646.380239
 41
1.630435
 42
50.0
 43
0.0
 44
0.0
 50
0.0
 51
0.0
 71
     0
 72
   100
 73
     1
 74
     1
 75
     1
 76
     0
 77
     0
 78
     0
  0
ENDTAB
  0
TABLE
  2
LTYPE
  5
D
100
AcDbSymbolTable
 70
     2
  0
LTYPE
  5
E
100
AcDbSymbolTableRecord
100
AcDbLinetypeTableRecord
  2
BYBLOCK
 70
     0
  3

 72
    65
 73
     0
 40
0.0
  0
LTYPE
  5
F
100
AcDbSymbolTableRecord
100
AcDbLinetypeTableRecord
  2
BYLAYER
 70
     0
  3

 72
    65
 73
     0
 40
0.0
  0
LTYPE
  5
5
100
AcDbSymbolTableRecord
100
AcDbLinetypeTableRecord
  2
CONTINUOUS
 70
     0
  3
Solid line
 72
    65
 73
     0
 40
0.0
  0
LTYPE
  5
23
100
AcDbSymbolTableRecord
100
AcDbLinetypeTableRecord
  2
DASHDOT
 70
     0
  3
__ . __ . __ . __ . __ . __ . __ . __ . __ . __
 72
    65
 73
     4
 40
1.0
 49
0.5
 74
     0
 49
-0.25
 74
     0
 49
0.0
 74
     0
 49
-0.25
 74
     0
  0
ENDTAB
  0
TABLE
  2
LAYER
  5
A
100
AcDbSymbolTable
 70
    10
  0
LAYER
  5
4
100
AcDbSymbolTableRecord
100
AcDbLayerTableRecord
  2
0
 70
     0
 62
     7
  6
CONTINUOUS
  0
LAYER
  5
D8
100
AcDbSymbolTableRecord
100
AcDbLayerTableRecord
  2
STALPROFIL
 70
     0
 62
     1
  6
CONTINUOUS
  0
LAYER
  5
3C
100
AcDbSymbolTableRecord
100
AcDbLayerTableRecord
  2
SPKONTUR
 70
     0
 62
     7
  6
CONTINUOUS
  0
LAYER
  5
1B
100
AcDbSymbolTableRecord
100
AcDbLayerTableRecord
  2
GLAS_MED_FOGNING
 70
     0
 62
     2
  6
CONTINUOUS
  0
LAYER
  5
190
100
AcDbSymbolTableRecord
100
AcDbLayerTableRecord
  2
TEXT
 70
     0
 62
     6
  6
CONTINUOUS
  0
LAYER
  5
21
100
AcDbSymbolTableRecord
100
AcDbLayerTableRecord
  2
RAM
 70
     0
 62
     5
  6
CONTINUOUS
  0
LAYER
  5
DA
100
AcDbSymbolTableRecord
100
AcDbLayerTableRecord
  2
CENTRUM
 70
     0
 62
     3
  6
DASHDOT
  0
LAYER
  5
DD
100
AcDbSymbolTableRecord
100
AcDbLayerTableRecord
  2
ISOLERING
 70
     0
 62
     3
  6
CONTINUOUS
  0
LAYER
  5
3E
100
AcDbSymbolTableRecord
100
AcDbLayerTableRecord
  2
FOGNINGB
 70
     0
 62
     5
  6
CONTINUOUS
  0
LAYER
  5
2EC
100
AcDbSymbolTableRecord
100
AcDbLayerTableRecord
  2
FOGNINGR
 70
     0
 62
     1
  6
CONTINUOUS
  0
ENDTAB
  0
TABLE
  2
STYLE
  5
B
100
AcDbSymbolTable
 70
     3
  0
STYLE
  5
C
100
AcDbSymbolTableRecord
100
AcDbTextStyleTableRecord
  2
STANDARD
 70
     0
 40
0.0
 41
1.0
 50
0.0
 71
     0
 42
5.0
  3
txt
  4

  0
STYLE
  5
191
100
AcDbSymbolTableRecord
100
AcDbTextStyleTableRecord
  2
ROMANS
 70
     0
 40
0.0
 41
0.8
 50
0.0
 71
     0
 42
5.0
  3
romans
  4

  0
STYLE
  5
2BF
100
AcDbSymbolTableRecord
100
AcDbTextStyleTableRecord
  2
ISO
 70
     0
 40
0.0
 41
1.0
 50
0.0
 71
     0
 42
3.15
  3
ISO
  4

  0
ENDTAB
  0
TABLE
  2
VIEW
  5
10
100
AcDbSymbolTable
 70
     0
  0
ENDTAB
  0
TABLE
  2
UCS
  5
11
100
AcDbSymbolTable
 70
     0
  0
ENDTAB
  0
TABLE
  2
APPID
  5
14
100
AcDbSymbolTable
 70
     1
  0
APPID
  5
15
100
AcDbSymbolTableRecord
100
AcDbRegAppTableRecord
  2
ACAD
 70
     0
  0
ENDTAB
  0
TABLE
  2
DIMSTYLE
  5
16
100
AcDbSymbolTable
 70
     1
  0
DIMSTYLE
105
1D
100
AcDbSymbolTableRecord
100
AcDbDimStyleTableRecord
  2
STANDARD
 70
     0
  3

  4

  5

  6

  7

 40
1.0
 41
0.18
 42
0.0625
 43
0.38
 44
0.18
 45
0.0
 46
0.0
 47
0.0
 48
0.0
140
0.18
141
0.09
142
0.0
143
25.4
144
1.0
145
0.0
146
1.0
147
0.09
 71
     0
 72
     0
 73
     1
 74
     1
 75
     0
 76
     0
 77
     0
 78
     0
170
     0
171
     2
172
     0
173
     0
174
     0
175
     0
176
     0
177
     0
178
     0
270
     2
271
     4
272
     4
273
     2
274
     2
340
C
275
     0
280
     0
281
     0
282
     0
283
     1
284
     0
285
     0
286
     0
287
     3
288
     0
  0
ENDTAB
  0
TABLE
  2
BLOCK_RECORD
  5
1
100
AcDbSymbolTable
 70
    45
  0
BLOCK_RECORD
  5
2
102
{ACAD_XDICTIONARY
360
620
102
}
100
AcDbSymbolTableRecord
100
AcDbBlockTableRecord
  2
*MODEL_SPACE
  0
BLOCK_RECORD
  5
7
102
{ACAD_XDICTIONARY
360
622
102
}
100
AcDbSymbolTableRecord
100
AcDbBlockTableRecord
  2
*PAPER_SPACE
  0
BLOCK_RECORD
  5
1F
100
AcDbSymbolTableRecord
100
AcDbBlockTableRecord
  2
SIDA
  0
BLOCK_RECORD
  5
2A2
100
AcDbSymbolTableRecord
100
AcDbBlockTableRecord
  2
SNITTPIL
  0
BLOCK_RECORD
  5
4B1
100
AcDbSymbolTableRecord
100
AcDbBlockTableRecord
  2
*X2
  0
BLOCK_RECORD
  5
4DD
100
AcDbSymbolTableRecord
100
AcDbBlockTableRecord
  2
*X3
  0
BLOCK_RECORD
  5
4C2
100
AcDbSymbolTableRecord
100
AcDbBlockTableRecord
  2
*X4
  0
BLOCK_RECORD
  5
4C0
100
AcDbSymbolTableRecord
100
AcDbBlockTableRecord
  2
50_INF-B10
  0
BLOCK_RECORD
  5
5CC
100
AcDbSymbolTableRecord
100
AcDbBlockTableRecord
  2
*X6
  0
BLOCK_RECORD
  5
5CA
100
AcDbSymbolTableRecord
100
AcDbBlockTableRecord
  2
50_INF-B12
  0
BLOCK_RECORD
  5
493
100
AcDbSymbolTableRecord
100
AcDbBlockTableRecord
  2
50_INF-B14
  0
BLOCK_RECORD
  5
308
100
AcDbSymbolTableRecord
100
AcDbBlockTableRecord
  2
50_INF-B11
  0
BLOCK_RECORD
  5
3DC
100
AcDbSymbolTableRecord
100
AcDbBlockTableRecord
  2
50_INF-B13
  0
BLOCK_RECORD
  5
496
100
AcDbSymbolTableRecord
100
AcDbBlockTableRecord
  2
*X11
  0
BLOCK_RECORD
  5
2BB
100
AcDbSymbolTableRecord
100
AcDbBlockTableRecord
  2
NAMN
  0
BLOCK_RECORD
  5
2A0
100
AcDbSymbolTableRecord
100
AcDbBlockTableRecord
  2
SNITTMARK
  0
BLOCK_RECORD
  5
229
100
AcDbSymbolTableRecord
100
AcDbBlockTableRecord
  2
*X14
  0
BLOCK_RECORD
  5
446
100
AcDbSymbolTableRecord
100
AcDbBlockTableRecord
  2
*X15
  0
BLOCK_RECORD
  5
442
100
AcDbSymbolTableRecord
100
AcDbBlockTableRecord
  2
65_INF-B10
  0
BLOCK_RECORD
  5
205
100
AcDbSymbolTableRecord
100
AcDbBlockTableRecord
  2
*X17
  0
BLOCK_RECORD
  5
202
100
AcDbSymbolTableRecord
100
AcDbBlockTableRecord
  2
90_INF-B10
  0
BLOCK_RECORD
  5
46E
100
AcDbSymbolTableRecord
100
AcDbBlockTableRecord
  2
*X19
  0
BLOCK_RECORD
  5
46C
100
AcDbSymbolTableRecord
100
AcDbBlockTableRecord
  2
65_INF-B12
  0
BLOCK_RECORD
  5
278
100
AcDbSymbolTableRecord
100
AcDbBlockTableRecord
  2
*X21
  0
BLOCK_RECORD
  5
276
100
AcDbSymbolTableRecord
100
AcDbBlockTableRecord
  2
90_INF-B12
  0
BLOCK_RECORD
  5
52E
100
AcDbSymbolTableRecord
100
AcDbBlockTableRecord
  2
65_INF-B13
  0
BLOCK_RECORD
  5
193
100
AcDbSymbolTableRecord
100
AcDbBlockTableRecord
  2
90_INF-B13
  0
BLOCK_RECORD
  5
E3
100
AcDbSymbolTableRecord
100
AcDbBlockTableRecord
  2
65_INF-B15
  0
BLOCK_RECORD
  5
32
100
AcDbSymbolTableRecord
100
AcDbBlockTableRecord
  2
90_INF-B15
  0
BLOCK_RECORD
  5
5A2
100
AcDbSymbolTableRecord
100
AcDbBlockTableRecord
  2
*X27
  0
BLOCK_RECORD
  5
5A0
100
AcDbSymbolTableRecord
100
AcDbBlockTableRecord
  2
SLAPLIST
  0
BLOCK_RECORD
  5
2C5
100
AcDbSymbolTableRecord
100
AcDbBlockTableRecord
  2
*X29
  0
BLOCK_RECORD
  5
532
100
AcDbSymbolTableRecord
100
AcDbBlockTableRecord
  2
*X30
  0
BLOCK_RECORD
  5
14E
100
AcDbSymbolTableRecord
100
AcDbBlockTableRecord
  2
*X31
  0
BLOCK_RECORD
  5
116
100
AcDbSymbolTableRecord
100
AcDbBlockTableRecord
  2
*X32
  0
BLOCK_RECORD
  5
F2
100
AcDbSymbolTableRecord
100
AcDbBlockTableRecord
  2
*X33
  0
BLOCK_RECORD
  5
530
100
AcDbSymbolTableRecord
100
AcDbBlockTableRecord
  2
1
  0
BLOCK_RECORD
  5
E5
100
AcDbSymbolTableRecord
100
AcDbBlockTableRecord
  2
2
  0
BLOCK_RECORD
  5
3E8
100
AcDbSymbolTableRecord
100
AcDbBlockTableRecord
  2
*X36
  0
BLOCK_RECORD
  5
335
100
AcDbSymbolTableRecord
100
AcDbBlockTableRecord
  2
*X37
  0
BLOCK_RECORD
  5
30A
100
AcDbSymbolTableRecord
100
AcDbBlockTableRecord
  2
*X38
  0
BLOCK_RECORD
  5
3C5
100
AcDbSymbolTableRecord
100
AcDbBlockTableRecord
  2
*X39
  0
BLOCK_RECORD
  5
198
100
AcDbSymbolTableRecord
100
AcDbBlockTableRecord
  2
*X40
  0
BLOCK_RECORD
  5
9C
100
AcDbSymbolTableRecord
100
AcDbBlockTableRecord
  2
*X41
  0
BLOCK_RECORD
  5
61
100
AcDbSymbolTableRecord
100
AcDbBlockTableRecord
  2
*X42
  0
BLOCK_RECORD
  5
3F
100
AcDbSymbolTableRecord
100
AcDbBlockTableRecord
  2
*X43
  0
BLOCK_RECORD
  5
2C3
100
AcDbSymbolTableRecord
100
AcDbBlockTableRecord
  2
65_ANSLAG-A3
  0
ENDTAB
  0
ENDSEC
  0
SECTION
  2
BLOCKS
  0
BLOCK
  5
3
100
AcDbEntity
  8
0
100
AcDbBlockBegin
  2
*MODEL_SPACE
 70
     0
 10
0.0
 20
0.0
 30
0.0
  3
*MODEL_SPACE
  1

  0
ENDBLK
  5
6
100
AcDbEntity
  8
0
100
AcDbBlockEnd
  0
BLOCK
  5
8
100
AcDbEntity
 67
     1
  8
0
100
AcDbBlockBegin
  2
*PAPER_SPACE
 70
     0
 10
0.0
 20
0.0
 30
0.0
  3
*PAPER_SPACE
  1

  0
ENDBLK
  5
9
100
AcDbEntity
 67
     1
  8
0
100
AcDbBlockEnd
  0
BLOCK
  5
2F
100
AcDbEntity
  8
0
100
AcDbBlockBegin
  2
SIDA
 70
     0
 10
0.0
 20
0.0
 30
0.0
  3
SIDA
  1

  0
LWPOLYLINE
  5
20
100
AcDbEntity
  8
RAM
 62
     5
100
AcDbPolyline
 90
        4
 70
     1
 43
0.0
 10
-20.0
 20
35.0
 10
-20.0
 20
560.0
 10
-380.0
 20
560.0
 10
-380.0
 20
35.0
  0
LINE
  5
22
100
AcDbEntity
  8
RAM
  6
DASHDOT
 62
     6
100
AcDbLine
 10
-260.0
 20
307.5
 30
0.0
 11
-260.0
 21
287.5
 31
0.0
  0
LINE
  5
24
100
AcDbEntity
  8
RAM
  6
DASHDOT
 62
     6
100
AcDbLine
 10
-270.0
 20
167.5
 30
0.0
 11
-250.0
 21
167.5
 31
0.0
  0
LINE
  5
25
100
AcDbEntity
  8
RAM
  6
DASHDOT
 62
     6
100
AcDbLine
 10
-260.0
 20
177.5
 30
0.0
 11
-260.0
 21
157.5
 31
0.0
  0
LINE
  5
26
100
AcDbEntity
  8
RAM
  6
DASHDOT
 62
     6
100
AcDbLine
 10
-270.0
 20
297.5
 30
0.0
 11
-250.0
 21
297.5
 31
0.0
  0
LINE
  5
27
100
AcDbEntity
  8
RAM
  6
DASHDOT
 62
     6
100
AcDbLine
 10
-270.0
 20
427.5
 30
0.0
 11
-250.0
 21
427.5
 31
0.0
  0
LINE
  5
28
100
AcDbEntity
  8
RAM
  6
DASHDOT
 62
     6
100
AcDbLine
 10
-260.0
 20
437.5
 30
0.0
 11
-260.0
 21
417.5
 31
0.0
  0
LINE
  5
29
100
AcDbEntity
  8
RAM
  6
DASHDOT
 62
     6
100
AcDbLine
 10
-140.0
 20
307.5
 30
0.0
 11
-140.0
 21
287.5
 31
0.0
  0
LINE
  5
2A
100
AcDbEntity
  8
RAM
  6
DASHDOT
 62
     6
100
AcDbLine
 10
-140.0
 20
177.5
 30
0.0
 11
-140.0
 21
157.5
 31
0.0
  0
LINE
  5
2B
100
AcDbEntity
  8
RAM
  6
DASHDOT
 62
     6
100
AcDbLine
 10
-150.0
 20
167.5
 30
0.0
 11
-130.0
 21
167.5
 31
0.0
  0
LINE
  5
2C
100
AcDbEntity
  8
RAM
  6
DASHDOT
 62
     6
100
AcDbLine
 10
-150.0
 20
297.5
 30
0.0
 11
-130.0
 21
297.5
 31
0.0
  0
LINE
  5
2D
100
AcDbEntity
  8
RAM
  6
DASHDOT
 62
     6
100
AcDbLine
 10
-150.0
 20
427.5
 30
0.0
 11
-130.0
 21
427.5
 31
0.0
  0
LINE
  5
2E
100
AcDbEntity
  8
RAM
  6
DASHDOT
 62
     6
100
AcDbLine
 10
-140.0
 20
437.5
 30
0.0
 11
-140.0
 21
417.5
 31
0.0
  0
ENDBLK
  5
30
100
AcDbEntity
  8
0
100
AcDbBlockEnd
  0
BLOCK
  5
2A9
100
AcDbEntity
  8
0
100
AcDbBlockBegin
  2
SNITTPIL
 70
     0
 10
0.0
 20
0.0
 30
0.0
  3
SNITTPIL
  1

  0
LINE
  5
2A3
100
AcDbEntity
  8
TEXT
100
AcDbLine
 10
0.0
 20
0.0
 30
0.0
 11
-7.0
 21
0.0
 31
0.0
  0
SOLID
  5
2A4
100
AcDbEntity
  8
TEXT
100
AcDbTrace
 10
1.0
 20
-4.0
 30
0.0
 11
0.0
 21
-6.0
 31
0.0
 12
0.0
 22
-4.0
 32
0.0
 13
0.0
 23
-4.0
 33
0.0
  0
LINE
  5
2A5
100
AcDbEntity
  8
TEXT
100
AcDbLine
 10
0.0
 20
-6.0
 30
0.0
 11
1.341641
 21
-3.316718
 31
0.0
  0
LINE
  5
2A6
100
AcDbEntity
  8
TEXT
100
AcDbLine
 10
0.0
 20
-6.0
 30
0.0
 11
-1.341641
 21
-3.316718
 31
0.0
  0
LINE
  5
2A7
100
AcDbEntity
  8
TEXT
100
AcDbLine
 10
1.0
 20
-4.0
 30
0.0
 11
-1.0
 21
-4.0
 31
0.0
  0
LINE
  5
2A8
100
AcDbEntity
  8
TEXT
100
AcDbLine
 10
0.0
 20
-6.0
 30
0.0
 11
0.0
 21
0.0
 31
0.0
  0
ENDBLK
  5
2AA
100
AcDbEntity
  8
0
100
AcDbBlockEnd
  0
BLOCK
  5
4B9
100
AcDbEntity
  8
0
100
AcDbBlockBegin
  2
*X2
 70
     1
 10
0.0
 20
0.0
 30
0.0
  3
*X2
  1

  0
LINE
  5
4B2
100
AcDbEntity
  8
0
 62
     0
100
AcDbLine
 10
-44.008438
 20
-43.501
 30
0.0
 11
-41.864845
 21
-35.501
 31
0.0
  0
LINE
  5
4B3
100
AcDbEntity
  8
0
 62
     0
100
AcDbLine
 10
-45.302534
 20
-43.501
 30
0.0
 11
-43.15894
 21
-35.501
 31
0.0
  0
LINE
  5
4B4
100
AcDbEntity
  8
0
 62
     0
100
AcDbLine
 10
-46.596629
 20
-43.501
 30
0.0
 11
-44.453035
 21
-35.501
 31
0.0
  0
LINE
  5
4B5
100
AcDbEntity
  8
0
 62
     0
100
AcDbLine
 10
-47.0
 20
-40.176772
 30
0.0
 11
-45.747131
 21
-35.501
 31
0.0
  0
LINE
  5
4B6
100
AcDbEntity
  8
0
 62
     0
100
AcDbLine
 10
-42.714343
 20
-43.501
 30
0.0
 11
-40.57075
 21
-35.501
 31
0.0
  0
LINE
  5
4B7
100
AcDbEntity
  8
0
 62
     0
100
AcDbLine
 10
-41.420248
 20
-43.501
 30
0.0
 11
-40.0
 21
-38.200562
 31
0.0
  0
LINE
  5
4B8
100
AcDbEntity
  8
0
 62
     0
100
AcDbLine
 10
-40.126153
 20
-43.501
 30
0.0
 11
-40.0
 21
-43.030191
 31
0.0
  0
ENDBLK
  5
4BA
100
AcDbEntity
  8
0
100
AcDbBlockEnd
  0
BLOCK
  5
521
100
AcDbEntity
  8
0
100
AcDbBlockBegin
  2
*X3
 70
     1
 10
0.0
 20
0.0
 30
0.0
  3
*X3
  1

  0
LINE
  5
4DE
100
AcDbEntity
  8
0
 62
     0
100
AcDbLine
 10
-6.6797
 20
-36.728079
 30
0.0
 11
-6.6797
 21
-36.728079
 31
0.0
  0
LINE
  5
4DF
100
AcDbEntity
  8
0
 62
     0
100
AcDbLine
 10
-4.267906
 20
-34.877444
 30
0.0
 11
-4.267906
 21
-34.877444
 31
0.0
  0
LINE
  5
4E0
100
AcDbEntity
  8
0
 62
     0
100
AcDbLine
 10
-1.570505
 20
-32.807655
 30
0.0
 11
-1.570505
 21
-32.807655
 31
0.0
  0
LINE
  5
4E1
100
AcDbEntity
  8
0
 62
     0
100
AcDbLine
 10
1.007894
 20
-30.82918
 30
0.0
 11
1.007894
 21
-30.82918
 31
0.0
  0
LINE
  5
4E2
100
AcDbEntity
  8
0
 62
     0
100
AcDbLine
 10
-6.805687
 20
-32.874431
 30
0.0
 11
-6.805687
 21
-32.874431
 31
0.0
  0
LINE
  5
4E3
100
AcDbEntity
  8
0
 62
     0
100
AcDbLine
 10
-4.393893
 20
-31.023796
 30
0.0
 11
-4.393893
 21
-31.023796
 31
0.0
  0
LINE
  5
4E4
100
AcDbEntity
  8
0
 62
     0
100
AcDbLine
 10
-1.696491
 20
-28.954007
 30
0.0
 11
-1.696491
 21
-28.954007
 31
0.0
  0
LINE
  5
4E5
100
AcDbEntity
  8
0
 62
     0
100
AcDbLine
 10
-6.931674
 20
-29.020783
 30
0.0
 11
-6.931674
 21
-29.020783
 31
0.0
  0
LINE
  5
4E6
100
AcDbEntity
  8
0
 62
     0
100
AcDbLine
 10
-4.519879
 20
-27.170149
 30
0.0
 11
-4.519879
 21
-27.170149
 31
0.0
  0
LINE
  5
4E7
100
AcDbEntity
  8
0
 62
     0
100
AcDbLine
 10
-1.822478
 20
-25.10036
 30
0.0
 11
-1.822478
 21
-25.10036
 31
0.0
  0
LINE
  5
4E8
100
AcDbEntity
  8
0
 62
     0
100
AcDbLine
 10
-4.141919
 20
-38.731091
 30
0.0
 11
-4.141919
 21
-38.731091
 31
0.0
  0
LINE
  5
4E9
100
AcDbEntity
  8
0
 62
     0
100
AcDbLine
 10
-1.444518
 20
-36.661302
 30
0.0
 11
-1.444518
 21
-36.661302
 31
0.0
  0
LINE
  5
4EA
100
AcDbEntity
  8
0
 62
     0
100
AcDbLine
 10
1.13388
 20
-34.682828
 30
0.0
 11
1.13388
 21
-34.682828
 31
0.0
  0
LINE
  5
4EB
100
AcDbEntity
  8
0
 62
     0
100
AcDbLine
 10
1.259867
 20
-38.536475
 30
0.0
 11
1.259867
 21
-38.536475
 31
0.0
  0
LINE
  5
4EC
100
AcDbEntity
  8
0
 62
     0
100
AcDbLine
 10
3.671661
 20
-36.685841
 30
0.0
 11
3.671661
 21
-36.685841
 31
0.0
  0
LINE
  5
4ED
100
AcDbEntity
  8
0
 62
     0
100
AcDbLine
 10
6.495049
 20
-38.469699
 30
0.0
 11
6.495049
 21
-38.469699
 31
0.0
  0
LINE
  5
4EE
100
AcDbEntity
  8
0
 62
     0
100
AcDbLine
 10
-6.127701
 20
-31.876534
 30
0.0
 11
-6.127701
 21
-31.876534
 31
0.0
  0
LINE
  5
4EF
100
AcDbEntity
  8
0
 62
     0
100
AcDbLine
 10
-5.086684
 20
-31.739481
 30
0.0
 11
-5.086684
 21
-31.739481
 31
0.0
  0
LINE
  5
4F0
100
AcDbEntity
  8
0
 62
     0
100
AcDbLine
 10
-3.460714
 20
-31.525418
 30
0.0
 11
-3.460714
 21
-31.525418
 31
0.0
  0
LINE
  5
4F1
100
AcDbEntity
  8
0
 62
     0
100
AcDbLine
 10
-0.744155
 20
-31.167776
 30
0.0
 11
-0.744155
 21
-31.167776
 31
0.0
  0
LINE
  5
4F2
100
AcDbEntity
  8
0
 62
     0
100
AcDbLine
 10
0.296862
 20
-31.030724
 30
0.0
 11
0.296862
 21
-31.030724
 31
0.0
  0
LINE
  5
4F3
100
AcDbEntity
  8
0
 62
     0
100
AcDbLine
 10
-6.930676
 20
-26.803946
 30
0.0
 11
-6.930676
 21
-26.803946
 31
0.0
  0
LINE
  5
4F4
100
AcDbEntity
  8
0
 62
     0
100
AcDbLine
 10
-5.304706
 20
-26.589883
 30
0.0
 11
-5.304706
 21
-26.589883
 31
0.0
  0
LINE
  5
4F5
100
AcDbEntity
  8
0
 62
     0
100
AcDbLine
 10
-2.588147
 20
-26.232241
 30
0.0
 11
-2.588147
 21
-26.232241
 31
0.0
  0
LINE
  5
4F6
100
AcDbEntity
  8
0
 62
     0
100
AcDbLine
 10
-1.54713
 20
-26.095189
 30
0.0
 11
-1.54713
 21
-26.095189
 31
0.0
  0
LINE
  5
4F7
100
AcDbEntity
  8
0
 62
     0
100
AcDbLine
 10
0.078839
 20
-25.881126
 30
0.0
 11
0.078839
 21
-25.881126
 31
0.0
  0
LINE
  5
4F8
100
AcDbEntity
  8
0
 62
     0
100
AcDbLine
 10
-4.283709
 20
-36.812069
 30
0.0
 11
-4.283709
 21
-36.812069
 31
0.0
  0
LINE
  5
4F9
100
AcDbEntity
  8
0
 62
     0
100
AcDbLine
 10
-3.242691
 20
-36.675016
 30
0.0
 11
-3.242691
 21
-36.675016
 31
0.0
  0
LINE
  5
4FA
100
AcDbEntity
  8
0
 62
     0
100
AcDbLine
 10
-1.616722
 20
-36.460953
 30
0.0
 11
-1.616722
 21
-36.460953
 31
0.0
  0
LINE
  5
4FB
100
AcDbEntity
  8
0
 62
     0
100
AcDbLine
 10
1.099837
 20
-36.103311
 30
0.0
 11
1.099837
 21
-36.103311
 31
0.0
  0
LINE
  5
4FC
100
AcDbEntity
  8
0
 62
     0
100
AcDbLine
 10
2.140854
 20
-35.966259
 30
0.0
 11
2.140854
 21
-35.966259
 31
0.0
  0
LINE
  5
4FD
100
AcDbEntity
  8
0
 62
     0
100
AcDbLine
 10
3.766824
 20
-35.752196
 30
0.0
 11
3.766824
 21
-35.752196
 31
0.0
  0
LINE
  5
4FE
100
AcDbEntity
  8
0
 62
     0
100
AcDbLine
 10
10.994361
 20
-39.978974
 30
0.0
 11
10.994361
 21
-39.978974
 31
0.0
  0
LINE
  5
4FF
100
AcDbEntity
  8
0
 62
     0
100
AcDbLine
 10
-6.840284
 20
-25.063659
 30
0.0
 11
-6.840284
 21
-25.063659
 31
0.0
  0
LINE
  5
500
100
AcDbEntity
  8
0
 62
     0
100
AcDbLine
 10
-5.996892
 20
-25.600958
 30
0.0
 11
-5.996892
 21
-25.600958
 31
0.0
  0
LINE
  5
501
100
AcDbEntity
  8
0
 62
     0
100
AcDbLine
 10
-2.960683
 20
-27.535237
 30
0.0
 11
-2.960683
 21
-27.535237
 31
0.0
  0
LINE
  5
502
100
AcDbEntity
  8
0
 62
     0
100
AcDbLine
 10
1.003257
 20
-30.060545
 30
0.0
 11
1.003257
 21
-30.060545
 31
0.0
  0
LINE
  5
503
100
AcDbEntity
  8
0
 62
     0
100
AcDbLine
 10
-0.612
 20
-25.05234
 30
0.0
 11
-0.612
 21
-25.05234
 31
0.0
  0
LINE
  5
504
100
AcDbEntity
  8
0
 62
     0
100
AcDbLine
 10
-5.225027
 20
-30.071863
 30
0.0
 11
-5.225027
 21
-30.071863
 31
0.0
  0
LINE
  5
505
100
AcDbEntity
  8
0
 62
     0
100
AcDbLine
 10
-4.381636
 20
-30.609163
 30
0.0
 11
-4.381636
 21
-30.609163
 31
0.0
  0
LINE
  5
506
100
AcDbEntity
  8
0
 62
     0
100
AcDbLine
 10
-1.345426
 20
-32.543441
 30
0.0
 11
-1.345426
 21
-32.543441
 31
0.0
  0
LINE
  5
507
100
AcDbEntity
  8
0
 62
     0
100
AcDbLine
 10
2.618513
 20
-35.068749
 30
0.0
 11
2.618513
 21
-35.068749
 31
0.0
  0
LINE
  5
508
100
AcDbEntity
  8
0
 62
     0
100
AcDbLine
 10
3.461905
 20
-35.606049
 30
0.0
 11
3.461905
 21
-35.606049
 31
0.0
  0
LINE
  5
509
100
AcDbEntity
  8
0
 62
     0
100
AcDbLine
 10
6.498114
 20
-37.540328
 30
0.0
 11
6.498114
 21
-37.540328
 31
0.0
  0
LINE
  5
50A
100
AcDbEntity
  8
0
 62
     0
100
AcDbLine
 10
-3.60977
 20
-35.080067
 30
0.0
 11
-3.60977
 21
-35.080067
 31
0.0
  0
LINE
  5
50B
100
AcDbEntity
  8
0
 62
     0
100
AcDbLine
 10
-2.766379
 20
-35.617367
 30
0.0
 11
-2.766379
 21
-35.617367
 31
0.0
  0
LINE
  5
50C
100
AcDbEntity
  8
0
 62
     0
100
AcDbLine
 10
0.26983
 20
-37.551646
 30
0.0
 11
0.26983
 21
-37.551646
 31
0.0
  0
LINE
  5
50D
100
AcDbEntity
  8
0
 62
     0
100
AcDbLine
 10
-5.958453
 20
-37.562964
 30
0.0
 11
-5.958453
 21
-37.562964
 31
0.0
  0
LINE
  5
50E
100
AcDbEntity
  8
0
 62
     0
100
AcDbLine
 10
-0.00045
 20
-24.047461
 30
0.0
 11
-0.00045
 21
-24.047461
 31
0.0
  0
LINE
  5
50F
100
AcDbEntity
  8
0
 62
     0
100
AcDbLine
 10
-6.012703
 20
-25.802812
 30
0.0
 11
-6.012703
 21
-25.802812
 31
0.0
  0
LINE
  5
510
100
AcDbEntity
  8
0
 62
     0
100
AcDbLine
 10
-5.644064
 20
-26.140607
 30
0.0
 11
-5.644064
 21
-26.140607
 31
0.0
  0
LINE
  5
511
100
AcDbEntity
  8
0
 62
     0
100
AcDbLine
 10
-3.90409
 20
-27.735
 30
0.0
 11
-3.90409
 21
-27.735
 31
0.0
  0
LINE
  5
512
100
AcDbEntity
  8
0
 62
     0
100
AcDbLine
 10
-1.913441
 20
-29.559094
 30
0.0
 11
-1.913441
 21
-29.559094
 31
0.0
  0
LINE
  5
513
100
AcDbEntity
  8
0
 62
     0
100
AcDbLine
 10
-1.544802
 20
-29.896889
 30
0.0
 11
-1.544802
 21
-29.896889
 31
0.0
  0
LINE
  5
514
100
AcDbEntity
  8
0
 62
     0
100
AcDbLine
 10
0.195172
 20
-31.491282
 30
0.0
 11
0.195172
 21
-31.491282
 31
0.0
  0
LINE
  5
515
100
AcDbEntity
  8
0
 62
     0
100
AcDbLine
 10
2.185821
 20
-33.315375
 30
0.0
 11
2.185821
 21
-33.315375
 31
0.0
  0
LINE
  5
516
100
AcDbEntity
  8
0
 62
     0
100
AcDbLine
 10
2.55446
 20
-33.653171
 30
0.0
 11
2.55446
 21
-33.653171
 31
0.0
  0
LINE
  5
517
100
AcDbEntity
  8
0
 62
     0
100
AcDbLine
 10
4.294434
 20
-35.247563
 30
0.0
 11
4.294434
 21
-35.247563
 31
0.0
  0
LINE
  5
518
100
AcDbEntity
  8
0
 62
     0
100
AcDbLine
 10
6.285083
 20
-37.071657
 30
0.0
 11
6.285083
 21
-37.071657
 31
0.0
  0
LINE
  5
519
100
AcDbEntity
  8
0
 62
     0
100
AcDbLine
 10
6.653722
 20
-37.409452
 30
0.0
 11
6.653722
 21
-37.409452
 31
0.0
  0
LINE
  5
51A
100
AcDbEntity
  8
0
 62
     0
100
AcDbLine
 10
8.393696
 20
-39.003845
 30
0.0
 11
8.393696
 21
-39.003845
 31
0.0
  0
LINE
  5
51B
100
AcDbEntity
  8
0
 62
     0
100
AcDbLine
 10
-5.817081
 20
-33.246633
 30
0.0
 11
-5.817081
 21
-33.246633
 31
0.0
  0
LINE
  5
51C
100
AcDbEntity
  8
0
 62
     0
100
AcDbLine
 10
-3.826432
 20
-35.070727
 30
0.0
 11
-3.826432
 21
-35.070727
 31
0.0
  0
LINE
  5
51D
100
AcDbEntity
  8
0
 62
     0
100
AcDbLine
 10
-3.457793
 20
-35.408522
 30
0.0
 11
-3.457793
 21
-35.408522
 31
0.0
  0
LINE
  5
51E
100
AcDbEntity
  8
0
 62
     0
100
AcDbLine
 10
-1.717819
 20
-37.002915
 30
0.0
 11
-1.717819
 21
-37.002915
 31
0.0
  0
LINE
  5
51F
100
AcDbEntity
  8
0
 62
     0
100
AcDbLine
 10
0.27283
 20
-38.827008
 30
0.0
 11
0.27283
 21
-38.827008
 31
0.0
  0
LINE
  5
520
100
AcDbEntity
  8
0
 62
     0
100
AcDbLine
 10
0.641469
 20
-39.164803
 30
0.0
 11
0.641469
 21
-39.164803
 31
0.0
  0
ENDBLK
  5
522
100
AcDbEntity
  8
0
100
AcDbBlockEnd
  0
BLOCK
  5
4D8
100
AcDbEntity
  8
0
100
AcDbBlockBegin
  2
*X4
 70
     1
 10
0.0
 20
0.0
 30
0.0
  3
*X4
  1

  0
LINE
  5
4C3
100
AcDbEntity
  8
0
 62
     0
100
AcDbLine
 10
-33.786797
 20
-55.0
 30
0.0
 11
-19.186797
 21
-40.4
 31
0.0
  0
LINE
  5
4C4
100
AcDbEntity
  8
0
 62
     0
100
AcDbLine
 10
-39.090097
 20
-55.0
 30
0.0
 11
-24.490097
 21
-40.4
 31
0.0
  0
LINE
  5
4C5
100
AcDbEntity
  8
0
 62
     0
100
AcDbLine
 10
-44.393398
 20
-55.0
 30
0.0
 11
-29.793398
 21
-40.4
 31
0.0
  0
LINE
  5
4C6
100
AcDbEntity
  8
0
 62
     0
100
AcDbLine
 10
-49.696699
 20
-55.0
 30
0.0
 11
-35.096699
 21
-40.4
 31
0.0
  0
LINE
  5
4C7
100
AcDbEntity
  8
0
 62
     0
100
AcDbLine
 10
-55.0
 20
-55.0
 30
0.0
 11
-40.4
 21
-40.4
 31
0.0
  0
LINE
  5
4C8
100
AcDbEntity
  8
0
 62
     0
100
AcDbLine
 10
-60.303301
 20
-55.0
 30
0.0
 11
-45.703301
 21
-40.4
 31
0.0
  0
LINE
  5
4C9
100
AcDbEntity
  8
0
 62
     0
100
AcDbLine
 10
-65.606602
 20
-55.0
 30
0.0
 11
-51.006602
 21
-40.4
 31
0.0
  0
LINE
  5
4CA
100
AcDbEntity
  8
0
 62
     0
100
AcDbLine
 10
-70.909903
 20
-55.0
 30
0.0
 11
-56.309903
 21
-40.4
 31
0.0
  0
LINE
  5
4CB
100
AcDbEntity
  8
0
 62
     0
100
AcDbLine
 10
-74.0
 20
-52.786797
 30
0.0
 11
-61.613203
 21
-40.4
 31
0.0
  0
LINE
  5
4CC
100
AcDbEntity
  8
0
 62
     0
100
AcDbLine
 10
-74.0
 20
-47.483496
 30
0.0
 11
-66.916504
 21
-40.4
 31
0.0
  0
LINE
  5
4CD
100
AcDbEntity
  8
0
 62
     0
100
AcDbLine
 10
-74.0
 20
-42.180195
 30
0.0
 11
-72.219805
 21
-40.4
 31
0.0
  0
LINE
  5
4CE
100
AcDbEntity
  8
0
 62
     0
100
AcDbLine
 10
-28.483496
 20
-55.0
 30
0.0
 11
-13.883496
 21
-40.4
 31
0.0
  0
LINE
  5
4CF
100
AcDbEntity
  8
0
 62
     0
100
AcDbLine
 10
-23.180195
 20
-55.0
 30
0.0
 11
-8.580195
 21
-40.4
 31
0.0
  0
LINE
  5
4D0
100
AcDbEntity
  8
0
 62
     0
100
AcDbLine
 10
-17.876894
 20
-55.0
 30
0.0
 11
-3.276894
 21
-40.4
 31
0.0
  0
LINE
  5
4D1
100
AcDbEntity
  8
0
 62
     0
100
AcDbLine
 10
-12.573593
 20
-55.0
 30
0.0
 11
2.026407
 21
-40.4
 31
0.0
  0
LINE
  5
4D2
100
AcDbEntity
  8
0
 62
     0
100
AcDbLine
 10
-7.270292
 20
-55.0
 30
0.0
 11
7.329708
 21
-40.4
 31
0.0
  0
LINE
  5
4D3
100
AcDbEntity
  8
0
 62
     0
100
AcDbLine
 10
-1.966991
 20
-55.0
 30
0.0
 11
12.633009
 21
-40.4
 31
0.0
  0
LINE
  5
4D4
100
AcDbEntity
  8
0
 62
     0
100
AcDbLine
 10
3.336309
 20
-55.0
 30
0.0
 11
17.936309
 21
-40.4
 31
0.0
  0
LINE
  5
4D5
100
AcDbEntity
  8
0
 62
     0
100
AcDbLine
 10
8.63961
 20
-55.0
 30
0.0
 11
23.23961
 21
-40.4
 31
0.0
  0
LINE
  5
4D6
100
AcDbEntity
  8
0
 62
     0
100
AcDbLine
 10
13.942911
 20
-55.0
 30
0.0
 11
24.0
 21
-44.942911
 31
0.0
  0
LINE
  5
4D7
100
AcDbEntity
  8
0
 62
     0
100
AcDbLine
 10
19.246212
 20
-55.0
 30
0.0
 11
24.0
 21
-50.246212
 31
0.0
  0
ENDBLK
  5
4D9
100
AcDbEntity
  8
0
100
AcDbBlockEnd
  0
BLOCK
  5
529
100
AcDbEntity
  8
0
100
AcDbBlockBegin
  2
50_INF-B10
 70
     0
 10
0.0
 20
0.0
 30
0.0
  3
50_INF-B10
  1

  0
INSERT
  5
4C1
100
AcDbEntity
  8
FOGNINGB
100
AcDbBlockReference
  2
*X4
 10
0.0
 20
0.0
 30
0.0
1001
ACAD
1000
HATCH
1002
{
1070
    16
1000
ANSI31
1040
30.0
1040
0.0
1002
}
  0
LWPOLYLINE
  5
4DA
100
AcDbEntity
  8
FOGNINGB
100
AcDbPolyline
 90
        2
 70
     0
 43
0.8
 10
24.0
 20
-40.4
 10
-74.0
 20
-40.4
  0
ARC
  5
4DB
100
AcDbEntity
  8
GLAS_MED_FOGNING
100
AcDbCircle
 10
-67.609845
 20
-23.135825
 30
0.0
 40
17.62132
100
AcDbArc
 50
286.85681
 51
2.067835
  0
INSERT
  5
4DC
100
AcDbEntity
  8
GLAS_MED_FOGNING
100
AcDbBlockReference
  2
*X3
 10
-50.0
 20
0.0
 30
0.0
 41
-1.0
1001
ACAD
1000
HATCH
1002
{
1070
    16
1000
AR-SAND
1040
2.0
1040
0.0
1002
}
  0
LINE
  5
523
100
AcDbEntity
  8
SPKONTUR
100
AcDbLine
 10
24.0
 20
-40.0
 30
0.0
 11
-74.0
 21
-40.0
 31
0.0
  0
LWPOLYLINE
  5
524
100
AcDbEntity
  8
ISOLERING
100
AcDbPolyline
 90
       30
 70
     0
 43
0.0
 10
-43.0
 20
-39.436492
 42
0.538866
 10
-40.523529
 20
-37.194118
 10
-41.976471
 20
-27.805882
 42
-1.166667
 10
-38.023529
 20
-27.805882
 10
-39.476471
 20
-37.194118
 42
1.166667
 10
-35.523529
 20
-37.194118
 10
-36.976471
 20
-27.805882
 42
-1.166667
 10
-33.023529
 20
-27.805882
 10
-34.476471
 20
-37.194118
 42
1.166667
 10
-30.523529
 20
-37.194118
 10
-31.976471
 20
-27.805882
 42
-1.166667
 10
-28.023529
 20
-27.805882
 10
-29.476471
 20
-37.194118
 42
1.166667
 10
-25.523529
 20
-37.194118
 10
-26.976471
 20
-27.805882
 42
-1.166667
 10
-23.023529
 20
-27.805882
 10
-24.476471
 20
-37.194118
 42
1.166667
 10
-20.523529
 20
-37.194118
 10
-21.976471
 20
-27.805882
 42
-1.166667
 10
-18.023529
 20
-27.805882
 10
-19.476471
 20
-37.194118
 42
1.166667
 10
-15.523529
 20
-37.194118
 10
-16.976471
 20
-27.805882
 42
-1.166667
 10
-13.023529
 20
-27.805882
 10
-14.476471
 20
-37.194118
 42
1.166667
 10
-10.523529
 20
-37.194118
 10
-11.976471
 20
-27.805882
 42
-1.166667
 10
-8.023529
 20
-27.805882
 10
-9.476471
 20
-37.194118
 42
0.538866
 10
-7.0
 20
-39.436492
 42
0.538866
  0
LINE
  5
525
100
AcDbEntity
  8
GLAS_MED_FOGNING
100
AcDbLine
 10
-7.0
 20
-25.0
 30
0.0
 11
-7.0
 21
-40.0
 31
0.0
  0
ARC
  5
526
100
AcDbEntity
  8
GLAS_MED_FOGNING
100
AcDbCircle
 10
17.609845
 20
-23.135825
 30
0.0
 40
17.62132
100
AcDbArc
 50
177.932165
 51
253.14319
  0
LINE
  5
527
100
AcDbEntity
  8
GLAS_MED_FOGNING
100
AcDbLine
 10
-43.0
 20
-25.0
 30
0.0
 11
-43.0
 21
-40.0
 31
0.0
  0
INSERT
  5
528
100
AcDbEntity
  8
GLAS_MED_FOGNING
100
AcDbBlockReference
  2
*X3
 10
0.0
 20
0.0
 30
0.0
1001
ACAD
1000
HATCH
1002
{
1070
    16
1000
AR-SAND
1040
2.0
1040
0.0
1002
}
  0
ENDBLK
  5
52A
100
AcDbEntity
  8
0
100
AcDbBlockEnd
  0
BLOCK
  5
5E1
100
AcDbEntity
  8
0
100
AcDbBlockBegin
  2
*X6
 70
     1
 10
0.0
 20
0.0
 30
0.0
  3
*X6
  1

  0
LINE
  5
5CD
100
AcDbEntity
  8
0
 62
     0
100
AcDbLine
 10
-44.393398
 20
-55.0
 30
0.0
 11
-24.793398
 21
-35.4
 31
0.0
  0
LINE
  5
5CE
100
AcDbEntity
  8
0
 62
     0
100
AcDbLine
 10
-49.696699
 20
-55.0
 30
0.0
 11
-30.096699
 21
-35.4
 31
0.0
  0
LINE
  5
5CF
100
AcDbEntity
  8
0
 62
     0
100
AcDbLine
 10
-55.0
 20
-55.0
 30
0.0
 11
-35.4
 21
-35.4
 31
0.0
  0
LINE
  5
5D0
100
AcDbEntity
  8
0
 62
     0
100
AcDbLine
 10
-60.303301
 20
-55.0
 30
0.0
 11
-40.703301
 21
-35.4
 31
0.0
  0
LINE
  5
5D1
100
AcDbEntity
  8
0
 62
     0
100
AcDbLine
 10
-62.0
 20
-51.393398
 30
0.0
 11
-46.006602
 21
-35.4
 31
0.0
  0
LINE
  5
5D2
100
AcDbEntity
  8
0
 62
     0
100
AcDbLine
 10
-62.0
 20
-46.090097
 30
0.0
 11
-51.309903
 21
-35.4
 31
0.0
  0
LINE
  5
5D3
100
AcDbEntity
  8
0
 62
     0
100
AcDbLine
 10
-62.0
 20
-40.786797
 30
0.0
 11
-56.613203
 21
-35.4
 31
0.0
  0
LINE
  5
5D4
100
AcDbEntity
  8
0
 62
     0
100
AcDbLine
 10
-62.0
 20
-35.483496
 30
0.0
 11
-61.916504
 21
-35.4
 31
0.0
  0
LINE
  5
5D5
100
AcDbEntity
  8
0
 62
     0
100
AcDbLine
 10
-39.090097
 20
-55.0
 30
0.0
 11
-19.490097
 21
-35.4
 31
0.0
  0
LINE
  5
5D6
100
AcDbEntity
  8
0
 62
     0
100
AcDbLine
 10
-33.786797
 20
-55.0
 30
0.0
 11
-23.0
 21
-44.213203
 31
0.0
  0
LINE
  5
5D7
100
AcDbEntity
  8
0
 62
     0
100
AcDbLine
 10
-21.786797
 20
-43.0
 30
0.0
 11
-14.186797
 21
-35.4
 31
0.0
  0
LINE
  5
5D8
100
AcDbEntity
  8
0
 62
     0
100
AcDbLine
 10
-28.483496
 20
-55.0
 30
0.0
 11
-18.483496
 21
-45.0
 31
0.0
  0
LINE
  5
5D9
100
AcDbEntity
  8
0
 62
     0
100
AcDbLine
 10
-16.483496
 20
-43.0
 30
0.0
 11
-8.883496
 21
-35.4
 31
0.0
  0
LINE
  5
5DA
100
AcDbEntity
  8
0
 62
     0
100
AcDbLine
 10
-23.180195
 20
-55.0
 30
0.0
 11
-13.180195
 21
-45.0
 31
0.0
  0
LINE
  5
5DB
100
AcDbEntity
  8
0
 62
     0
100
AcDbLine
 10
-11.180195
 20
-43.0
 30
0.0
 11
-3.580195
 21
-35.4
 31
0.0
  0
LINE
  5
5DC
100
AcDbEntity
  8
0
 62
     0
100
AcDbLine
 10
-17.876894
 20
-55.0
 30
0.0
 11
-7.876894
 21
-45.0
 31
0.0
  0
LINE
  5
5DD
100
AcDbEntity
  8
0
 62
     0
100
AcDbLine
 10
-5.876894
 20
-43.0
 30
0.0
 11
0.0
 21
-37.123106
 31
0.0
  0
LINE
  5
5DE
100
AcDbEntity
  8
0
 62
     0
100
AcDbLine
 10
-12.573593
 20
-55.0
 30
0.0
 11
-5.4
 21
-47.826407
 31
0.0
  0
LINE
  5
5DF
100
AcDbEntity
  8
0
 62
     0
100
AcDbLine
 10
-0.573593
 20
-43.0
 30
0.0
 11
0.0
 21
-42.426407
 31
0.0
  0
LINE
  5
5E0
100
AcDbEntity
  8
0
 62
     0
100
AcDbLine
 10
-7.270292
 20
-55.0
 30
0.0
 11
-5.4
 21
-53.129708
 31
0.0
  0
ENDBLK
  5
5E2
100
AcDbEntity
  8
0
100
AcDbBlockEnd
  0
BLOCK
  5
5EA
100
AcDbEntity
  8
0
100
AcDbBlockBegin
  2
50_INF-B12
 70
     0
 10
0.0
 20
0.0
 30
0.0
  3
50_INF-B12
  1

  0
INSERT
  5
5CB
100
AcDbEntity
  8
FOGNINGB
100
AcDbBlockReference
  2
*X6
 10
0.0
 20
0.0
 30
0.0
1001
ACAD
1000
HATCH
1002
{
1070
    16
1000
ANSI31
1040
30.0
1040
0.0
1002
}
  0
LWPOLYLINE
  5
5E3
100
AcDbEntity
  8
STALPROFIL
100
AcDbPolyline
 90
        2
 70
     0
 43
2.0
 10
1.0
 20
-15.0
 10
1.0
 20
-45.0
  0
LWPOLYLINE
  5
5E4
100
AcDbEntity
  8
SPKONTUR
100
AcDbPolyline
 90
        3
 70
     0
 43
0.0
 10
2.0
 20
-15.0
 10
2.0
 20
-45.0
 10
-23.0
 20
-45.0
  0
LWPOLYLINE
  5
5E5
100
AcDbEntity
  8
STALPROFIL
100
AcDbPolyline
 90
        2
 70
     0
 43
2.0
 10
1.0
 20
-44.0
 10
-23.0
 20
-44.0
  0
LWPOLYLINE
  5
5E6
100
AcDbEntity
  8
FOGNINGB
100
AcDbPolyline
 90
        2
 70
     0
 43
0.8
 10
-5.4
 20
-45.0
 10
-5.4
 20
-55.0
  0
LINE
  5
5E7
100
AcDbEntity
  8
SPKONTUR
100
AcDbLine
 10
-5.0
 20
-45.0
 30
0.0
 11
-5.0
 21
-55.0
 31
0.0
  0
LWPOLYLINE
  5
5E8
100
AcDbEntity
  8
FOGNINGB
100
AcDbPolyline
 90
        2
 70
     0
 43
0.8
 10
0.0
 20
-35.4
 10
-62.0
 20
-35.4
  0
LINE
  5
5E9
100
AcDbEntity
  8
SPKONTUR
100
AcDbLine
 10
0.0
 20
-35.0
 30
0.0
 11
-62.0
 21
-35.0
 31
0.0
  0
ENDBLK
  5
5EB
100
AcDbEntity
  8
0
100
AcDbBlockEnd
  0
BLOCK
  5
4BC
100
AcDbEntity
  8
0
100
AcDbBlockBegin
  2
50_INF-B14
 70
     0
 10
0.0
 20
0.0
 30
0.0
  3
50_INF-B14
  1

  0
LWPOLYLINE
  5
494
100
AcDbEntity
  8
FOGNINGB
100
AcDbPolyline
 90
        2
 70
     0
 43
0.8
 10
12.0
 20
-55.4
 10
-62.0
 20
-55.4
  0
INSERT
  5
495
100
AcDbEntity
  8
FOGNINGB
100
AcDbBlockReference
  2
*X11
 10
0.0
 20
0.0
 30
0.0
1001
ACAD
1000
HATCH
1002
{
1070
    16
1000
ANSI31
1040
30.0
1040
0.0
1002
}
  0
LINE
  5
4AA
100
AcDbEntity
  8
SPKONTUR
100
AcDbLine
 10
12.0
 20
-55.0
 30
0.0
 11
-62.0
 21
-55.0
 31
0.0
  0
LWPOLYLINE
  5
4AB
100
AcDbEntity
  8
STALPROFIL
100
AcDbPolyline
 90
        2
 70
     0
 43
2.0
 10
-1.0
 20
-54.0
 10
-39.0
 20
-54.0
  0
LWPOLYLINE
  5
4AC
100
AcDbEntity
  8
STALPROFIL
100
AcDbPolyline
 90
        2
 70
     0
 43
2.0
 10
-39.0
 20
-36.0
 10
-1.0
 20
-36.0
  0
LWPOLYLINE
  5
4AD
100
AcDbEntity
  8
SPKONTUR
100
AcDbPolyline
 90
        8
 70
     1
 43
0.0
 10
0.0
 20
-35.5
 10
0.0
 20
-54.5
 42
-0.414214
 10
-0.5
 20
-55.0
 10
-39.5
 20
-55.0
 42
-0.414214
 10
-40.0
 20
-54.5
 10
-40.0
 20
-35.5
 42
-0.414214
 10
-39.5
 20
-35.0
 10
-0.5
 20
-35.0
 42
-0.414214
  0
LWPOLYLINE
  5
4AE
100
AcDbEntity
  8
STALPROFIL
100
AcDbPolyline
 90
        2
 70
     0
 43
2.0
 10
-39.0
 20
-55.0
 10
-39.0
 20
-35.0
  0
LWPOLYLINE
  5
4AF
100
AcDbEntity
  8
GLAS_MED_FOGNING
100
AcDbPolyline
 90
        4
 70
     1
 43
0.0
 10
-40.0
 20
-35.501
 10
-40.0
 20
-43.501
 10
-47.0
 20
-43.501
 10
-47.0
 20
-35.501
  0
INSERT
  5
4B0
100
AcDbEntity
  8
GLAS_MED_FOGNING
100
AcDbBlockReference
  2
*X2
 10
0.0
 20
0.0
 30
0.0
1001
ACAD
1000
HATCH
1002
{
1070
    16
1000
ANSI31
1040
10.0
1040
0.523599
1002
}
  0
LWPOLYLINE
  5
4BB
100
AcDbEntity
  8
STALPROFIL
100
AcDbPolyline
 90
        2
 70
     0
 43
2.0
 10
-1.0
 20
-35.0
 10
-1.0
 20
-55.0
  0
ENDBLK
  5
4BD
100
AcDbEntity
  8
0
100
AcDbBlockEnd
  0
BLOCK
  5
3D9
100
AcDbEntity
  8
0
100
AcDbBlockBegin
  2
50_INF-B11
 70
     0
 10
0.0
 20
0.0
 30
0.0
  3
50_INF-B11
  1

  0
INSERT
  5
309
100
AcDbEntity
  8
FOGNINGB
100
AcDbBlockReference
  2
*X38
 10
0.0
 20
0.0
 30
0.0
1001
ACAD
1000
HATCH
1002
{
1070
    16
1000
ANSI31
1040
30.0
1040
0.0
1002
}
  0
LWPOLYLINE
  5
32C
100
AcDbEntity
  8
FOGNINGB
100
AcDbPolyline
 90
        2
 70
     0
 43
0.8
 10
24.0
 20
-40.4
 10
-20.0
 20
-40.4
  0
LINE
  5
32D
100
AcDbEntity
  8
SPKONTUR
100
AcDbLine
 10
24.0
 20
-40.0
 30
0.0
 11
-20.0
 21
-40.0
 31
0.0
  0
LWPOLYLINE
  5
32E
100
AcDbEntity
  8
FOGNINGB
100
AcDbPolyline
 90
        2
 70
     0
 43
0.8
 10
-30.0
 20
-40.4
 10
-74.0
 20
-40.4
  0
LINE
  5
32F
100
AcDbEntity
  8
SPKONTUR
100
AcDbLine
 10
-30.0
 20
-40.0
 30
0.0
 11
-74.0
 21
-40.0
 31
0.0
  0
LWPOLYLINE
  5
330
100
AcDbEntity
  8
FOGNINGB
100
AcDbPolyline
 90
        4
 70
     0
 43
0.0
 10
-20.0
 20
-40.0
 10
-20.0
 20
-70.0
 10
-30.0
 20
-70.0
 10
-30.0
 20
-40.0
  0
LWPOLYLINE
  5
331
100
AcDbEntity
  8
ISOLERING
100
AcDbPolyline
 90
        3
 70
     0
 43
0.0
 10
-29.0
 20
-30.884615
 10
-29.976471
 20
-37.194118
 42
0.309539
 10
-29.0
 20
-39.232051
  0
LWPOLYLINE
  5
332
100
AcDbEntity
  8
ISOLERING
100
AcDbPolyline
 90
        3
 70
     0
 43
0.0
 10
-21.0
 20
-30.884615
 10
-20.023529
 20
-37.194118
 42
-0.309539
 10
-21.0
 20
-39.232051
  0
ARC
  5
333
100
AcDbEntity
  8
GLAS_MED_FOGNING
100
AcDbCircle
 10
17.609845
 20
-23.135825
 30
0.0
 40
17.62132
100
AcDbArc
 50
177.932165
 51
253.14319
  0
INSERT
  5
334
100
AcDbEntity
  8
GLAS_MED_FOGNING
100
AcDbBlockReference
  2
*X37
 10
0.0
 20
0.0
 30
0.0
1001
ACAD
1000
HATCH
1002
{
1070
    16
1000
AR-SAND
1040
2.0
1040
0.0
1002
}
  0
LWPOLYLINE
  5
3BD
100
AcDbEntity
  8
ISOLERING
100
AcDbPolyline
 90
       12
 70
     0
 43
0.0
 10
-29.0
 20
-28.727711
 42
0.749374
 10
-32.476471
 20
-30.356469
 10
-31.023529
 20
-37.194118
 42
-1.166667
 10
-34.976471
 20
-37.194118
 10
-33.523529
 20
-27.805882
 42
1.166667
 10
-37.476471
 20
-27.805882
 10
-36.023529
 20
-37.194118
 42
-1.166667
 10
-39.976471
 20
-37.194118
 10
-38.523529
 20
-27.805882
 42
1.166667
 10
-42.476471
 20
-27.805882
 10
-41.023529
 20
-37.194118
 42
-0.459935
 10
-43.0
 20
-39.5
  0
LINE
  5
3BE
100
AcDbEntity
  8
GLAS_MED_FOGNING
100
AcDbLine
 10
-43.0
 20
-25.0
 30
0.0
 11
-43.0
 21
-40.0
 31
0.0
  0
ARC
  5
3BF
100
AcDbEntity
  8
GLAS_MED_FOGNING
100
AcDbCircle
 10
-67.609845
 20
-23.135825
 30
0.0
 40
17.62132
100
AcDbArc
 50
286.85681
 51
2.067835
  0
LINE
  5
3C0
100
AcDbEntity
  8
CENTRUM
100
AcDbLine
 10
-25.0
 20
-20.0
 30
0.0
 11
-25.0
 21
-60.0
 31
0.0
  0
LWPOLYLINE
  5
3C1
100
AcDbEntity
  8
GLAS_MED_FOGNING
100
AcDbPolyline
 90
        4
 70
     0
 43
0.0
 10
-29.0
 20
-25.0
 10
-29.0
 20
-55.0
 10
-21.0
 20
-55.0
 10
-21.0
 20
-25.0
  0
LWPOLYLINE
  5
3C2
100
AcDbEntity
  8
ISOLERING
100
AcDbPolyline
 90
       12
 70
     0
 43
0.0
 10
-21.0
 20
-28.727711
 42
-0.749374
 10
-17.523529
 20
-30.356469
 10
-18.976471
 20
-37.194118
 42
1.166667
 10
-15.023529
 20
-37.194118
 10
-16.476471
 20
-27.805882
 42
-1.166667
 10
-12.523529
 20
-27.805882
 10
-13.976471
 20
-37.194118
 42
1.166667
 10
-10.023529
 20
-37.194118
 10
-11.476471
 20
-27.805882
 42
-1.166667
 10
-7.523529
 20
-27.805882
 10
-8.976471
 20
-37.194118
 42
0.459935
 10
-7.0
 20
-39.5
  0
LINE
  5
3C3
100
AcDbEntity
  8
GLAS_MED_FOGNING
100
AcDbLine
 10
-7.0
 20
-25.0
 30
0.0
 11
-7.0
 21
-40.0
 31
0.0
  0
INSERT
  5
3C4
100
AcDbEntity
  8
GLAS_MED_FOGNING
100
AcDbBlockReference
  2
*X39
 10
1935.0
 20
545.0
 30
0.0
 50
180.0
1001
ACAD
1000
HATCH
1002
{
1070
    16
1000
ANSI31
1040
3.0
1040
0.0
1002
}
  0
ARC
  5
3D7
100
AcDbEntity
  8
GLAS_MED_FOGNING
100
AcDbCircle
 10
-22.46419
 20
-18.318016
 30
0.0
 40
11.38969
100
AcDbArc
 50
215.978571
 51
234.999055
  0
ARC
  5
3D8
100
AcDbEntity
  8
GLAS_MED_FOGNING
100
AcDbCircle
 10
-27.53581
 20
-18.318016
 30
0.0
 40
11.38969
100
AcDbArc
 50
305.000945
 51
324.021429
  0
ENDBLK
  5
3DA
100
AcDbEntity
  8
0
100
AcDbBlockEnd
  0
BLOCK
  5
43F
100
AcDbEntity
  8
0
100
AcDbBlockBegin
  2
50_INF-B13
 70
     0
 10
0.0
 20
0.0
 30
0.0
  3
50_INF-B13
  1

  0
LINE
  5
3DD
100
AcDbEntity
  8
GLAS_MED_FOGNING
100
AcDbLine
 10
-9.0
 20
-64.0
 30
0.0
 11
-9.6
 21
-64.6
 31
0.0
  0
LINE
  5
3DE
100
AcDbEntity
  8
GLAS_MED_FOGNING
100
AcDbLine
 10
-17.0
 20
-64.0
 30
0.0
 11
-16.4
 21
-64.6
 31
0.0
  0
LINE
  5
3DF
100
AcDbEntity
  8
CENTRUM
100
AcDbLine
 10
-13.0
 20
-27.0
 30
0.0
 11
-13.0
 21
-71.0
 31
0.0
  0
LINE
  5
3E0
100
AcDbEntity
  8
GLAS_MED_FOGNING
100
AcDbLine
 10
-9.6
 20
-44.6
 30
0.0
 11
-9.6
 21
-65.0
 31
0.0
  0
LINE
  5
3E1
100
AcDbEntity
  8
GLAS_MED_FOGNING
100
AcDbLine
 10
-16.4
 20
-44.6
 30
0.0
 11
-16.4
 21
-65.0
 31
0.0
  0
LINE
  5
3E2
100
AcDbEntity
  8
GLAS_MED_FOGNING
100
AcDbLine
 10
-61.0
 20
-64.0
 30
0.0
 11
-61.6
 21
-64.6
 31
0.0
  0
LINE
  5
3E3
100
AcDbEntity
  8
GLAS_MED_FOGNING
100
AcDbLine
 10
-69.0
 20
-64.0
 30
0.0
 11
-68.4
 21
-64.6
 31
0.0
  0
LINE
  5
3E4
100
AcDbEntity
  8
CENTRUM
100
AcDbLine
 10
-65.0
 20
-27.0
 30
0.0
 11
-65.0
 21
-71.0
 31
0.0
  0
LINE
  5
3E5
100
AcDbEntity
  8
GLAS_MED_FOGNING
100
AcDbLine
 10
-68.4
 20
-44.6
 30
0.0
 11
-68.4
 21
-65.0
 31
0.0
  0
LINE
  5
3E6
100
AcDbEntity
  8
GLAS_MED_FOGNING
100
AcDbLine
 10
-61.6
 20
-44.6
 30
0.0
 11
-61.6
 21
-65.0
 31
0.0
  0
INSERT
  5
3E7
100
AcDbEntity
  8
FOGNINGB
100
AcDbBlockReference
  2
*X36
 10
0.0
 20
-5.0
 30
0.0
  0
LINE
  5
40A
100
AcDbEntity
  8
GLAS_MED_FOGNING
100
AcDbLine
 10
-61.6
 20
-65.0
 30
0.0
 11
-65.0
 21
-67.042926
 31
0.0
  0
LINE
  5
40B
100
AcDbEntity
  8
GLAS_MED_FOGNING
100
AcDbLine
 10
-68.4
 20
-65.0
 30
0.0
 11
-65.0
 21
-67.042926
 31
0.0
  0
LINE
  5
40C
100
AcDbEntity
  8
GLAS_MED_FOGNING
100
AcDbLine
 10
-9.6
 20
-65.0
 30
0.0
 11
-13.0
 21
-67.042926
 31
0.0
  0
LINE
  5
40D
100
AcDbEntity
  8
GLAS_MED_FOGNING
100
AcDbLine
 10
-16.4
 20
-65.0
 30
0.0
 11
-13.0
 21
-67.042926
 31
0.0
  0
LWPOLYLINE
  5
40E
100
AcDbEntity
  8
ISOLERING
100
AcDbPolyline
 90
       42
 70
     0
 43
0.0
 10
-50.0
 20
-44.5
 42
0.459935
 10
-48.023529
 20
-42.194118
 10
-49.476471
 20
-27.805882
 42
-1.166667
 10
-45.523529
 20
-27.805882
 10
-46.976471
 20
-42.194118
 42
1.166667
 10
-43.023529
 20
-42.194118
 10
-44.476471
 20
-27.805882
 42
-1.166667
 10
-40.523529
 20
-27.805882
 10
-41.976471
 20
-42.194118
 42
1.166667
 10
-38.023529
 20
-42.194118
 10
-39.476471
 20
-27.805882
 42
-1.166667
 10
-35.523529
 20
-27.805882
 10
-36.976471
 20
-42.194118
 42
1.166667
 10
-33.023529
 20
-42.194118
 10
-34.476471
 20
-27.805882
 42
-1.166667
 10
-30.523529
 20
-27.805882
 10
-31.976471
 20
-42.194118
 42
1.166667
 10
-28.023529
 20
-42.194118
 10
-29.476471
 20
-27.805882
 42
-1.166667
 10
-25.523529
 20
-27.805882
 10
-26.976471
 20
-42.194118
 42
1.166667
 10
-23.023529
 20
-42.194118
 10
-24.476471
 20
-27.805882
 42
-1.216051
 10
-20.555065
 20
-27.966078
 10
-20.958701
 20
-29.650441
 42
0.617199
 10
-18.02459
 20
-34.729508
 10
-18.47541
 20
-27.270492
 42
-1.2
 10
-15.52459
 20
-27.270492
 10
-15.97541
 20
-34.729508
 42
1.2
 10
-13.02459
 20
-34.729508
 10
-13.47541
 20
-27.270492
 42
-1.2
 10
-10.52459
 20
-27.270492
 10
-10.97541
 20
-34.729508
 42
1.2
 10
-8.02459
 20
-34.729508
 10
-8.47541
 20
-27.270492
 42
-1.2
 10
-5.52459
 20
-27.270492
 10
-5.97541
 20
-34.729508
 42
1.2
 10
-3.02459
 20
-34.729508
 10
-3.47541
 20
-27.270492
 42
-1.2
 10
-0.52459
 20
-27.270492
 10
-0.97541
 20
-34.729508
 42
0.368511
 10
0.0
 20
-36.414214
  0
LWPOLYLINE
  5
40F
100
AcDbEntity
  8
FOGNINGB
100
AcDbPolyline
 90
        2
 70
     0
 43
0.8
 10
-61.0
 20
-45.4
 10
-17.0
 20
-45.4
  0
LINE
  5
410
100
AcDbEntity
  8
SPKONTUR
100
AcDbLine
 10
-61.0
 20
-45.0
 30
0.0
 11
-17.0
 21
-45.0
 31
0.0
  0
LWPOLYLINE
  5
411
100
AcDbEntity
  8
SPKONTUR
100
AcDbPolyline
 90
        3
 70
     0
 43
0.0
 10
-50.0
 20
-5.0
 10
-50.0
 20
-45.0
 10
-60.5
 20
-45.0
  0
LWPOLYLINE
  5
412
100
AcDbEntity
  8
STALPROFIL
100
AcDbPolyline
 90
        2
 70
     0
 43
2.0
 10
-51.0
 20
-5.0
 10
-51.0
 20
-45.0
  0
LINE
  5
413
100
AcDbEntity
  8
GLAS_MED_FOGNING
100
AcDbLine
 10
-72.505553
 20
-43.0
 30
0.0
 11
-57.494447
 21
-43.0
 31
0.0
  0
LINE
  5
414
100
AcDbEntity
  8
GLAS_MED_FOGNING
100
AcDbLine
 10
-72.505553
 20
-37.0
 30
0.0
 11
-57.494447
 21
-37.0
 31
0.0
  0
LWPOLYLINE
  5
415
100
AcDbEntity
  8
FOGNINGB
100
AcDbPolyline
 90
        2
 70
     0
 43
0.8
 10
-87.0
 20
-45.4
 10
-69.0
 20
-45.4
  0
LINE
  5
416
100
AcDbEntity
  8
SPKONTUR
100
AcDbLine
 10
-87.0
 20
-45.0
 30
0.0
 11
-69.0
 21
-45.0
 31
0.0
  0
LWPOLYLINE
  5
417
100
AcDbEntity
  8
SPKONTUR
100
AcDbPolyline
 90
        2
 70
     0
 43
0.0
 10
-69.5
 20
-45.0
 10
-75.0
 20
-45.0
  0
LWPOLYLINE
  5
418
100
AcDbEntity
  8
STALPROFIL
100
AcDbPolyline
 90
        2
 70
     0
 43
2.0
 10
-69.5
 20
-44.0
 10
-75.0
 20
-44.0
  0
LINE
  5
419
100
AcDbEntity
  8
GLAS_MED_FOGNING
100
AcDbLine
 10
-72.505553
 20
-43.0
 30
0.0
 11
-72.505553
 21
-37.0
 31
0.0
  0
LINE
  5
41A
100
AcDbEntity
  8
GLAS_MED_FOGNING
100
AcDbLine
 10
-69.0
 20
-43.0
 30
0.0
 11
-69.0
 21
-64.0
 31
0.0
  0
LINE
  5
41B
100
AcDbEntity
  8
GLAS_MED_FOGNING
100
AcDbLine
 10
-61.0
 20
-43.0
 30
0.0
 11
-61.0
 21
-64.0
 31
0.0
  0
LINE
  5
41C
100
AcDbEntity
  8
GLAS_MED_FOGNING
100
AcDbLine
 10
-61.0
 20
-62.4
 30
0.0
 11
-61.6
 21
-63.0
 31
0.0
  0
LINE
  5
41D
100
AcDbEntity
  8
GLAS_MED_FOGNING
100
AcDbLine
 10
-69.0
 20
-62.4
 30
0.0
 11
-68.4
 21
-63.0
 31
0.0
  0
LINE
  5
41E
100
AcDbEntity
  8
GLAS_MED_FOGNING
100
AcDbLine
 10
-69.0
 20
-62.4
 30
0.0
 11
-61.0
 21
-62.4
 31
0.0
  0
LINE
  5
41F
100
AcDbEntity
  8
GLAS_MED_FOGNING
100
AcDbLine
 10
-68.4
 20
-63.0
 30
0.0
 11
-61.6
 21
-63.0
 31
0.0
  0
LWPOLYLINE
  5
420
100
AcDbEntity
  8
STALPROFIL
100
AcDbPolyline
 90
        2
 70
     0
 43
2.0
 10
-51.0
 20
-44.0
 10
-60.5
 20
-44.0
  0
LINE
  5
421
100
AcDbEntity
  8
GLAS_MED_FOGNING
100
AcDbLine
 10
-57.494447
 20
-43.0
 30
0.0
 11
-57.494447
 21
-37.0
 31
0.0
  0
LINE
  5
422
100
AcDbEntity
  8
GLAS_MED_FOGNING
100
AcDbLine
 10
-61.247223
 20
-43.0
 30
0.0
 11
-61.247223
 21
-37.0
 31
0.0
  0
LINE
  5
423
100
AcDbEntity
  8
GLAS_MED_FOGNING
100
AcDbLine
 10
-68.752777
 20
-43.0
 30
0.0
 11
-68.752777
 21
-37.0
 31
0.0
  0
LINE
  5
424
100
AcDbEntity
  8
GLAS_MED_FOGNING
100
AcDbLine
 10
-61.0
 20
-44.0
 30
0.0
 11
-61.6
 21
-44.6
 31
0.0
  0
LINE
  5
425
100
AcDbEntity
  8
GLAS_MED_FOGNING
100
AcDbLine
 10
-69.0
 20
-44.0
 30
0.0
 11
-68.4
 21
-44.6
 31
0.0
  0
LINE
  5
426
100
AcDbEntity
  8
FOGNINGB
100
AcDbLine
 10
-61.0
 20
-45.0
 30
0.0
 11
-61.6
 21
-45.6
 31
0.0
  0
LINE
  5
427
100
AcDbEntity
  8
FOGNINGB
100
AcDbLine
 10
-69.0
 20
-45.0
 30
0.0
 11
-68.4
 21
-45.6
 31
0.0
  0
LWPOLYLINE
  5
428
100
AcDbEntity
  8
FOGNINGB
100
AcDbPolyline
 90
        2
 70
     0
 43
0.8
 10
-9.0
 20
-45.4
 10
12.0
 20
-45.4
  0
LINE
  5
429
100
AcDbEntity
  8
SPKONTUR
100
AcDbLine
 10
-9.0
 20
-45.0
 30
0.0
 11
12.0
 21
-45.0
 31
0.0
  0
LWPOLYLINE
  5
42A
100
AcDbEntity
  8
SPKONTUR
100
AcDbPolyline
 90
        3
 70
     0
 43
0.0
 10
2.0
 20
-5.0
 10
2.0
 20
-45.0
 10
-8.5
 20
-45.0
  0
LWPOLYLINE
  5
42B
100
AcDbEntity
  8
STALPROFIL
100
AcDbPolyline
 90
        2
 70
     0
 43
2.0
 10
1.0
 20
-5.0
 10
1.0
 20
-45.0
  0
LINE
  5
42C
100
AcDbEntity
  8
GLAS_MED_FOGNING
100
AcDbLine
 10
-20.505553
 20
-37.0
 30
0.0
 11
-5.494447
 21
-37.0
 31
0.0
  0
LINE
  5
42D
100
AcDbEntity
  8
GLAS_MED_FOGNING
100
AcDbLine
 10
-20.505553
 20
-43.0
 30
0.0
 11
-5.494447
 21
-43.0
 31
0.0
  0
LINE
  5
42E
100
AcDbEntity
  8
GLAS_MED_FOGNING
100
AcDbLine
 10
-20.505553
 20
-43.0
 30
0.0
 11
-20.505553
 21
-37.0
 31
0.0
  0
LWPOLYLINE
  5
42F
100
AcDbEntity
  8
SPKONTUR
100
AcDbPolyline
 90
        2
 70
     0
 43
0.0
 10
-17.5
 20
-45.0
 10
-23.0
 20
-45.0
  0
LWPOLYLINE
  5
430
100
AcDbEntity
  8
STALPROFIL
100
AcDbPolyline
 90
        2
 70
     0
 43
2.0
 10
-17.5
 20
-44.0
 10
-23.0
 20
-44.0
  0
LINE
  5
431
100
AcDbEntity
  8
GLAS_MED_FOGNING
100
AcDbLine
 10
-9.0
 20
-43.0
 30
0.0
 11
-9.0
 21
-64.0
 31
0.0
  0
LINE
  5
432
100
AcDbEntity
  8
GLAS_MED_FOGNING
100
AcDbLine
 10
-17.0
 20
-43.0
 30
0.0
 11
-17.0
 21
-64.0
 31
0.0
  0
LINE
  5
433
100
AcDbEntity
  8
GLAS_MED_FOGNING
100
AcDbLine
 10
-17.0
 20
-62.4
 30
0.0
 11
-9.0
 21
-62.4
 31
0.0
  0
LINE
  5
434
100
AcDbEntity
  8
GLAS_MED_FOGNING
100
AcDbLine
 10
-9.0
 20
-62.4
 30
0.0
 11
-9.6
 21
-63.0
 31
0.0
  0
LINE
  5
435
100
AcDbEntity
  8
GLAS_MED_FOGNING
100
AcDbLine
 10
-16.4
 20
-63.0
 30
0.0
 11
-9.6
 21
-63.0
 31
0.0
  0
LINE
  5
436
100
AcDbEntity
  8
GLAS_MED_FOGNING
100
AcDbLine
 10
-17.0
 20
-62.4
 30
0.0
 11
-16.4
 21
-63.0
 31
0.0
  0
LWPOLYLINE
  5
437
100
AcDbEntity
  8
STALPROFIL
100
AcDbPolyline
 90
        2
 70
     0
 43
2.0
 10
1.0
 20
-44.0
 10
-8.5
 20
-44.0
  0
LINE
  5
438
100
AcDbEntity
  8
GLAS_MED_FOGNING
100
AcDbLine
 10
-9.247223
 20
-43.0
 30
0.0
 11
-9.247223
 21
-37.0
 31
0.0
  0
LINE
  5
439
100
AcDbEntity
  8
GLAS_MED_FOGNING
100
AcDbLine
 10
-16.752777
 20
-43.0
 30
0.0
 11
-16.752777
 21
-37.0
 31
0.0
  0
LINE
  5
43A
100
AcDbEntity
  8
GLAS_MED_FOGNING
100
AcDbLine
 10
-9.0
 20
-44.0
 30
0.0
 11
-9.6
 21
-44.6
 31
0.0
  0
LINE
  5
43B
100
AcDbEntity
  8
GLAS_MED_FOGNING
100
AcDbLine
 10
-17.0
 20
-44.0
 30
0.0
 11
-16.4
 21
-44.6
 31
0.0
  0
LINE
  5
43C
100
AcDbEntity
  8
GLAS_MED_FOGNING
100
AcDbLine
 10
-5.494447
 20
-43.0
 30
0.0
 11
-5.494447
 21
-37.0
 31
0.0
  0
LINE
  5
43D
100
AcDbEntity
  8
FOGNINGB
100
AcDbLine
 10
-9.0
 20
-45.0
 30
0.0
 11
-9.6
 21
-45.6
 31
0.0
  0
LINE
  5
43E
100
AcDbEntity
  8
FOGNINGB
100
AcDbLine
 10
-17.0
 20
-45.0
 30
0.0
 11
-16.4
 21
-45.6
 31
0.0
  0
ENDBLK
  5
440
100
AcDbEntity
  8
0
100
AcDbBlockEnd
  0
BLOCK
  5
4A8
100
AcDbEntity
  8
0
100
AcDbBlockBegin
  2
*X11
 70
     1
 10
0.0
 20
0.0
 30
0.0
  3
*X11
  1

  0
LINE
  5
497
100
AcDbEntity
  8
0
 62
     0
100
AcDbLine
 10
-32.876894
 20
-70.0
 30
0.0
 11
-18.276894
 21
-55.4
 31
0.0
  0
LINE
  5
498
100
AcDbEntity
  8
0
 62
     0
100
AcDbLine
 10
-38.180195
 20
-70.0
 30
0.0
 11
-23.580195
 21
-55.4
 31
0.0
  0
LINE
  5
499
100
AcDbEntity
  8
0
 62
     0
100
AcDbLine
 10
-43.483496
 20
-70.0
 30
0.0
 11
-28.883496
 21
-55.4
 31
0.0
  0
LINE
  5
49A
100
AcDbEntity
  8
0
 62
     0
100
AcDbLine
 10
-48.786797
 20
-70.0
 30
0.0
 11
-34.186797
 21
-55.4
 31
0.0
  0
LINE
  5
49B
100
AcDbEntity
  8
0
 62
     0
100
AcDbLine
 10
-54.090097
 20
-70.0
 30
0.0
 11
-39.490097
 21
-55.4
 31
0.0
  0
LINE
  5
49C
100
AcDbEntity
  8
0
 62
     0
100
AcDbLine
 10
-59.393398
 20
-70.0
 30
0.0
 11
-44.793398
 21
-55.4
 31
0.0
  0
LINE
  5
49D
100
AcDbEntity
  8
0
 62
     0
100
AcDbLine
 10
-62.0
 20
-67.303301
 30
0.0
 11
-50.096699
 21
-55.4
 31
0.0
  0
LINE
  5
49E
100
AcDbEntity
  8
0
 62
     0
100
AcDbLine
 10
-62.0
 20
-62.0
 30
0.0
 11
-55.4
 21
-55.4
 31
0.0
  0
LINE
  5
49F
100
AcDbEntity
  8
0
 62
     0
100
AcDbLine
 10
-62.0
 20
-56.696699
 30
0.0
 11
-60.703301
 21
-55.4
 31
0.0
  0
LINE
  5
4A0
100
AcDbEntity
  8
0
 62
     0
100
AcDbLine
 10
-27.573593
 20
-70.0
 30
0.0
 11
-12.973593
 21
-55.4
 31
0.0
  0
LINE
  5
4A1
100
AcDbEntity
  8
0
 62
     0
100
AcDbLine
 10
-22.270292
 20
-70.0
 30
0.0
 11
-7.670292
 21
-55.4
 31
0.0
  0
LINE
  5
4A2
100
AcDbEntity
  8
0
 62
     0
100
AcDbLine
 10
-16.966991
 20
-70.0
 30
0.0
 11
-2.366991
 21
-55.4
 31
0.0
  0
LINE
  5
4A3
100
AcDbEntity
  8
0
 62
     0
100
AcDbLine
 10
-11.663691
 20
-70.0
 30
0.0
 11
2.936309
 21
-55.4
 31
0.0
  0
LINE
  5
4A4
100
AcDbEntity
  8
0
 62
     0
100
AcDbLine
 10
-6.36039
 20
-70.0
 30
0.0
 11
8.23961
 21
-55.4
 31
0.0
  0
LINE
  5
4A5
100
AcDbEntity
  8
0
 62
     0
100
AcDbLine
 10
-1.057089
 20
-70.0
 30
0.0
 11
12.0
 21
-56.942911
 31
0.0
  0
LINE
  5
4A6
100
AcDbEntity
  8
0
 62
     0
100
AcDbLine
 10
4.246212
 20
-70.0
 30
0.0
 11
12.0
 21
-62.246212
 31
0.0
  0
LINE
  5
4A7
100
AcDbEntity
  8
0
 62
     0
100
AcDbLine
 10
9.549513
 20
-70.0
 30
0.0
 11
12.0
 21
-67.549513
 31
0.0
  0
ENDBLK
  5
4A9
100
AcDbEntity
  8
0
100
AcDbBlockEnd
  0
BLOCK
  5
2C0
100
AcDbEntity
  8
0
100
AcDbBlockBegin
  2
NAMN
 70
     0
 10
0.0
 20
0.0
 30
0.0
  3
NAMN
  1

  0
TEXT
  5
2BC
100
AcDbEntity
  8
TEXT
100
AcDbText
 10
-36.033333
 20
-12.0
 30
0.0
 40
5.0
  1
%%USP 350
 41
0.8
  7
ROMANS
 72
     1
 11
-25.0
 21
-12.0
 31
0.0
100
AcDbText
  0
CIRCLE
  5
2BD
100
AcDbEntity
  8
TEXT
100
AcDbCircle
 10
-35.0
 20
9.0
 30
0.0
 40
4.0
  0
TEXT
  5
2BE
100
AcDbEntity
  8
TEXT
100
AcDbText
 10
-36.915771
 20
6.5
 30
0.0
 40
5.0
  1
A
  7
ISO
 72
     4
 11
-35.0
 21
9.0
 31
0.0
100
AcDbText
  0
ENDBLK
  5
2C1
100
AcDbEntity
  8
0
100
AcDbBlockEnd
  0
BLOCK
  5
2B8
100
AcDbEntity
  8
0
100
AcDbBlockBegin
  2
SNITTMARK
 70
     0
 10
0.0
 20
0.0
 30
0.0
  3
SNITTMARK
  1

  0
INSERT
  5
2A1
100
AcDbEntity
  8
TEXT
100
AcDbBlockReference
  2
SNITTPIL
 10
5.0
 20
25.0
 30
0.0
 41
-1.0
 50
270.0
  0
LINE
  5
2AB
100
AcDbEntity
  8
GLAS_MED_FOGNING
100
AcDbLine
 10
-24.5
 20
-15.0
 30
0.0
 11
24.5
 21
-15.0
 31
0.0
  0
TEXT
  5
2AC
100
AcDbEntity
  8
TEXT
100
AcDbText
 10
-18.857143
 20
-13.0
 30
0.0
 40
9.0
  1
C - C
 41
0.8
  7
ROMANS
 72
     1
 11
0.0
 21
-13.0
 31
0.0
100
AcDbText
  0
TEXT
  5
2AD
100
AcDbEntity
  8
TEXT
100
AcDbText
 10
-5.6
 20
4.0
 30
0.0
 40
4.0
  1
C
 41
0.8
  7
ROMANS
 72
     4
 11
-4.0
 21
6.0
 31
0.0
100
AcDbText
  0
LINE
  5
2AE
100
AcDbEntity
  8
GLAS_MED_FOGNING
100
AcDbLine
 10
-6.0
 20
3.0
 30
0.0
 11
-2.0
 21
3.0
 31
0.0
  0
TEXT
  5
2AF
100
AcDbEntity
  8
TEXT
100
AcDbText
 10
-16.371429
 20
8.0
 30
0.0
 40
4.0
  1
A
 41
0.8
  7
ROMANS
 72
     4
 11
-15.0
 21
10.0
 31
0.0
100
AcDbText
  0
LINE
  5
2B0
100
AcDbEntity
  8
GLAS_MED_FOGNING
100
AcDbLine
 10
-17.0
 20
7.0
 30
0.0
 11
-13.0
 21
7.0
 31
0.0
  0
INSERT
  5
2B1
100
AcDbEntity
  8
TEXT
100
AcDbBlockReference
  2
SNITTPIL
 10
-15.0
 20
20.0
 30
0.0
 41
-1.0
  0
TEXT
  5
2B2
100
AcDbEntity
  8
TEXT
100
AcDbText
 10
13.628571
 20
8.0
 30
0.0
 40
4.0
  1
A
 41
0.8
  7
ROMANS
 72
     4
 11
15.0
 21
10.0
 31
0.0
100
AcDbText
  0
INSERT
  5
2B3
100
AcDbEntity
  8
TEXT
100
AcDbBlockReference
  2
SNITTPIL
 10
5.0
 20
5.0
 30
0.0
 50
270.0
  0
LINE
  5
2B4
100
AcDbEntity
  8
GLAS_MED_FOGNING
100
AcDbLine
 10
13.0
 20
7.0
 30
0.0
 11
17.0
 21
7.0
 31
0.0
  0
INSERT
  5
2B5
100
AcDbEntity
  8
TEXT
100
AcDbBlockReference
  2
SNITTPIL
 10
15.0
 20
20.0
 30
0.0
  0
LINE
  5
2B6
100
AcDbEntity
  8
GLAS_MED_FOGNING
100
AcDbLine
 10
-6.0
 20
23.0
 30
0.0
 11
-2.0
 21
23.0
 31
0.0
  0
TEXT
  5
2B7
100
AcDbEntity
  8
TEXT
100
AcDbText
 10
-5.6
 20
24.0
 30
0.0
 40
4.0
  1
C
 41
0.8
  7
ROMANS
 72
     4
 11
-4.0
 21
26.0
 31
0.0
100
AcDbText
  0
ENDBLK
  5
2B9
100
AcDbEntity
  8
0
100
AcDbBlockEnd
  0
BLOCK
  5
26D
100
AcDbEntity
  8
0
100
AcDbBlockBegin
  2
*X14
 70
     1
 10
0.0
 20
0.0
 30
0.0
  3
*X14
  1

  0
LINE
  5
22A
100
AcDbEntity
  8
0
 62
     0
100
AcDbLine
 10
-6.6797
 20
-36.728079
 30
0.0
 11
-6.6797
 21
-36.728079
 31
0.0
  0
LINE
  5
22B
100
AcDbEntity
  8
0
 62
     0
100
AcDbLine
 10
-4.267906
 20
-34.877444
 30
0.0
 11
-4.267906
 21
-34.877444
 31
0.0
  0
LINE
  5
22C
100
AcDbEntity
  8
0
 62
     0
100
AcDbLine
 10
-1.570505
 20
-32.807655
 30
0.0
 11
-1.570505
 21
-32.807655
 31
0.0
  0
LINE
  5
22D
100
AcDbEntity
  8
0
 62
     0
100
AcDbLine
 10
1.007894
 20
-30.82918
 30
0.0
 11
1.007894
 21
-30.82918
 31
0.0
  0
LINE
  5
22E
100
AcDbEntity
  8
0
 62
     0
100
AcDbLine
 10
-6.805687
 20
-32.874431
 30
0.0
 11
-6.805687
 21
-32.874431
 31
0.0
  0
LINE
  5
22F
100
AcDbEntity
  8
0
 62
     0
100
AcDbLine
 10
-4.393893
 20
-31.023796
 30
0.0
 11
-4.393893
 21
-31.023796
 31
0.0
  0
LINE
  5
230
100
AcDbEntity
  8
0
 62
     0
100
AcDbLine
 10
-1.696491
 20
-28.954007
 30
0.0
 11
-1.696491
 21
-28.954007
 31
0.0
  0
LINE
  5
231
100
AcDbEntity
  8
0
 62
     0
100
AcDbLine
 10
-6.931674
 20
-29.020783
 30
0.0
 11
-6.931674
 21
-29.020783
 31
0.0
  0
LINE
  5
232
100
AcDbEntity
  8
0
 62
     0
100
AcDbLine
 10
-4.519879
 20
-27.170149
 30
0.0
 11
-4.519879
 21
-27.170149
 31
0.0
  0
LINE
  5
233
100
AcDbEntity
  8
0
 62
     0
100
AcDbLine
 10
-1.822478
 20
-25.10036
 30
0.0
 11
-1.822478
 21
-25.10036
 31
0.0
  0
LINE
  5
234
100
AcDbEntity
  8
0
 62
     0
100
AcDbLine
 10
-4.141919
 20
-38.731091
 30
0.0
 11
-4.141919
 21
-38.731091
 31
0.0
  0
LINE
  5
235
100
AcDbEntity
  8
0
 62
     0
100
AcDbLine
 10
-1.444518
 20
-36.661302
 30
0.0
 11
-1.444518
 21
-36.661302
 31
0.0
  0
LINE
  5
236
100
AcDbEntity
  8
0
 62
     0
100
AcDbLine
 10
1.13388
 20
-34.682828
 30
0.0
 11
1.13388
 21
-34.682828
 31
0.0
  0
LINE
  5
237
100
AcDbEntity
  8
0
 62
     0
100
AcDbLine
 10
1.259867
 20
-38.536475
 30
0.0
 11
1.259867
 21
-38.536475
 31
0.0
  0
LINE
  5
238
100
AcDbEntity
  8
0
 62
     0
100
AcDbLine
 10
3.671661
 20
-36.685841
 30
0.0
 11
3.671661
 21
-36.685841
 31
0.0
  0
LINE
  5
239
100
AcDbEntity
  8
0
 62
     0
100
AcDbLine
 10
6.495049
 20
-38.469699
 30
0.0
 11
6.495049
 21
-38.469699
 31
0.0
  0
LINE
  5
23A
100
AcDbEntity
  8
0
 62
     0
100
AcDbLine
 10
-6.127701
 20
-31.876534
 30
0.0
 11
-6.127701
 21
-31.876534
 31
0.0
  0
LINE
  5
23B
100
AcDbEntity
  8
0
 62
     0
100
AcDbLine
 10
-5.086684
 20
-31.739481
 30
0.0
 11
-5.086684
 21
-31.739481
 31
0.0
  0
LINE
  5
23C
100
AcDbEntity
  8
0
 62
     0
100
AcDbLine
 10
-3.460714
 20
-31.525418
 30
0.0
 11
-3.460714
 21
-31.525418
 31
0.0
  0
LINE
  5
23D
100
AcDbEntity
  8
0
 62
     0
100
AcDbLine
 10
-0.744155
 20
-31.167776
 30
0.0
 11
-0.744155
 21
-31.167776
 31
0.0
  0
LINE
  5
23E
100
AcDbEntity
  8
0
 62
     0
100
AcDbLine
 10
0.296862
 20
-31.030724
 30
0.0
 11
0.296862
 21
-31.030724
 31
0.0
  0
LINE
  5
23F
100
AcDbEntity
  8
0
 62
     0
100
AcDbLine
 10
-6.930676
 20
-26.803946
 30
0.0
 11
-6.930676
 21
-26.803946
 31
0.0
  0
LINE
  5
240
100
AcDbEntity
  8
0
 62
     0
100
AcDbLine
 10
-5.304706
 20
-26.589883
 30
0.0
 11
-5.304706
 21
-26.589883
 31
0.0
  0
LINE
  5
241
100
AcDbEntity
  8
0
 62
     0
100
AcDbLine
 10
-2.588147
 20
-26.232241
 30
0.0
 11
-2.588147
 21
-26.232241
 31
0.0
  0
LINE
  5
242
100
AcDbEntity
  8
0
 62
     0
100
AcDbLine
 10
-1.54713
 20
-26.095189
 30
0.0
 11
-1.54713
 21
-26.095189
 31
0.0
  0
LINE
  5
243
100
AcDbEntity
  8
0
 62
     0
100
AcDbLine
 10
0.078839
 20
-25.881126
 30
0.0
 11
0.078839
 21
-25.881126
 31
0.0
  0
LINE
  5
244
100
AcDbEntity
  8
0
 62
     0
100
AcDbLine
 10
-4.283709
 20
-36.812069
 30
0.0
 11
-4.283709
 21
-36.812069
 31
0.0
  0
LINE
  5
245
100
AcDbEntity
  8
0
 62
     0
100
AcDbLine
 10
-3.242691
 20
-36.675016
 30
0.0
 11
-3.242691
 21
-36.675016
 31
0.0
  0
LINE
  5
246
100
AcDbEntity
  8
0
 62
     0
100
AcDbLine
 10
-1.616722
 20
-36.460953
 30
0.0
 11
-1.616722
 21
-36.460953
 31
0.0
  0
LINE
  5
247
100
AcDbEntity
  8
0
 62
     0
100
AcDbLine
 10
1.099837
 20
-36.103311
 30
0.0
 11
1.099837
 21
-36.103311
 31
0.0
  0
LINE
  5
248
100
AcDbEntity
  8
0
 62
     0
100
AcDbLine
 10
2.140854
 20
-35.966259
 30
0.0
 11
2.140854
 21
-35.966259
 31
0.0
  0
LINE
  5
249
100
AcDbEntity
  8
0
 62
     0
100
AcDbLine
 10
3.766824
 20
-35.752196
 30
0.0
 11
3.766824
 21
-35.752196
 31
0.0
  0
LINE
  5
24A
100
AcDbEntity
  8
0
 62
     0
100
AcDbLine
 10
10.994361
 20
-39.978974
 30
0.0
 11
10.994361
 21
-39.978974
 31
0.0
  0
LINE
  5
24B
100
AcDbEntity
  8
0
 62
     0
100
AcDbLine
 10
-6.840284
 20
-25.063659
 30
0.0
 11
-6.840284
 21
-25.063659
 31
0.0
  0
LINE
  5
24C
100
AcDbEntity
  8
0
 62
     0
100
AcDbLine
 10
-5.996892
 20
-25.600958
 30
0.0
 11
-5.996892
 21
-25.600958
 31
0.0
  0
LINE
  5
24D
100
AcDbEntity
  8
0
 62
     0
100
AcDbLine
 10
-2.960683
 20
-27.535237
 30
0.0
 11
-2.960683
 21
-27.535237
 31
0.0
  0
LINE
  5
24E
100
AcDbEntity
  8
0
 62
     0
100
AcDbLine
 10
1.003257
 20
-30.060545
 30
0.0
 11
1.003257
 21
-30.060545
 31
0.0
  0
LINE
  5
24F
100
AcDbEntity
  8
0
 62
     0
100
AcDbLine
 10
-0.612
 20
-25.05234
 30
0.0
 11
-0.612
 21
-25.05234
 31
0.0
  0
LINE
  5
250
100
AcDbEntity
  8
0
 62
     0
100
AcDbLine
 10
-5.225027
 20
-30.071863
 30
0.0
 11
-5.225027
 21
-30.071863
 31
0.0
  0
LINE
  5
251
100
AcDbEntity
  8
0
 62
     0
100
AcDbLine
 10
-4.381636
 20
-30.609163
 30
0.0
 11
-4.381636
 21
-30.609163
 31
0.0
  0
LINE
  5
252
100
AcDbEntity
  8
0
 62
     0
100
AcDbLine
 10
-1.345426
 20
-32.543441
 30
0.0
 11
-1.345426
 21
-32.543441
 31
0.0
  0
LINE
  5
253
100
AcDbEntity
  8
0
 62
     0
100
AcDbLine
 10
2.618513
 20
-35.068749
 30
0.0
 11
2.618513
 21
-35.068749
 31
0.0
  0
LINE
  5
254
100
AcDbEntity
  8
0
 62
     0
100
AcDbLine
 10
3.461905
 20
-35.606049
 30
0.0
 11
3.461905
 21
-35.606049
 31
0.0
  0
LINE
  5
255
100
AcDbEntity
  8
0
 62
     0
100
AcDbLine
 10
6.498114
 20
-37.540328
 30
0.0
 11
6.498114
 21
-37.540328
 31
0.0
  0
LINE
  5
256
100
AcDbEntity
  8
0
 62
     0
100
AcDbLine
 10
-3.60977
 20
-35.080067
 30
0.0
 11
-3.60977
 21
-35.080067
 31
0.0
  0
LINE
  5
257
100
AcDbEntity
  8
0
 62
     0
100
AcDbLine
 10
-2.766379
 20
-35.617367
 30
0.0
 11
-2.766379
 21
-35.617367
 31
0.0
  0
LINE
  5
258
100
AcDbEntity
  8
0
 62
     0
100
AcDbLine
 10
0.26983
 20
-37.551646
 30
0.0
 11
0.26983
 21
-37.551646
 31
0.0
  0
LINE
  5
259
100
AcDbEntity
  8
0
 62
     0
100
AcDbLine
 10
-5.958453
 20
-37.562964
 30
0.0
 11
-5.958453
 21
-37.562964
 31
0.0
  0
LINE
  5
25A
100
AcDbEntity
  8
0
 62
     0
100
AcDbLine
 10
-0.00045
 20
-24.047461
 30
0.0
 11
-0.00045
 21
-24.047461
 31
0.0
  0
LINE
  5
25B
100
AcDbEntity
  8
0
 62
     0
100
AcDbLine
 10
-6.012703
 20
-25.802812
 30
0.0
 11
-6.012703
 21
-25.802812
 31
0.0
  0
LINE
  5
25C
100
AcDbEntity
  8
0
 62
     0
100
AcDbLine
 10
-5.644064
 20
-26.140607
 30
0.0
 11
-5.644064
 21
-26.140607
 31
0.0
  0
LINE
  5
25D
100
AcDbEntity
  8
0
 62
     0
100
AcDbLine
 10
-3.90409
 20
-27.735
 30
0.0
 11
-3.90409
 21
-27.735
 31
0.0
  0
LINE
  5
25E
100
AcDbEntity
  8
0
 62
     0
100
AcDbLine
 10
-1.913441
 20
-29.559094
 30
0.0
 11
-1.913441
 21
-29.559094
 31
0.0
  0
LINE
  5
25F
100
AcDbEntity
  8
0
 62
     0
100
AcDbLine
 10
-1.544802
 20
-29.896889
 30
0.0
 11
-1.544802
 21
-29.896889
 31
0.0
  0
LINE
  5
260
100
AcDbEntity
  8
0
 62
     0
100
AcDbLine
 10
0.195172
 20
-31.491282
 30
0.0
 11
0.195172
 21
-31.491282
 31
0.0
  0
LINE
  5
261
100
AcDbEntity
  8
0
 62
     0
100
AcDbLine
 10
2.185821
 20
-33.315375
 30
0.0
 11
2.185821
 21
-33.315375
 31
0.0
  0
LINE
  5
262
100
AcDbEntity
  8
0
 62
     0
100
AcDbLine
 10
2.55446
 20
-33.653171
 30
0.0
 11
2.55446
 21
-33.653171
 31
0.0
  0
LINE
  5
263
100
AcDbEntity
  8
0
 62
     0
100
AcDbLine
 10
4.294434
 20
-35.247563
 30
0.0
 11
4.294434
 21
-35.247563
 31
0.0
  0
LINE
  5
264
100
AcDbEntity
  8
0
 62
     0
100
AcDbLine
 10
6.285083
 20
-37.071657
 30
0.0
 11
6.285083
 21
-37.071657
 31
0.0
  0
LINE
  5
265
100
AcDbEntity
  8
0
 62
     0
100
AcDbLine
 10
6.653722
 20
-37.409452
 30
0.0
 11
6.653722
 21
-37.409452
 31
0.0
  0
LINE
  5
266
100
AcDbEntity
  8
0
 62
     0
100
AcDbLine
 10
8.393696
 20
-39.003845
 30
0.0
 11
8.393696
 21
-39.003845
 31
0.0
  0
LINE
  5
267
100
AcDbEntity
  8
0
 62
     0
100
AcDbLine
 10
-5.817081
 20
-33.246633
 30
0.0
 11
-5.817081
 21
-33.246633
 31
0.0
  0
LINE
  5
268
100
AcDbEntity
  8
0
 62
     0
100
AcDbLine
 10
-3.826432
 20
-35.070727
 30
0.0
 11
-3.826432
 21
-35.070727
 31
0.0
  0
LINE
  5
269
100
AcDbEntity
  8
0
 62
     0
100
AcDbLine
 10
-3.457793
 20
-35.408522
 30
0.0
 11
-3.457793
 21
-35.408522
 31
0.0
  0
LINE
  5
26A
100
AcDbEntity
  8
0
 62
     0
100
AcDbLine
 10
-1.717819
 20
-37.002915
 30
0.0
 11
-1.717819
 21
-37.002915
 31
0.0
  0
LINE
  5
26B
100
AcDbEntity
  8
0
 62
     0
100
AcDbLine
 10
0.27283
 20
-38.827008
 30
0.0
 11
0.27283
 21
-38.827008
 31
0.0
  0
LINE
  5
26C
100
AcDbEntity
  8
0
 62
     0
100
AcDbLine
 10
0.641469
 20
-39.164803
 30
0.0
 11
0.641469
 21
-39.164803
 31
0.0
  0
ENDBLK
  5
26E
100
AcDbEntity
  8
0
100
AcDbBlockEnd
  0
BLOCK
  5
45F
100
AcDbEntity
  8
0
100
AcDbBlockBegin
  2
*X15
 70
     1
 10
0.0
 20
0.0
 30
0.0
  3
*X15
  1

  0
LINE
  5
447
100
AcDbEntity
  8
0
 62
     0
100
AcDbLine
 10
-44.393398
 20
-55.0
 30
0.0
 11
-29.793398
 21
-40.4
 31
0.0
  0
LINE
  5
448
100
AcDbEntity
  8
0
 62
     0
100
AcDbLine
 10
-49.696699
 20
-55.0
 30
0.0
 11
-35.096699
 21
-40.4
 31
0.0
  0
LINE
  5
449
100
AcDbEntity
  8
0
 62
     0
100
AcDbLine
 10
-55.0
 20
-55.0
 30
0.0
 11
-40.4
 21
-40.4
 31
0.0
  0
LINE
  5
44A
100
AcDbEntity
  8
0
 62
     0
100
AcDbLine
 10
-60.303301
 20
-55.0
 30
0.0
 11
-45.703301
 21
-40.4
 31
0.0
  0
LINE
  5
44B
100
AcDbEntity
  8
0
 62
     0
100
AcDbLine
 10
-65.606602
 20
-55.0
 30
0.0
 11
-51.006602
 21
-40.4
 31
0.0
  0
LINE
  5
44C
100
AcDbEntity
  8
0
 62
     0
100
AcDbLine
 10
-70.909903
 20
-55.0
 30
0.0
 11
-56.309903
 21
-40.4
 31
0.0
  0
LINE
  5
44D
100
AcDbEntity
  8
0
 62
     0
100
AcDbLine
 10
-76.213203
 20
-55.0
 30
0.0
 11
-61.613203
 21
-40.4
 31
0.0
  0
LINE
  5
44E
100
AcDbEntity
  8
0
 62
     0
100
AcDbLine
 10
-81.516504
 20
-55.0
 30
0.0
 11
-66.916504
 21
-40.4
 31
0.0
  0
LINE
  5
44F
100
AcDbEntity
  8
0
 62
     0
100
AcDbLine
 10
-86.819805
 20
-55.0
 30
0.0
 11
-72.219805
 21
-40.4
 31
0.0
  0
LINE
  5
450
100
AcDbEntity
  8
0
 62
     0
100
AcDbLine
 10
-89.0
 20
-51.876894
 30
0.0
 11
-77.523106
 21
-40.4
 31
0.0
  0
LINE
  5
451
100
AcDbEntity
  8
0
 62
     0
100
AcDbLine
 10
-89.0
 20
-46.573593
 30
0.0
 11
-82.826407
 21
-40.4
 31
0.0
  0
LINE
  5
452
100
AcDbEntity
  8
0
 62
     0
100
AcDbLine
 10
-89.0
 20
-41.270292
 30
0.0
 11
-88.129708
 21
-40.4
 31
0.0
  0
LINE
  5
453
100
AcDbEntity
  8
0
 62
     0
100
AcDbLine
 10
-39.090097
 20
-55.0
 30
0.0
 11
-24.490097
 21
-40.4
 31
0.0
  0
LINE
  5
454
100
AcDbEntity
  8
0
 62
     0
100
AcDbLine
 10
-33.786797
 20
-55.0
 30
0.0
 11
-19.186797
 21
-40.4
 31
0.0
  0
LINE
  5
455
100
AcDbEntity
  8
0
 62
     0
100
AcDbLine
 10
-28.483496
 20
-55.0
 30
0.0
 11
-13.883496
 21
-40.4
 31
0.0
  0
LINE
  5
456
100
AcDbEntity
  8
0
 62
     0
100
AcDbLine
 10
-23.180195
 20
-55.0
 30
0.0
 11
-8.580195
 21
-40.4
 31
0.0
  0
LINE
  5
457
100
AcDbEntity
  8
0
 62
     0
100
AcDbLine
 10
-17.876894
 20
-55.0
 30
0.0
 11
-3.276894
 21
-40.4
 31
0.0
  0
LINE
  5
458
100
AcDbEntity
  8
0
 62
     0
100
AcDbLine
 10
-12.573593
 20
-55.0
 30
0.0
 11
2.026407
 21
-40.4
 31
0.0
  0
LINE
  5
459
100
AcDbEntity
  8
0
 62
     0
100
AcDbLine
 10
-7.270292
 20
-55.0
 30
0.0
 11
7.329708
 21
-40.4
 31
0.0
  0
LINE
  5
45A
100
AcDbEntity
  8
0
 62
     0
100
AcDbLine
 10
-1.966991
 20
-55.0
 30
0.0
 11
12.633009
 21
-40.4
 31
0.0
  0
LINE
  5
45B
100
AcDbEntity
  8
0
 62
     0
100
AcDbLine
 10
3.336309
 20
-55.0
 30
0.0
 11
17.936309
 21
-40.4
 31
0.0
  0
LINE
  5
45C
100
AcDbEntity
  8
0
 62
     0
100
AcDbLine
 10
8.63961
 20
-55.0
 30
0.0
 11
23.23961
 21
-40.4
 31
0.0
  0
LINE
  5
45D
100
AcDbEntity
  8
0
 62
     0
100
AcDbLine
 10
13.942911
 20
-55.0
 30
0.0
 11
24.0
 21
-44.942911
 31
0.0
  0
LINE
  5
45E
100
AcDbEntity
  8
0
 62
     0
100
AcDbLine
 10
19.246212
 20
-55.0
 30
0.0
 11
24.0
 21
-50.246212
 31
0.0
  0
ENDBLK
  5
460
100
AcDbEntity
  8
0
100
AcDbBlockEnd
  0
BLOCK
  5
468
100
AcDbEntity
  8
0
100
AcDbBlockBegin
  2
65_INF-B10
 70
     0
 10
0.0
 20
0.0
 30
0.0
  3
65_INF-B10
  1

  0
LWPOLYLINE
  5
443
100
AcDbEntity
  8
ISOLERING
100
AcDbPolyline
 90
       42
 70
     0
 43
0.0
 10
-58.0
 20
-39.436492
 42
0.538866
 10
-55.523529
 20
-37.194118
 10
-56.976471
 20
-27.805882
 42
-1.166667
 10
-53.023529
 20
-27.805882
 10
-54.476471
 20
-37.194118
 42
1.166667
 10
-50.523529
 20
-37.194118
 10
-51.976471
 20
-27.805882
 42
-1.166667
 10
-48.023529
 20
-27.805882
 10
-49.476471
 20
-37.194118
 42
1.166667
 10
-45.523529
 20
-37.194118
 10
-46.976471
 20
-27.805882
 42
-1.166667
 10
-43.023529
 20
-27.805882
 10
-44.476471
 20
-37.194118
 42
1.166667
 10
-40.523529
 20
-37.194118
 10
-41.976471
 20
-27.805882
 42
-1.166667
 10
-38.023529
 20
-27.805882
 10
-39.476471
 20
-37.194118
 42
1.166667
 10
-35.523529
 20
-37.194118
 10
-36.976471
 20
-27.805882
 42
-1.166667
 10
-33.023529
 20
-27.805882
 10
-34.476471
 20
-37.194118
 42
1.166667
 10
-30.523529
 20
-37.194118
 10
-31.976471
 20
-27.805882
 42
-1.166667
 10
-28.023529
 20
-27.805882
 10
-29.476471
 20
-37.194118
 42
1.166667
 10
-25.523529
 20
-37.194118
 10
-26.976471
 20
-27.805882
 42
-1.166667
 10
-23.023529
 20
-27.805882
 10
-24.476471
 20
-37.194118
 42
1.166667
 10
-20.523529
 20
-37.194118
 10
-21.976471
 20
-27.805882
 42
-1.166667
 10
-18.023529
 20
-27.805882
 10
-19.476471
 20
-37.194118
 42
1.166667
 10
-15.523529
 20
-37.194118
 10
-16.976471
 20
-27.805882
 42
-1.166667
 10
-13.023529
 20
-27.805882
 10
-14.476471
 20
-37.194118
 42
1.166667
 10
-10.523529
 20
-37.194118
 10
-11.976471
 20
-27.805882
 42
-1.166667
 10
-8.023529
 20
-27.805882
 10
-9.476471
 20
-37.194118
 42
0.538866
 10
-7.0
 20
-39.436492
 42
0.538866
  0
LWPOLYLINE
  5
444
100
AcDbEntity
  8
FOGNINGB
100
AcDbPolyline
 90
        2
 70
     0
 43
0.8
 10
24.0
 20
-40.4
 10
-89.0
 20
-40.4
  0
INSERT
  5
445
100
AcDbEntity
  8
FOGNINGB
100
AcDbBlockReference
  2
*X15
 10
0.0
 20
0.0
 30
0.0
1001
ACAD
1000
HATCH
1002
{
1070
    16
1000
ANSI31
1040
30.0
1040
0.0
1002
}
  0
LINE
  5
461
100
AcDbEntity
  8
SPKONTUR
100
AcDbLine
 10
24.0
 20
-40.0
 30
0.0
 11
-89.0
 21
-40.0
 31
0.0
  0
LINE
  5
462
100
AcDbEntity
  8
GLAS_MED_FOGNING
100
AcDbLine
 10
-58.0
 20
-25.0
 30
0.0
 11
-58.0
 21
-40.0
 31
0.0
  0
ARC
  5
463
100
AcDbEntity
  8
GLAS_MED_FOGNING
100
AcDbCircle
 10
-82.609845
 20
-23.135825
 30
0.0
 40
17.62132
100
AcDbArc
 50
286.85681
 51
2.067835
  0
INSERT
  5
464
100
AcDbEntity
  8
GLAS_MED_FOGNING
100
AcDbBlockReference
  2
*X14
 10
-65.0
 20
0.0
 30
0.0
 41
-1.0
1001
ACAD
1000
HATCH
1002
{
1070
    16
1000
AR-SAND
1040
2.0
1040
0.0
1002
}
  0
INSERT
  5
465
100
AcDbEntity
  8
GLAS_MED_FOGNING
100
AcDbBlockReference
  2
*X14
 10
0.0
 20
0.0
 30
0.0
1001
ACAD
1000
HATCH
1002
{
1070
    16
1000
AR-SAND
1040
2.0
1040
0.0
1002
}
  0
ARC
  5
466
100
AcDbEntity
  8
GLAS_MED_FOGNING
100
AcDbCircle
 10
17.609845
 20
-23.135825
 30
0.0
 40
17.62132
100
AcDbArc
 50
177.932165
 51
253.14319
  0
LINE
  5
467
100
AcDbEntity
  8
GLAS_MED_FOGNING
100
AcDbLine
 10
-7.0
 20
-25.0
 30
0.0
 11
-7.0
 21
-40.0
 31
0.0
  0
ENDBLK
  5
469
100
AcDbEntity
  8
0
100
AcDbBlockEnd
  0
BLOCK
  5
222
100
AcDbEntity
  8
0
100
AcDbBlockBegin
  2
*X17
 70
     1
 10
0.0
 20
0.0
 30
0.0
  3
*X17
  1

  0
LINE
  5
206
100
AcDbEntity
  8
0
 62
     0
100
AcDbLine
 10
-55.0
 20
-55.0
 30
0.0
 11
-40.4
 21
-40.4
 31
0.0
  0
LINE
  5
207
100
AcDbEntity
  8
0
 62
     0
100
AcDbLine
 10
-60.303301
 20
-55.0
 30
0.0
 11
-45.703301
 21
-40.4
 31
0.0
  0
LINE
  5
208
100
AcDbEntity
  8
0
 62
     0
100
AcDbLine
 10
-65.606602
 20
-55.0
 30
0.0
 11
-51.006602
 21
-40.4
 31
0.0
  0
LINE
  5
209
100
AcDbEntity
  8
0
 62
     0
100
AcDbLine
 10
-70.909903
 20
-55.0
 30
0.0
 11
-56.309903
 21
-40.4
 31
0.0
  0
LINE
  5
20A
100
AcDbEntity
  8
0
 62
     0
100
AcDbLine
 10
-76.213203
 20
-55.0
 30
0.0
 11
-61.613203
 21
-40.4
 31
0.0
  0
LINE
  5
20B
100
AcDbEntity
  8
0
 62
     0
100
AcDbLine
 10
-81.516504
 20
-55.0
 30
0.0
 11
-66.916504
 21
-40.4
 31
0.0
  0
LINE
  5
20C
100
AcDbEntity
  8
0
 62
     0
100
AcDbLine
 10
-86.819805
 20
-55.0
 30
0.0
 11
-72.219805
 21
-40.4
 31
0.0
  0
LINE
  5
20D
100
AcDbEntity
  8
0
 62
     0
100
AcDbLine
 10
-92.123106
 20
-55.0
 30
0.0
 11
-77.523106
 21
-40.4
 31
0.0
  0
LINE
  5
20E
100
AcDbEntity
  8
0
 62
     0
100
AcDbLine
 10
-97.426407
 20
-55.0
 30
0.0
 11
-82.826407
 21
-40.4
 31
0.0
  0
LINE
  5
20F
100
AcDbEntity
  8
0
 62
     0
100
AcDbLine
 10
-102.729708
 20
-55.0
 30
0.0
 11
-88.129708
 21
-40.4
 31
0.0
  0
LINE
  5
210
100
AcDbEntity
  8
0
 62
     0
100
AcDbLine
 10
-108.033009
 20
-55.0
 30
0.0
 11
-93.433009
 21
-40.4
 31
0.0
  0
LINE
  5
211
100
AcDbEntity
  8
0
 62
     0
100
AcDbLine
 10
-113.336309
 20
-55.0
 30
0.0
 11
-98.736309
 21
-40.4
 31
0.0
  0
LINE
  5
212
100
AcDbEntity
  8
0
 62
     0
100
AcDbLine
 10
-114.0
 20
-50.36039
 30
0.0
 11
-104.03961
 21
-40.4
 31
0.0
  0
LINE
  5
213
100
AcDbEntity
  8
0
 62
     0
100
AcDbLine
 10
-114.0
 20
-45.057089
 30
0.0
 11
-109.342911
 21
-40.4
 31
0.0
  0
LINE
  5
214
100
AcDbEntity
  8
0
 62
     0
100
AcDbLine
 10
-49.696699
 20
-55.0
 30
0.0
 11
-35.096699
 21
-40.4
 31
0.0
  0
LINE
  5
215
100
AcDbEntity
  8
0
 62
     0
100
AcDbLine
 10
-44.393398
 20
-55.0
 30
0.0
 11
-29.793398
 21
-40.4
 31
0.0
  0
LINE
  5
216
100
AcDbEntity
  8
0
 62
     0
100
AcDbLine
 10
-39.090097
 20
-55.0
 30
0.0
 11
-24.490097
 21
-40.4
 31
0.0
  0
LINE
  5
217
100
AcDbEntity
  8
0
 62
     0
100
AcDbLine
 10
-33.786797
 20
-55.0
 30
0.0
 11
-19.186797
 21
-40.4
 31
0.0
  0
LINE
  5
218
100
AcDbEntity
  8
0
 62
     0
100
AcDbLine
 10
-28.483496
 20
-55.0
 30
0.0
 11
-13.883496
 21
-40.4
 31
0.0
  0
LINE
  5
219
100
AcDbEntity
  8
0
 62
     0
100
AcDbLine
 10
-23.180195
 20
-55.0
 30
0.0
 11
-8.580195
 21
-40.4
 31
0.0
  0
LINE
  5
21A
100
AcDbEntity
  8
0
 62
     0
100
AcDbLine
 10
-17.876894
 20
-55.0
 30
0.0
 11
-3.276894
 21
-40.4
 31
0.0
  0
LINE
  5
21B
100
AcDbEntity
  8
0
 62
     0
100
AcDbLine
 10
-12.573593
 20
-55.0
 30
0.0
 11
2.026407
 21
-40.4
 31
0.0
  0
LINE
  5
21C
100
AcDbEntity
  8
0
 62
     0
100
AcDbLine
 10
-7.270292
 20
-55.0
 30
0.0
 11
7.329708
 21
-40.4
 31
0.0
  0
LINE
  5
21D
100
AcDbEntity
  8
0
 62
     0
100
AcDbLine
 10
-1.966991
 20
-55.0
 30
0.0
 11
12.633009
 21
-40.4
 31
0.0
  0
LINE
  5
21E
100
AcDbEntity
  8
0
 62
     0
100
AcDbLine
 10
3.336309
 20
-55.0
 30
0.0
 11
17.936309
 21
-40.4
 31
0.0
  0
LINE
  5
21F
100
AcDbEntity
  8
0
 62
     0
100
AcDbLine
 10
8.63961
 20
-55.0
 30
0.0
 11
23.23961
 21
-40.4
 31
0.0
  0
LINE
  5
220
100
AcDbEntity
  8
0
 62
     0
100
AcDbLine
 10
13.942911
 20
-55.0
 30
0.0
 11
24.0
 21
-44.942911
 31
0.0
  0
LINE
  5
221
100
AcDbEntity
  8
0
 62
     0
100
AcDbLine
 10
19.246212
 20
-55.0
 30
0.0
 11
24.0
 21
-50.246212
 31
0.0
  0
ENDBLK
  5
223
100
AcDbEntity
  8
0
100
AcDbBlockEnd
  0
BLOCK
  5
272
100
AcDbEntity
  8
0
100
AcDbBlockBegin
  2
90_INF-B10
 70
     0
 10
0.0
 20
0.0
 30
0.0
  3
90_INF-B10
  1

  0
LWPOLYLINE
  5
203
100
AcDbEntity
  8
FOGNINGB
100
AcDbPolyline
 90
        2
 70
     0
 43
0.8
 10
24.0
 20
-40.4
 10
-114.0
 20
-40.4
  0
INSERT
  5
204
100
AcDbEntity
  8
FOGNINGB
100
AcDbBlockReference
  2
*X17
 10
0.0
 20
0.0
 30
0.0
1001
ACAD
1000
HATCH
1002
{
1070
    16
1000
ANSI31
1040
30.0
1040
0.0
1002
}
  0
LWPOLYLINE
  5
224
100
AcDbEntity
  8
ISOLERING
100
AcDbPolyline
 90
       62
 70
     0
 43
0.0
 10
-83.0
 20
-39.436492
 42
0.538866
 10
-80.523529
 20
-37.194118
 10
-81.976471
 20
-27.805882
 42
-1.166667
 10
-78.023529
 20
-27.805882
 10
-79.476471
 20
-37.194118
 42
1.166667
 10
-75.523529
 20
-37.194118
 10
-76.976471
 20
-27.805882
 42
-1.166667
 10
-73.023529
 20
-27.805882
 10
-74.476471
 20
-37.194118
 42
1.166667
 10
-70.523529
 20
-37.194118
 10
-71.976471
 20
-27.805882
 42
-1.166667
 10
-68.023529
 20
-27.805882
 10
-69.476471
 20
-37.194118
 42
1.166667
 10
-65.523529
 20
-37.194118
 10
-66.976471
 20
-27.805882
 42
-1.166667
 10
-63.023529
 20
-27.805882
 10
-64.476471
 20
-37.194118
 42
1.166667
 10
-60.523529
 20
-37.194118
 10
-61.976471
 20
-27.805882
 42
-1.166667
 10
-58.023529
 20
-27.805882
 10
-59.476471
 20
-37.194118
 42
1.166667
 10
-55.523529
 20
-37.194118
 10
-56.976471
 20
-27.805882
 42
-1.166667
 10
-53.023529
 20
-27.805882
 10
-54.476471
 20
-37.194118
 42
1.166667
 10
-50.523529
 20
-37.194118
 10
-51.976471
 20
-27.805882
 42
-1.166667
 10
-48.023529
 20
-27.805882
 10
-49.476471
 20
-37.194118
 42
1.166667
 10
-45.523529
 20
-37.194118
 10
-46.976471
 20
-27.805882
 42
-1.166667
 10
-43.023529
 20
-27.805882
 10
-44.476471
 20
-37.194118
 42
1.166667
 10
-40.523529
 20
-37.194118
 10
-41.976471
 20
-27.805882
 42
-1.166667
 10
-38.023529
 20
-27.805882
 10
-39.476471
 20
-37.194118
 42
1.166667
 10
-35.523529
 20
-37.194118
 10
-36.976471
 20
-27.805882
 42
-1.166667
 10
-33.023529
 20
-27.805882
 10
-34.476471
 20
-37.194118
 42
1.166667
 10
-30.523529
 20
-37.194118
 10
-31.976471
 20
-27.805882
 42
-1.166667
 10
-28.023529
 20
-27.805882
 10
-29.476471
 20
-37.194118
 42
1.166667
 10
-25.523529
 20
-37.194118
 10
-26.976471
 20
-27.805882
 42
-1.166667
 10
-23.023529
 20
-27.805882
 10
-24.476471
 20
-37.194118
 42
1.166667
 10
-20.523529
 20
-37.194118
 10
-21.976471
 20
-27.805882
 42
-1.166667
 10
-18.023529
 20
-27.805882
 10
-19.476471
 20
-37.194118
 42
1.166667
 10
-15.523529
 20
-37.194118
 10
-16.976471
 20
-27.805882
 42
-1.166667
 10
-13.023529
 20
-27.805882
 10
-14.476471
 20
-37.194118
 42
1.166667
 10
-10.523529
 20
-37.194118
 10
-11.976471
 20
-27.805882
 42
-1.166667
 10
-8.023529
 20
-27.805882
 10
-9.476471
 20
-37.194118
 42
0.538866
 10
-7.0
 20
-39.436492
 42
0.538866
  0
LINE
  5
225
100
AcDbEntity
  8
SPKONTUR
100
AcDbLine
 10
24.0
 20
-40.0
 30
0.0
 11
-114.0
 21
-40.0
 31
0.0
  0
LINE
  5
226
100
AcDbEntity
  8
GLAS_MED_FOGNING
100
AcDbLine
 10
-83.0
 20
-25.0
 30
0.0
 11
-83.0
 21
-40.0
 31
0.0
  0
ARC
  5
227
100
AcDbEntity
  8
GLAS_MED_FOGNING
100
AcDbCircle
 10
-107.609845
 20
-23.135825
 30
0.0
 40
17.62132
100
AcDbArc
 50
286.85681
 51
2.067835
  0
INSERT
  5
228
100
AcDbEntity
  8
GLAS_MED_FOGNING
100
AcDbBlockReference
  2
*X14
 10
-90.0
 20
0.0
 30
0.0
 41
-1.0
1001
ACAD
1000
HATCH
1002
{
1070
    16
1000
AR-SAND
1040
2.0
1040
0.0
1002
}
  0
INSERT
  5
26F
100
AcDbEntity
  8
GLAS_MED_FOGNING
100
AcDbBlockReference
  2
*X14
 10
0.0
 20
0.0
 30
0.0
1001
ACAD
1000
HATCH
1002
{
1070
    16
1000
AR-SAND
1040
2.0
1040
0.0
1002
}
  0
ARC
  5
270
100
AcDbEntity
  8
GLAS_MED_FOGNING
100
AcDbCircle
 10
17.609845
 20
-23.135825
 30
0.0
 40
17.62132
100
AcDbArc
 50
177.932165
 51
253.14319
  0
LINE
  5
271
100
AcDbEntity
  8
GLAS_MED_FOGNING
100
AcDbLine
 10
-7.0
 20
-25.0
 30
0.0
 11
-7.0
 21
-40.0
 31
0.0
  0
ENDBLK
  5
273
100
AcDbEntity
  8
0
100
AcDbBlockEnd
  0
BLOCK
  5
485
100
AcDbEntity
  8
0
100
AcDbBlockBegin
  2
*X19
 70
     1
 10
0.0
 20
0.0
 30
0.0
  3
*X19
  1

  0
LINE
  5
46F
100
AcDbEntity
  8
0
 62
     0
100
AcDbLine
 10
-49.696699
 20
-55.0
 30
0.0
 11
-30.096699
 21
-35.4
 31
0.0
  0
LINE
  5
470
100
AcDbEntity
  8
0
 62
     0
100
AcDbLine
 10
-55.0
 20
-55.0
 30
0.0
 11
-35.4
 21
-35.4
 31
0.0
  0
LINE
  5
471
100
AcDbEntity
  8
0
 62
     0
100
AcDbLine
 10
-60.303301
 20
-55.0
 30
0.0
 11
-40.703301
 21
-35.4
 31
0.0
  0
LINE
  5
472
100
AcDbEntity
  8
0
 62
     0
100
AcDbLine
 10
-65.606602
 20
-55.0
 30
0.0
 11
-46.006602
 21
-35.4
 31
0.0
  0
LINE
  5
473
100
AcDbEntity
  8
0
 62
     0
100
AcDbLine
 10
-70.909903
 20
-55.0
 30
0.0
 11
-51.309903
 21
-35.4
 31
0.0
  0
LINE
  5
474
100
AcDbEntity
  8
0
 62
     0
100
AcDbLine
 10
-76.213203
 20
-55.0
 30
0.0
 11
-56.613203
 21
-35.4
 31
0.0
  0
LINE
  5
475
100
AcDbEntity
  8
0
 62
     0
100
AcDbLine
 10
-77.0
 20
-50.483496
 30
0.0
 11
-61.916504
 21
-35.4
 31
0.0
  0
LINE
  5
476
100
AcDbEntity
  8
0
 62
     0
100
AcDbLine
 10
-77.0
 20
-45.180195
 30
0.0
 11
-67.219805
 21
-35.4
 31
0.0
  0
LINE
  5
477
100
AcDbEntity
  8
0
 62
     0
100
AcDbLine
 10
-77.0
 20
-39.876894
 30
0.0
 11
-72.523106
 21
-35.4
 31
0.0
  0
LINE
  5
478
100
AcDbEntity
  8
0
 62
     0
100
AcDbLine
 10
-44.393398
 20
-55.0
 30
0.0
 11
-24.793398
 21
-35.4
 31
0.0
  0
LINE
  5
479
100
AcDbEntity
  8
0
 62
     0
100
AcDbLine
 10
-39.090097
 20
-55.0
 30
0.0
 11
-19.490097
 21
-35.4
 31
0.0
  0
LINE
  5
47A
100
AcDbEntity
  8
0
 62
     0
100
AcDbLine
 10
-33.786797
 20
-55.0
 30
0.0
 11
-23.0
 21
-44.213203
 31
0.0
  0
LINE
  5
47B
100
AcDbEntity
  8
0
 62
     0
100
AcDbLine
 10
-21.786797
 20
-43.0
 30
0.0
 11
-14.186797
 21
-35.4
 31
0.0
  0
LINE
  5
47C
100
AcDbEntity
  8
0
 62
     0
100
AcDbLine
 10
-28.483496
 20
-55.0
 30
0.0
 11
-18.483496
 21
-45.0
 31
0.0
  0
LINE
  5
47D
100
AcDbEntity
  8
0
 62
     0
100
AcDbLine
 10
-16.483496
 20
-43.0
 30
0.0
 11
-8.883496
 21
-35.4
 31
0.0
  0
LINE
  5
47E
100
AcDbEntity
  8
0
 62
     0
100
AcDbLine
 10
-23.180195
 20
-55.0
 30
0.0
 11
-13.180195
 21
-45.0
 31
0.0
  0
LINE
  5
47F
100
AcDbEntity
  8
0
 62
     0
100
AcDbLine
 10
-11.180195
 20
-43.0
 30
0.0
 11
-3.580195
 21
-35.4
 31
0.0
  0
LINE
  5
480
100
AcDbEntity
  8
0
 62
     0
100
AcDbLine
 10
-17.876894
 20
-55.0
 30
0.0
 11
-7.876894
 21
-45.0
 31
0.0
  0
LINE
  5
481
100
AcDbEntity
  8
0
 62
     0
100
AcDbLine
 10
-5.876894
 20
-43.0
 30
0.0
 11
0.0
 21
-37.123106
 31
0.0
  0
LINE
  5
482
100
AcDbEntity
  8
0
 62
     0
100
AcDbLine
 10
-12.573593
 20
-55.0
 30
0.0
 11
-5.4
 21
-47.826407
 31
0.0
  0
LINE
  5
483
100
AcDbEntity
  8
0
 62
     0
100
AcDbLine
 10
-0.573593
 20
-43.0
 30
0.0
 11
0.0
 21
-42.426407
 31
0.0
  0
LINE
  5
484
100
AcDbEntity
  8
0
 62
     0
100
AcDbLine
 10
-7.270292
 20
-55.0
 30
0.0
 11
-5.4
 21
-53.129708
 31
0.0
  0
ENDBLK
  5
486
100
AcDbEntity
  8
0
100
AcDbBlockEnd
  0
BLOCK
  5
48E
100
AcDbEntity
  8
0
100
AcDbBlockBegin
  2
65_INF-B12
 70
     0
 10
0.0
 20
0.0
 30
0.0
  3
65_INF-B12
  1

  0
INSERT
  5
46D
100
AcDbEntity
  8
FOGNINGB
100
AcDbBlockReference
  2
*X19
 10
0.0
 20
0.0
 30
0.0
1001
ACAD
1000
HATCH
1002
{
1070
    16
1000
ANSI31
1040
30.0
1040
0.0
1002
}
  0
LWPOLYLINE
  5
487
100
AcDbEntity
  8
SPKONTUR
100
AcDbPolyline
 90
        3
 70
     0
 43
0.0
 10
2.0
 20
-15.0
 10
2.0
 20
-45.0
 10
-23.0
 20
-45.0
  0
LWPOLYLINE
  5
488
100
AcDbEntity
  8
STALPROFIL
100
AcDbPolyline
 90
        2
 70
     0
 43
2.0
 10
1.0
 20
-15.0
 10
1.0
 20
-45.0
  0
LWPOLYLINE
  5
489
100
AcDbEntity
  8
STALPROFIL
100
AcDbPolyline
 90
        2
 70
     0
 43
2.0
 10
1.0
 20
-44.0
 10
-23.0
 20
-44.0
  0
LWPOLYLINE
  5
48A
100
AcDbEntity
  8
FOGNINGB
100
AcDbPolyline
 90
        2
 70
     0
 43
0.8
 10
-5.4
 20
-45.0
 10
-5.4
 20
-55.0
  0
LINE
  5
48B
100
AcDbEntity
  8
SPKONTUR
100
AcDbLine
 10
-5.0
 20
-45.0
 30
0.0
 11
-5.0
 21
-55.0
 31
0.0
  0
LWPOLYLINE
  5
48C
100
AcDbEntity
  8
FOGNINGB
100
AcDbPolyline
 90
        2
 70
     0
 43
0.8
 10
0.0
 20
-35.4
 10
-77.0
 20
-35.4
  0
LINE
  5
48D
100
AcDbEntity
  8
SPKONTUR
100
AcDbLine
 10
0.0
 20
-35.0
 30
0.0
 11
-77.0
 21
-35.0
 31
0.0
  0
ENDBLK
  5
48F
100
AcDbEntity
  8
0
100
AcDbBlockEnd
  0
BLOCK
  5
294
100
AcDbEntity
  8
0
100
AcDbBlockBegin
  2
*X21
 70
     1
 10
0.0
 20
0.0
 30
0.0
  3
*X21
  1

  0
LINE
  5
279
100
AcDbEntity
  8
0
 62
     0
100
AcDbLine
 10
-60.303301
 20
-55.0
 30
0.0
 11
-40.703301
 21
-35.4
 31
0.0
  0
LINE
  5
27A
100
AcDbEntity
  8
0
 62
     0
100
AcDbLine
 10
-65.606602
 20
-55.0
 30
0.0
 11
-46.006602
 21
-35.4
 31
0.0
  0
LINE
  5
27B
100
AcDbEntity
  8
0
 62
     0
100
AcDbLine
 10
-70.909903
 20
-55.0
 30
0.0
 11
-51.309903
 21
-35.4
 31
0.0
  0
LINE
  5
27C
100
AcDbEntity
  8
0
 62
     0
100
AcDbLine
 10
-76.213203
 20
-55.0
 30
0.0
 11
-56.613203
 21
-35.4
 31
0.0
  0
LINE
  5
27D
100
AcDbEntity
  8
0
 62
     0
100
AcDbLine
 10
-81.516504
 20
-55.0
 30
0.0
 11
-61.916504
 21
-35.4
 31
0.0
  0
LINE
  5
27E
100
AcDbEntity
  8
0
 62
     0
100
AcDbLine
 10
-86.819805
 20
-55.0
 30
0.0
 11
-67.219805
 21
-35.4
 31
0.0
  0
LINE
  5
27F
100
AcDbEntity
  8
0
 62
     0
100
AcDbLine
 10
-92.123106
 20
-55.0
 30
0.0
 11
-72.523106
 21
-35.4
 31
0.0
  0
LINE
  5
280
100
AcDbEntity
  8
0
 62
     0
100
AcDbLine
 10
-97.426407
 20
-55.0
 30
0.0
 11
-77.826407
 21
-35.4
 31
0.0
  0
LINE
  5
281
100
AcDbEntity
  8
0
 62
     0
100
AcDbLine
 10
-102.0
 20
-54.270292
 30
0.0
 11
-83.129708
 21
-35.4
 31
0.0
  0
LINE
  5
282
100
AcDbEntity
  8
0
 62
     0
100
AcDbLine
 10
-102.0
 20
-48.966991
 30
0.0
 11
-88.433009
 21
-35.4
 31
0.0
  0
LINE
  5
283
100
AcDbEntity
  8
0
 62
     0
100
AcDbLine
 10
-102.0
 20
-43.663691
 30
0.0
 11
-93.736309
 21
-35.4
 31
0.0
  0
LINE
  5
284
100
AcDbEntity
  8
0
 62
     0
100
AcDbLine
 10
-102.0
 20
-38.36039
 30
0.0
 11
-99.03961
 21
-35.4
 31
0.0
  0
LINE
  5
285
100
AcDbEntity
  8
0
 62
     0
100
AcDbLine
 10
-55.0
 20
-55.0
 30
0.0
 11
-35.4
 21
-35.4
 31
0.0
  0
LINE
  5
286
100
AcDbEntity
  8
0
 62
     0
100
AcDbLine
 10
-49.696699
 20
-55.0
 30
0.0
 11
-30.096699
 21
-35.4
 31
0.0
  0
LINE
  5
287
100
AcDbEntity
  8
0
 62
     0
100
AcDbLine
 10
-44.393398
 20
-55.0
 30
0.0
 11
-24.793398
 21
-35.4
 31
0.0
  0
LINE
  5
288
100
AcDbEntity
  8
0
 62
     0
100
AcDbLine
 10
-39.090097
 20
-55.0
 30
0.0
 11
-19.490097
 21
-35.4
 31
0.0
  0
LINE
  5
289
100
AcDbEntity
  8
0
 62
     0
100
AcDbLine
 10
-33.786797
 20
-55.0
 30
0.0
 11
-23.0
 21
-44.213203
 31
0.0
  0
LINE
  5
28A
100
AcDbEntity
  8
0
 62
     0
100
AcDbLine
 10
-21.786797
 20
-43.0
 30
0.0
 11
-14.186797
 21
-35.4
 31
0.0
  0
LINE
  5
28B
100
AcDbEntity
  8
0
 62
     0
100
AcDbLine
 10
-28.483496
 20
-55.0
 30
0.0
 11
-18.483496
 21
-45.0
 31
0.0
  0
LINE
  5
28C
100
AcDbEntity
  8
0
 62
     0
100
AcDbLine
 10
-16.483496
 20
-43.0
 30
0.0
 11
-8.883496
 21
-35.4
 31
0.0
  0
LINE
  5
28D
100
AcDbEntity
  8
0
 62
     0
100
AcDbLine
 10
-23.180195
 20
-55.0
 30
0.0
 11
-13.180195
 21
-45.0
 31
0.0
  0
LINE
  5
28E
100
AcDbEntity
  8
0
 62
     0
100
AcDbLine
 10
-11.180195
 20
-43.0
 30
0.0
 11
-3.580195
 21
-35.4
 31
0.0
  0
LINE
  5
28F
100
AcDbEntity
  8
0
 62
     0
100
AcDbLine
 10
-17.876894
 20
-55.0
 30
0.0
 11
-7.876894
 21
-45.0
 31
0.0
  0
LINE
  5
290
100
AcDbEntity
  8
0
 62
     0
100
AcDbLine
 10
-5.876894
 20
-43.0
 30
0.0
 11
0.0
 21
-37.123106
 31
0.0
  0
LINE
  5
291
100
AcDbEntity
  8
0
 62
     0
100
AcDbLine
 10
-12.573593
 20
-55.0
 30
0.0
 11
-5.4
 21
-47.826407
 31
0.0
  0
LINE
  5
292
100
AcDbEntity
  8
0
 62
     0
100
AcDbLine
 10
-0.573593
 20
-43.0
 30
0.0
 11
0.0
 21
-42.426407
 31
0.0
  0
LINE
  5
293
100
AcDbEntity
  8
0
 62
     0
100
AcDbLine
 10
-7.270292
 20
-55.0
 30
0.0
 11
-5.4
 21
-53.129708
 31
0.0
  0
ENDBLK
  5
295
100
AcDbEntity
  8
0
100
AcDbBlockEnd
  0
BLOCK
  5
29D
100
AcDbEntity
  8
0
100
AcDbBlockBegin
  2
90_INF-B12
 70
     0
 10
0.0
 20
0.0
 30
0.0
  3
90_INF-B12
  1

  0
INSERT
  5
277
100
AcDbEntity
  8
FOGNINGB
100
AcDbBlockReference
  2
*X21
 10
0.0
 20
0.0
 30
0.0
1001
ACAD
1000
HATCH
1002
{
1070
    16
1000
ANSI31
1040
30.0
1040
0.0
1002
}
  0
LWPOLYLINE
  5
296
100
AcDbEntity
  8
SPKONTUR
100
AcDbPolyline
 90
        3
 70
     0
 43
0.0
 10
2.0
 20
-15.0
 10
2.0
 20
-45.0
 10
-23.0
 20
-45.0
  0
LWPOLYLINE
  5
297
100
AcDbEntity
  8
STALPROFIL
100
AcDbPolyline
 90
        2
 70
     0
 43
2.0
 10
1.0
 20
-15.0
 10
1.0
 20
-45.0
  0
LWPOLYLINE
  5
298
100
AcDbEntity
  8
STALPROFIL
100
AcDbPolyline
 90
        2
 70
     0
 43
2.0
 10
1.0
 20
-44.0
 10
-23.0
 20
-44.0
  0
LWPOLYLINE
  5
299
100
AcDbEntity
  8
FOGNINGB
100
AcDbPolyline
 90
        2
 70
     0
 43
0.8
 10
-5.4
 20
-45.0
 10
-5.4
 20
-55.0
  0
LINE
  5
29A
100
AcDbEntity
  8
SPKONTUR
100
AcDbLine
 10
-5.0
 20
-45.0
 30
0.0
 11
-5.0
 21
-55.0
 31
0.0
  0
LWPOLYLINE
  5
29B
100
AcDbEntity
  8
FOGNINGB
100
AcDbPolyline
 90
        2
 70
     0
 43
0.8
 10
0.0
 20
-35.4
 10
-102.0
 20
-35.4
  0
LINE
  5
29C
100
AcDbEntity
  8
SPKONTUR
100
AcDbLine
 10
0.0
 20
-35.0
 30
0.0
 11
-102.0
 21
-35.0
 31
0.0
  0
ENDBLK
  5
29E
100
AcDbEntity
  8
0
100
AcDbBlockEnd
  0
BLOCK
  5
59B
100
AcDbEntity
  8
0
100
AcDbBlockBegin
  2
65_INF-B13
 70
     0
 10
0.0
 20
0.0
 30
0.0
  3
65_INF-B13
  1

  0
INSERT
  5
52F
100
AcDbEntity
  8
GLAS_MED_FOGNING
100
AcDbBlockReference
  2
1
 10
-65.0
 20
0.0
 30
0.0
 50
180.0
  0
ENDBLK
  5
59C
100
AcDbEntity
  8
0
100
AcDbBlockEnd
  0
BLOCK
  5
1FF
100
AcDbEntity
  8
0
100
AcDbBlockBegin
  2
90_INF-B13
 70
     0
 10
0.0
 20
0.0
 30
0.0
  3
90_INF-B13
  1

  0
LWPOLYLINE
  5
194
100
AcDbEntity
  8
ISOLERING
100
AcDbPolyline
 90
       74
 70
     0
 43
0.0
 10
-90.0
 20
-44.5
 42
0.459935
 10
-88.023529
 20
-42.194118
 10
-89.476471
 20
-27.805882
 42
-1.166667
 10
-85.523529
 20
-27.805882
 10
-86.976471
 20
-42.194118
 42
1.166667
 10
-83.023529
 20
-42.194118
 10
-84.476471
 20
-27.805882
 42
-1.166667
 10
-80.523529
 20
-27.805882
 10
-81.976471
 20
-42.194118
 42
1.166667
 10
-78.023529
 20
-42.194118
 10
-79.476471
 20
-27.805882
 42
-1.166667
 10
-75.523529
 20
-27.805882
 10
-76.976471
 20
-42.194118
 42
1.166667
 10
-73.023529
 20
-42.194118
 10
-74.476471
 20
-27.805882
 42
-1.166667
 10
-70.523529
 20
-27.805882
 10
-71.976471
 20
-42.194118
 42
1.166667
 10
-68.023529
 20
-42.194118
 10
-69.476471
 20
-27.805882
 42
-1.166667
 10
-65.523529
 20
-27.805882
 10
-66.976471
 20
-42.194118
 42
1.166667
 10
-63.023529
 20
-42.194118
 10
-64.476471
 20
-27.805882
 42
-1.166667
 10
-60.523529
 20
-27.805882
 10
-61.976471
 20
-42.194118
 42
1.166667
 10
-58.023529
 20
-42.194118
 10
-59.476471
 20
-27.805882
 42
-1.166667
 10
-55.523529
 20
-27.805882
 10
-56.976471
 20
-42.194118
 42
1.166667
 10
-53.023529
 20
-42.194118
 10
-54.476471
 20
-27.805882
 42
-1.166667
 10
-50.523529
 20
-27.805882
 10
-51.976471
 20
-42.194118
 42
1.166667
 10
-48.023529
 20
-42.194118
 10
-49.476471
 20
-27.805882
 42
-1.166667
 10
-45.523529
 20
-27.805882
 10
-46.976471
 20
-42.194118
 42
1.166667
 10
-43.023529
 20
-42.194118
 10
-44.476471
 20
-27.805882
 42
-1.166667
 10
-40.523529
 20
-27.805882
 10
-41.976471
 20
-42.194118
 42
1.166667
 10
-38.023529
 20
-42.194118
 10
-39.476471
 20
-27.805882
 42
-1.166667
 10
-35.523529
 20
-27.805882
 10
-36.976471
 20
-42.194118
 42
1.166667
 10
-33.023529
 20
-42.194118
 10
-34.476471
 20
-27.805882
 42
-1.166667
 10
-30.523529
 20
-27.805882
 10
-31.976471
 20
-42.194118
 42
1.166667
 10
-28.023529
 20
-42.194118
 10
-29.476471
 20
-27.805882
 42
-1.166667
 10
-25.523529
 20
-27.805882
 10
-26.976471
 20
-42.194118
 42
1.166667
 10
-23.023529
 20
-42.194118
 10
-24.476471
 20
-27.805882
 42
-1.216051
 10
-20.555065
 20
-27.966078
 10
-20.958701
 20
-34.650441
 42
1.23341
 10
-18.02459
 20
-34.729508
 10
-18.47541
 20
-27.270492
 42
-1.2
 10
-15.52459
 20
-27.270492
 10
-15.97541
 20
-34.729508
 42
1.2
 10
-13.02459
 20
-34.729508
 10
-13.47541
 20
-27.270492
 42
-1.2
 10
-10.52459
 20
-27.270492
 10
-10.97541
 20
-34.729508
 42
1.2
 10
-8.02459
 20
-34.729508
 10
-8.47541
 20
-27.270492
 42
-1.2
 10
-5.52459
 20
-27.270492
 10
-5.97541
 20
-34.729508
 42
1.2
 10
-3.02459
 20
-34.729508
 10
-3.47541
 20
-27.270492
 42
-1.2
 10
-0.52459
 20
-27.270492
 10
-0.97541
 20
-34.729508
 42
0.368511
 10
0.0
 20
-36.414214
  0
LWPOLYLINE
  5
195
100
AcDbEntity
  8
FOGNINGB
100
AcDbPolyline
 90
        2
 70
     0
 43
0.8
 10
-101.0
 20
-45.4
 10
-17.0
 20
-45.4
  0
LINE
  5
196
100
AcDbEntity
  8
SPKONTUR
100
AcDbLine
 10
-101.0
 20
-45.0
 30
0.0
 11
-17.0
 21
-45.0
 31
0.0
  0
INSERT
  5
197
100
AcDbEntity
  8
FOGNINGB
100
AcDbBlockReference
  2
*X40
 10
0.0
 20
-5.0
 30
0.0
1001
ACAD
1000
HATCH
1002
{
1070
    16
1000
ANSI31
1040
30.0
1040
0.0
1002
}
  0
LINE
  5
1C3
100
AcDbEntity
  8
GLAS_MED_FOGNING
100
AcDbLine
 10
-109.0
 20
-43.0
 30
0.0
 11
-109.0
 21
-64.0
 31
0.0
  0
LINE
  5
1C4
100
AcDbEntity
  8
GLAS_MED_FOGNING
100
AcDbLine
 10
-108.4
 20
-44.6
 30
0.0
 11
-108.4
 21
-65.0
 31
0.0
  0
LINE
  5
1C5
100
AcDbEntity
  8
GLAS_MED_FOGNING
100
AcDbLine
 10
-101.0
 20
-43.0
 30
0.0
 11
-101.0
 21
-64.0
 31
0.0
  0
LINE
  5
1C6
100
AcDbEntity
  8
GLAS_MED_FOGNING
100
AcDbLine
 10
-101.6
 20
-44.6
 30
0.0
 11
-101.6
 21
-65.0
 31
0.0
  0
LINE
  5
1C7
100
AcDbEntity
  8
CENTRUM
100
AcDbLine
 10
-105.0
 20
-27.0
 30
0.0
 11
-105.0
 21
-71.0
 31
0.0
  0
LINE
  5
1C8
100
AcDbEntity
  8
GLAS_MED_FOGNING
100
AcDbLine
 10
-101.6
 20
-65.0
 30
0.0
 11
-105.0
 21
-67.042926
 31
0.0
  0
LINE
  5
1C9
100
AcDbEntity
  8
GLAS_MED_FOGNING
100
AcDbLine
 10
-109.0
 20
-62.4
 30
0.0
 11
-101.0
 21
-62.4
 31
0.0
  0
LINE
  5
1CA
100
AcDbEntity
  8
GLAS_MED_FOGNING
100
AcDbLine
 10
-108.4
 20
-63.0
 30
0.0
 11
-101.6
 21
-63.0
 31
0.0
  0
LINE
  5
1CB
100
AcDbEntity
  8
GLAS_MED_FOGNING
100
AcDbLine
 10
-109.0
 20
-64.0
 30
0.0
 11
-108.4
 21
-64.6
 31
0.0
  0
LINE
  5
1CC
100
AcDbEntity
  8
GLAS_MED_FOGNING
100
AcDbLine
 10
-109.0
 20
-62.4
 30
0.0
 11
-108.4
 21
-63.0
 31
0.0
  0
LINE
  5
1CD
100
AcDbEntity
  8
GLAS_MED_FOGNING
100
AcDbLine
 10
-108.4
 20
-65.0
 30
0.0
 11
-105.0
 21
-67.042926
 31
0.0
  0
LINE
  5
1CE
100
AcDbEntity
  8
GLAS_MED_FOGNING
100
AcDbLine
 10
-101.0
 20
-64.0
 30
0.0
 11
-101.6
 21
-64.6
 31
0.0
  0
LINE
  5
1CF
100
AcDbEntity
  8
GLAS_MED_FOGNING
100
AcDbLine
 10
-101.0
 20
-62.4
 30
0.0
 11
-101.6
 21
-63.0
 31
0.0
  0
LWPOLYLINE
  5
1D0
100
AcDbEntity
  8
FOGNINGB
100
AcDbPolyline
 90
        2
 70
     0
 43
0.8
 10
-127.0
 20
-45.4
 10
-109.0
 20
-45.4
  0
LINE
  5
1D1
100
AcDbEntity
  8
SPKONTUR
100
AcDbLine
 10
-127.0
 20
-45.0
 30
0.0
 11
-109.0
 21
-45.0
 31
0.0
  0
LWPOLYLINE
  5
1D2
100
AcDbEntity
  8
SPKONTUR
100
AcDbPolyline
 90
        3
 70
     0
 43
0.0
 10
-90.0
 20
-5.0
 10
-90.0
 20
-45.0
 10
-100.5
 20
-45.0
  0
LWPOLYLINE
  5
1D3
100
AcDbEntity
  8
STALPROFIL
100
AcDbPolyline
 90
        2
 70
     0
 43
2.0
 10
-91.0
 20
-5.0
 10
-91.0
 20
-45.0
  0
LWPOLYLINE
  5
1D4
100
AcDbEntity
  8
STALPROFIL
100
AcDbPolyline
 90
        2
 70
     0
 43
2.0
 10
-109.5
 20
-44.0
 10
-115.0
 20
-44.0
  0
LWPOLYLINE
  5
1D5
100
AcDbEntity
  8
STALPROFIL
100
AcDbPolyline
 90
        2
 70
     0
 43
2.0
 10
-91.0
 20
-44.0
 10
-100.5
 20
-44.0
  0
LINE
  5
1D6
100
AcDbEntity
  8
GLAS_MED_FOGNING
100
AcDbLine
 10
-109.0
 20
-44.0
 30
0.0
 11
-108.4
 21
-44.6
 31
0.0
  0
LINE
  5
1D7
100
AcDbEntity
  8
FOGNINGB
100
AcDbLine
 10
-109.0
 20
-45.0
 30
0.0
 11
-108.4
 21
-45.6
 31
0.0
  0
LWPOLYLINE
  5
1D8
100
AcDbEntity
  8
SPKONTUR
100
AcDbPolyline
 90
        2
 70
     0
 43
0.0
 10
-109.5
 20
-45.0
 10
-115.0
 20
-45.0
  0
LINE
  5
1D9
100
AcDbEntity
  8
GLAS_MED_FOGNING
100
AcDbLine
 10
-101.0
 20
-44.0
 30
0.0
 11
-101.6
 21
-44.6
 31
0.0
  0
LINE
  5
1DA
100
AcDbEntity
  8
FOGNINGB
100
AcDbLine
 10
-101.0
 20
-45.0
 30
0.0
 11
-101.6
 21
-45.6
 31
0.0
  0
LINE
  5
1DB
100
AcDbEntity
  8
GLAS_MED_FOGNING
100
AcDbLine
 10
-112.505553
 20
-43.0
 30
0.0
 11
-97.494447
 21
-43.0
 31
0.0
  0
LINE
  5
1DC
100
AcDbEntity
  8
GLAS_MED_FOGNING
100
AcDbLine
 10
-112.505553
 20
-37.0
 30
0.0
 11
-97.494447
 21
-37.0
 31
0.0
  0
LINE
  5
1DD
100
AcDbEntity
  8
GLAS_MED_FOGNING
100
AcDbLine
 10
-108.752777
 20
-43.0
 30
0.0
 11
-108.752777
 21
-37.0
 31
0.0
  0
LINE
  5
1DE
100
AcDbEntity
  8
GLAS_MED_FOGNING
100
AcDbLine
 10
-112.505553
 20
-43.0
 30
0.0
 11
-112.505553
 21
-37.0
 31
0.0
  0
LINE
  5
1DF
100
AcDbEntity
  8
GLAS_MED_FOGNING
100
AcDbLine
 10
-97.494447
 20
-43.0
 30
0.0
 11
-97.494447
 21
-37.0
 31
0.0
  0
LINE
  5
1E0
100
AcDbEntity
  8
GLAS_MED_FOGNING
100
AcDbLine
 10
-101.247223
 20
-43.0
 30
0.0
 11
-101.247223
 21
-37.0
 31
0.0
  0
LINE
  5
1E1
100
AcDbEntity
  8
GLAS_MED_FOGNING
100
AcDbLine
 10
-9.0
 20
-43.0
 30
0.0
 11
-9.0
 21
-64.0
 31
0.0
  0
LINE
  5
1E2
100
AcDbEntity
  8
GLAS_MED_FOGNING
100
AcDbLine
 10
-9.6
 20
-44.6
 30
0.0
 11
-9.6
 21
-65.0
 31
0.0
  0
LINE
  5
1E3
100
AcDbEntity
  8
GLAS_MED_FOGNING
100
AcDbLine
 10
-17.0
 20
-43.0
 30
0.0
 11
-17.0
 21
-64.0
 31
0.0
  0
LINE
  5
1E4
100
AcDbEntity
  8
GLAS_MED_FOGNING
100
AcDbLine
 10
-16.4
 20
-44.6
 30
0.0
 11
-16.4
 21
-65.0
 31
0.0
  0
LINE
  5
1E5
100
AcDbEntity
  8
CENTRUM
100
AcDbLine
 10
-13.0
 20
-27.0
 30
0.0
 11
-13.0
 21
-71.0
 31
0.0
  0
LINE
  5
1E6
100
AcDbEntity
  8
GLAS_MED_FOGNING
100
AcDbLine
 10
-9.6
 20
-65.0
 30
0.0
 11
-13.0
 21
-67.042926
 31
0.0
  0
LINE
  5
1E7
100
AcDbEntity
  8
GLAS_MED_FOGNING
100
AcDbLine
 10
-16.4
 20
-63.0
 30
0.0
 11
-9.6
 21
-63.0
 31
0.0
  0
LINE
  5
1E8
100
AcDbEntity
  8
GLAS_MED_FOGNING
100
AcDbLine
 10
-17.0
 20
-62.4
 30
0.0
 11
-9.0
 21
-62.4
 31
0.0
  0
LINE
  5
1E9
100
AcDbEntity
  8
GLAS_MED_FOGNING
100
AcDbLine
 10
-17.0
 20
-64.0
 30
0.0
 11
-16.4
 21
-64.6
 31
0.0
  0
LINE
  5
1EA
100
AcDbEntity
  8
GLAS_MED_FOGNING
100
AcDbLine
 10
-17.0
 20
-62.4
 30
0.0
 11
-16.4
 21
-63.0
 31
0.0
  0
LINE
  5
1EB
100
AcDbEntity
  8
GLAS_MED_FOGNING
100
AcDbLine
 10
-16.4
 20
-65.0
 30
0.0
 11
-13.0
 21
-67.042926
 31
0.0
  0
LINE
  5
1EC
100
AcDbEntity
  8
GLAS_MED_FOGNING
100
AcDbLine
 10
-9.0
 20
-64.0
 30
0.0
 11
-9.6
 21
-64.6
 31
0.0
  0
LINE
  5
1ED
100
AcDbEntity
  8
GLAS_MED_FOGNING
100
AcDbLine
 10
-9.0
 20
-62.4
 30
0.0
 11
-9.6
 21
-63.0
 31
0.0
  0
LINE
  5
1EE
100
AcDbEntity
  8
GLAS_MED_FOGNING
100
AcDbLine
 10
-20.505553
 20
-43.0
 30
0.0
 11
-5.494447
 21
-43.0
 31
0.0
  0
LINE
  5
1EF
100
AcDbEntity
  8
GLAS_MED_FOGNING
100
AcDbLine
 10
-20.505553
 20
-37.0
 30
0.0
 11
-5.494447
 21
-37.0
 31
0.0
  0
LWPOLYLINE
  5
1F0
100
AcDbEntity
  8
STALPROFIL
100
AcDbPolyline
 90
        2
 70
     0
 43
2.0
 10
-17.5
 20
-44.0
 10
-23.0
 20
-44.0
  0
LINE
  5
1F1
100
AcDbEntity
  8
GLAS_MED_FOGNING
100
AcDbLine
 10
-17.0
 20
-44.0
 30
0.0
 11
-16.4
 21
-44.6
 31
0.0
  0
LINE
  5
1F2
100
AcDbEntity
  8
FOGNINGB
100
AcDbLine
 10
-17.0
 20
-45.0
 30
0.0
 11
-16.4
 21
-45.6
 31
0.0
  0
LWPOLYLINE
  5
1F3
100
AcDbEntity
  8
SPKONTUR
100
AcDbPolyline
 90
        2
 70
     0
 43
0.0
 10
-17.5
 20
-45.0
 10
-23.0
 20
-45.0
  0
LINE
  5
1F4
100
AcDbEntity
  8
GLAS_MED_FOGNING
100
AcDbLine
 10
-20.505553
 20
-43.0
 30
0.0
 11
-20.505553
 21
-37.0
 31
0.0
  0
LINE
  5
1F5
100
AcDbEntity
  8
GLAS_MED_FOGNING
100
AcDbLine
 10
-16.752777
 20
-43.0
 30
0.0
 11
-16.752777
 21
-37.0
 31
0.0
  0
LWPOLYLINE
  5
1F6
100
AcDbEntity
  8
SPKONTUR
100
AcDbPolyline
 90
        3
 70
     0
 43
0.0
 10
2.0
 20
-5.0
 10
2.0
 20
-45.0
 10
-8.5
 20
-45.0
  0
LWPOLYLINE
  5
1F7
100
AcDbEntity
  8
STALPROFIL
100
AcDbPolyline
 90
        2
 70
     0
 43
2.0
 10
1.0
 20
-5.0
 10
1.0
 20
-45.0
  0
LWPOLYLINE
  5
1F8
100
AcDbEntity
  8
STALPROFIL
100
AcDbPolyline
 90
        2
 70
     0
 43
2.0
 10
1.0
 20
-44.0
 10
-8.5
 20
-44.0
  0
LWPOLYLINE
  5
1F9
100
AcDbEntity
  8
FOGNINGB
100
AcDbPolyline
 90
        2
 70
     0
 43
0.8
 10
-9.0
 20
-45.4
 10
12.0
 20
-45.4
  0
LINE
  5
1FA
100
AcDbEntity
  8
SPKONTUR
100
AcDbLine
 10
-9.0
 20
-45.0
 30
0.0
 11
12.0
 21
-45.0
 31
0.0
  0
LINE
  5
1FB
100
AcDbEntity
  8
GLAS_MED_FOGNING
100
AcDbLine
 10
-9.0
 20
-44.0
 30
0.0
 11
-9.6
 21
-44.6
 31
0.0
  0
LINE
  5
1FC
100
AcDbEntity
  8
FOGNINGB
100
AcDbLine
 10
-9.0
 20
-45.0
 30
0.0
 11
-9.6
 21
-45.6
 31
0.0
  0
LINE
  5
1FD
100
AcDbEntity
  8
GLAS_MED_FOGNING
100
AcDbLine
 10
-5.494447
 20
-43.0
 30
0.0
 11
-5.494447
 21
-37.0
 31
0.0
  0
LINE
  5
1FE
100
AcDbEntity
  8
GLAS_MED_FOGNING
100
AcDbLine
 10
-9.247223
 20
-43.0
 30
0.0
 11
-9.247223
 21
-37.0
 31
0.0
  0
ENDBLK
  5
200
100
AcDbEntity
  8
0
100
AcDbBlockEnd
  0
BLOCK
  5
18D
100
AcDbEntity
  8
0
100
AcDbBlockBegin
  2
65_INF-B15
 70
     0
 10
0.0
 20
0.0
 30
0.0
  3
65_INF-B15
  1

  0
INSERT
  5
E4
100
AcDbEntity
  8
GLAS_MED_FOGNING
100
AcDbBlockReference
  2
2
 10
5.0
 20
0.0
 30
0.0
  0
ENDBLK
  5
18E
100
AcDbEntity
  8
0
100
AcDbBlockEnd
  0
BLOCK
  5
E0
100
AcDbEntity
  8
0
100
AcDbBlockBegin
  2
90_INF-B15
 70
     0
 10
0.0
 20
0.0
 30
0.0
  3
90_INF-B15
  1

  0
ARC
  5
33
100
AcDbEntity
  8
GLAS_MED_FOGNING
100
AcDbCircle
 10
35.0
 20
-0.339556
 30
6.427876
 40
3.0
210
-0.6427876096865396
220
0.0
230
-0.7660444431189781
100
AcDbArc
 50
0.0
 51
90.0
  0
ARC
  5
34
100
AcDbEntity
  8
GLAS_MED_FOGNING
100
AcDbCircle
 10
35.0
 20
-15.660444
 30
6.427876
 40
3.0
210
-0.6427876096865394
220
0.0
230
0.7660444431189783
100
AcDbArc
 50
0.0
 51
90.0
  0
ARC
  5
35
100
AcDbEntity
  8
GLAS_MED_FOGNING
100
AcDbCircle
 10
35.0
 20
-3.0
 30
8.660254
 40
3.0
210
-0.8660254037844387
220
0.0
230
-0.5
100
AcDbArc
 50
0.0
 51
90.0
  0
ARC
  5
36
100
AcDbEntity
  8
GLAS_MED_FOGNING
100
AcDbCircle
 10
35.0
 20
-13.0
 30
8.660254
 40
3.0
210
-0.8660254037844385
220
0.0
230
0.5000000000000002
100
AcDbArc
 50
0.0
 51
90.0
  0
ARC
  5
37
100
AcDbEntity
  8
GLAS_MED_FOGNING
100
AcDbCircle
 10
35.0
 20
-6.263518
 30
9.848078
 40
3.0
210
-0.9848077530122081
220
0.0
230
-0.1736481776669302
100
AcDbArc
 50
0.0
 51
90.0
  0
ARC
  5
38
100
AcDbEntity
  8
GLAS_MED_FOGNING
100
AcDbCircle
 10
35.0
 20
-9.736482
 30
9.848078
 40
3.0
210
-0.9848077530122083
220
0.0
230
0.1736481776669302
100
AcDbArc
 50
0.0
 51
90.0
  0
ARC
  5
39
100
AcDbEntity
  8
GLAS_MED_FOGNING
100
AcDbCircle
 10
35.0
 20
1.396926
 30
3.420201
 40
3.0
210
-0.3420201433256688
220
0.0
230
-0.9396926207859085
100
AcDbArc
 50
0.0
 51
90.0
  0
ARC
  5
3A
100
AcDbEntity
  8
GLAS_MED_FOGNING
100
AcDbCircle
 10
35.0
 20
-17.396926
 30
3.420201
 40
3.0
210
-0.3420201433256687
220
0.0
230
0.9396926207859085
100
AcDbArc
 50
0.0
 51
90.0
  0
LINE
  5
3B
100
AcDbEntity
  8
SPKONTUR
100
AcDbLine
 10
24.0
 20
-40.0
 30
0.0
 11
-114.0
 21
-40.0
 31
0.0
  0
INSERT
  5
3D
100
AcDbEntity
  8
FOGNINGB
100
AcDbBlockReference
  2
*X43
 10
0.0
 20
0.0
 30
0.0
1001
ACAD
1000
HATCH
1002
{
1070
    16
1000
ANSI31
1040
30.0
1040
0.0
1002
}
  0
LWPOLYLINE
  5
5E
100
AcDbEntity
  8
FOGNINGB
100
AcDbPolyline
 90
        2
 70
     0
 43
0.8
 10
24.0
 20
-40.4
 10
-114.0
 20
-40.4
  0
ARC
  5
5F
100
AcDbEntity
  8
GLAS_MED_FOGNING
100
AcDbCircle
 10
-2.0
 20
-35.0
 30
0.0
 40
3.0
100
AcDbArc
 50
180.0
 51
270.0
  0
INSERT
  5
60
100
AcDbEntity
  8
GLAS_MED_FOGNING
100
AcDbBlockReference
  2
*X42
 10
0.0
 20
0.0
 30
0.0
1001
ACAD
1000
HATCH
1002
{
1070
    16
1000
AR-SAND
1040
2.0
1040
0.0
1002
}
  0
ARC
  5
98
100
AcDbEntity
  8
GLAS_MED_FOGNING
100
AcDbCircle
 10
17.609845
 20
-23.135825
 30
0.0
 40
17.62132
100
AcDbArc
 50
177.932165
 51
253.14319
  0
ARC
  5
99
100
AcDbEntity
  8
GLAS_MED_FOGNING
100
AcDbCircle
 10
-18.0
 20
-35.0
 30
0.0
 40
3.0
100
AcDbArc
 50
270.0
 51
0.0
  0
LINE
  5
9A
100
AcDbEntity
  8
GLAS_MED_FOGNING
100
AcDbLine
 10
-83.0
 20
-25.0
 30
0.0
 11
-83.0
 21
-40.0
 31
0.0
  0
INSERT
  5
9B
100
AcDbEntity
  8
GLAS_MED_FOGNING
100
AcDbBlockReference
  2
*X41
 10
-25.0
 20
0.0
 30
0.0
1001
ACAD
1000
HATCH
1002
{
1070
    16
1000
AR-SAND
1040
2.0
1040
0.0
1002
}
  0
ARC
  5
D6
100
AcDbEntity
  8
GLAS_MED_FOGNING
100
AcDbCircle
 10
-107.609845
 20
-23.135825
 30
0.0
 40
17.62132
100
AcDbArc
 50
286.85681
 51
2.067835
  0
LWPOLYLINE
  5
D7
100
AcDbEntity
  8
STALPROFIL
100
AcDbPolyline
 90
        2
 70
     0
 43
2.0
 10
0.0
 20
-39.0
 10
-90.0
 20
-39.0
  0
LINE
  5
D9
100
AcDbEntity
  8
CENTRUM
100
AcDbLine
 10
-10.0
 20
-5.0
 30
0.0
 11
-10.0
 21
-45.0
 31
0.0
  0
LINE
  5
DB
100
AcDbEntity
  8
SPKONTUR
100
AcDbLine
 10
0.0
 20
-40.0
 30
0.0
 11
-90.0
 21
-40.0
 31
0.0
  0
LWPOLYLINE
  5
DC
100
AcDbEntity
  8
ISOLERING
100
AcDbPolyline
 90
       56
 70
     0
 43
0.0
 10
-83.0
 20
-37.436492
 42
0.538866
 10
-80.523529
 20
-35.194118
 10
-81.976471
 20
-27.805882
 42
-1.166667
 10
-78.023529
 20
-27.805882
 10
-79.476471
 20
-35.194118
 42
1.166667
 10
-75.523529
 20
-35.194118
 10
-76.976471
 20
-27.805882
 42
-1.166667
 10
-73.023529
 20
-27.805882
 10
-74.476471
 20
-35.194118
 42
1.166667
 10
-70.523529
 20
-35.194118
 10
-71.976471
 20
-27.805882
 42
-1.166667
 10
-68.023529
 20
-27.805882
 10
-69.476471
 20
-35.194118
 42
1.166667
 10
-65.523529
 20
-35.194118
 10
-66.976471
 20
-27.805882
 42
-1.166667
 10
-63.023529
 20
-27.805882
 10
-64.476471
 20
-35.194118
 42
1.166667
 10
-60.523529
 20
-35.194118
 10
-61.976471
 20
-27.805882
 42
-1.166667
 10
-58.023529
 20
-27.805882
 10
-59.476471
 20
-35.194118
 42
1.166667
 10
-55.523529
 20
-35.194118
 10
-56.976471
 20
-27.805882
 42
-1.166667
 10
-53.023529
 20
-27.805882
 10
-54.476471
 20
-35.194118
 42
1.166667
 10
-50.523529
 20
-35.194118
 10
-51.976471
 20
-27.805882
 42
-1.166667
 10
-48.023529
 20
-27.805882
 10
-49.476471
 20
-35.194118
 42
1.166667
 10
-45.523529
 20
-35.194118
 10
-46.976471
 20
-27.805882
 42
-1.166667
 10
-43.023529
 20
-27.805882
 10
-44.476471
 20
-35.194118
 42
1.166667
 10
-40.523529
 20
-35.194118
 10
-41.976471
 20
-27.805882
 42
-1.166667
 10
-38.023529
 20
-27.805882
 10
-39.476471
 20
-35.194118
 42
1.166667
 10
-35.523529
 20
-35.194118
 10
-36.976471
 20
-27.805882
 42
-1.166667
 10
-33.023529
 20
-27.805882
 10
-34.476471
 20
-35.194118
 42
1.166667
 10
-30.523529
 20
-35.194118
 10
-31.976471
 20
-27.805882
 42
-1.166667
 10
-28.023529
 20
-27.805882
 10
-29.476471
 20
-35.194118
 42
1.166667
 10
-25.523529
 20
-35.194118
 10
-26.976471
 20
-27.805882
 42
-1.166667
 10
-23.023529
 20
-27.805882
 10
-24.476471
 20
-35.194118
 42
1.166667
 10
-20.523529
 20
-35.194118
 10
-21.976471
 20
-27.805882
 42
-1.166667
 10
-18.023529
 20
-27.805882
 10
-19.476471
 20
-35.194118
 42
1.166667
 10
-15.523529
 20
-35.194118
 10
-16.976471
 20
-27.805882
 42
-0.459935
 10
-15.0
 20
-25.5
  0
LINE
  5
DE
100
AcDbEntity
  8
GLAS_MED_FOGNING
100
AcDbLine
 10
-15.0
 20
-6.0
 30
0.0
 11
-5.0
 21
-6.0
 31
0.0
  0
LWPOLYLINE
  5
DF
100
AcDbEntity
  8
GLAS_MED_FOGNING
100
AcDbPolyline
 90
        6
 70
     1
 43
0.0
 10
-15.0
 20
-6.0
 10
-15.0
 20
-35.0
 10
-5.0
 20
-35.0
 10
-5.0
 20
-6.0
 10
-6.0
 20
-5.0
 10
-14.0
 20
-5.0
  0
ENDBLK
  5
E1
100
AcDbEntity
  8
0
100
AcDbBlockEnd
  0
BLOCK
  5
5B4
100
AcDbEntity
  8
0
100
AcDbBlockBegin
  2
*X27
 70
     1
 10
0.0
 20
0.0
 30
0.0
  3
*X27
  1

  0
LINE
  5
5A3
100
AcDbEntity
  8
0
 62
     0
100
AcDbLine
 10
-32.876894
 20
-70.0
 30
0.0
 11
-18.276894
 21
-55.4
 31
0.0
  0
LINE
  5
5A4
100
AcDbEntity
  8
0
 62
     0
100
AcDbLine
 10
-38.180195
 20
-70.0
 30
0.0
 11
-23.580195
 21
-55.4
 31
0.0
  0
LINE
  5
5A5
100
AcDbEntity
  8
0
 62
     0
100
AcDbLine
 10
-43.483496
 20
-70.0
 30
0.0
 11
-28.883496
 21
-55.4
 31
0.0
  0
LINE
  5
5A6
100
AcDbEntity
  8
0
 62
     0
100
AcDbLine
 10
-48.786797
 20
-70.0
 30
0.0
 11
-34.186797
 21
-55.4
 31
0.0
  0
LINE
  5
5A7
100
AcDbEntity
  8
0
 62
     0
100
AcDbLine
 10
-54.090097
 20
-70.0
 30
0.0
 11
-39.490097
 21
-55.4
 31
0.0
  0
LINE
  5
5A8
100
AcDbEntity
  8
0
 62
     0
100
AcDbLine
 10
-59.393398
 20
-70.0
 30
0.0
 11
-44.793398
 21
-55.4
 31
0.0
  0
LINE
  5
5A9
100
AcDbEntity
  8
0
 62
     0
100
AcDbLine
 10
-62.0
 20
-67.303301
 30
0.0
 11
-50.096699
 21
-55.4
 31
0.0
  0
LINE
  5
5AA
100
AcDbEntity
  8
0
 62
     0
100
AcDbLine
 10
-62.0
 20
-62.0
 30
0.0
 11
-55.4
 21
-55.4
 31
0.0
  0
LINE
  5
5AB
100
AcDbEntity
  8
0
 62
     0
100
AcDbLine
 10
-62.0
 20
-56.696699
 30
0.0
 11
-60.703301
 21
-55.4
 31
0.0
  0
LINE
  5
5AC
100
AcDbEntity
  8
0
 62
     0
100
AcDbLine
 10
-27.573593
 20
-70.0
 30
0.0
 11
-12.973593
 21
-55.4
 31
0.0
  0
LINE
  5
5AD
100
AcDbEntity
  8
0
 62
     0
100
AcDbLine
 10
-22.270292
 20
-70.0
 30
0.0
 11
-7.670292
 21
-55.4
 31
0.0
  0
LINE
  5
5AE
100
AcDbEntity
  8
0
 62
     0
100
AcDbLine
 10
-16.966991
 20
-70.0
 30
0.0
 11
-2.366991
 21
-55.4
 31
0.0
  0
LINE
  5
5AF
100
AcDbEntity
  8
0
 62
     0
100
AcDbLine
 10
-11.663691
 20
-70.0
 30
0.0
 11
2.936309
 21
-55.4
 31
0.0
  0
LINE
  5
5B0
100
AcDbEntity
  8
0
 62
     0
100
AcDbLine
 10
-6.36039
 20
-70.0
 30
0.0
 11
8.23961
 21
-55.4
 31
0.0
  0
LINE
  5
5B1
100
AcDbEntity
  8
0
 62
     0
100
AcDbLine
 10
-1.057089
 20
-70.0
 30
0.0
 11
12.0
 21
-56.942911
 31
0.0
  0
LINE
  5
5B2
100
AcDbEntity
  8
0
 62
     0
100
AcDbLine
 10
4.246212
 20
-70.0
 30
0.0
 11
12.0
 21
-62.246212
 31
0.0
  0
LINE
  5
5B3
100
AcDbEntity
  8
0
 62
     0
100
AcDbLine
 10
9.549513
 20
-70.0
 30
0.0
 11
12.0
 21
-67.549513
 31
0.0
  0
ENDBLK
  5
5B5
100
AcDbEntity
  8
0
100
AcDbBlockEnd
  0
BLOCK
  5
5C7
100
AcDbEntity
  8
0
100
AcDbBlockBegin
  2
SLAPLIST
 70
     0
 10
0.0
 20
0.0
 30
0.0
  3
SLAPLIST
  1

  0
INSERT
  5
5A1
100
AcDbEntity
  8
FOGNINGB
100
AcDbBlockReference
  2
*X27
 10
2.008917
 20
17.461901
 30
0.0
  0
LWPOLYLINE
  5
5B6
100
AcDbEntity
  8
FOGNINGB
100
AcDbPolyline
 90
        2
 70
     0
 43
0.8
 10
14.008917
 20
-37.938099
 10
-59.991083
 20
-37.938099
  0
LINE
  5
5B7
100
AcDbEntity
  8
FOGNINGR
100
AcDbLine
 10
-4.973048
 20
-25.0
 30
0.0
 11
-44.973048
 21
-25.0
 31
0.0
  0
LINE
  5
5B8
100
AcDbEntity
  8
FOGNINGR
100
AcDbLine
 10
-41.341207
 20
-25.991966
 30
0.0
 11
-8.60489
 21
-25.991966
 31
0.0
  0
INSERT
  5
5B9
100
AcDbEntity
  8
GLAS_MED_FOGNING
100
AcDbBlockReference
  2
*X29
 10
55.0
 20
-390.0
 30
0.0
1001
ACAD
1000
HATCH
1002
{
1070
    16
1000
ANSI31
1040
10.0
1040
0.0
1002
}
  0
LINE
  5
5BA
100
AcDbEntity
  8
FOGNINGR
100
AcDbLine
 10
-40.111243
 20
-27.991966
 30
0.0
 11
-10.111243
 21
-27.991966
 31
0.0
  0
LWPOLYLINE
  5
5BB
100
AcDbEntity
  8
FOGNINGR
100
AcDbPolyline
 90
        2
 70
     0
 43
2.0
 10
-40.111243
 20
-26.991966
 10
-10.111243
 20
-26.991966
  0
LINE
  5
5BC
100
AcDbEntity
  8
FOGNINGR
100
AcDbLine
 10
-40.111243
 20
-25.991966
 30
0.0
 11
-10.111243
 21
-25.991966
 31
0.0
  0
LINE
  5
5BD
100
AcDbEntity
  8
FOGNINGR
100
AcDbLine
 10
-44.973048
 20
-24.991966
 30
0.0
 11
-44.973048
 21
-37.451966
 31
0.0
  0
LINE
  5
5BE
100
AcDbEntity
  8
FOGNINGR
100
AcDbLine
 10
-43.515104
 20
-37.473953
 30
0.0
 11
-42.051642
 21
-26.607216
 31
0.0
  0
ARC
  5
5BF
100
AcDbEntity
  8
FOGNINGR
100
AcDbCircle
 10
-44.240739
 20
-37.241692
 30
0.0
 40
0.7619
100
AcDbArc
 50
196.020761
 51
342.251185
  0
ARC
  5
5C0
100
AcDbEntity
  8
FOGNINGR
100
AcDbCircle
 10
-41.200929
 20
-26.871744
 30
0.0
 40
0.890891
100
AcDbArc
 50
99.059383
 51
162.726982
  0
LINE
  5
5C1
100
AcDbEntity
  8
FOGNINGR
100
AcDbLine
 10
-40.111243
 20
-25.991966
 30
0.0
 11
-40.111243
 21
-27.991966
 31
0.0
  0
LINE
  5
5C2
100
AcDbEntity
  8
FOGNINGR
100
AcDbLine
 10
-6.387388
 20
-37.471643
 30
0.0
 11
-7.878239
 21
-26.587557
 31
0.0
  0
LINE
  5
5C3
100
AcDbEntity
  8
FOGNINGR
100
AcDbLine
 10
-4.973458
 20
-37.562003
 30
0.0
 11
-4.973048
 21
-24.991966
 31
0.0
  0
ARC
  5
5C4
100
AcDbEntity
  8
FOGNINGR
100
AcDbCircle
 10
-5.662537
 20
-37.236948
 30
0.0
 40
0.7619
100
AcDbArc
 50
197.941131
 51
334.745596
  0
ARC
  5
5C5
100
AcDbEntity
  8
FOGNINGR
100
AcDbCircle
 10
-8.780168
 20
-26.946884
 30
0.0
 40
0.970871
100
AcDbArc
 50
21.722212
 51
79.598945
  0
LINE
  5
5C6
100
AcDbEntity
  8
FOGNINGR
100
AcDbLine
 10
-10.111243
 20
-25.991966
 30
0.0
 11
-10.111243
 21
-27.991966
 31
0.0
  0
ENDBLK
  5
5C8
100
AcDbEntity
  8
0
100
AcDbBlockEnd
  0
BLOCK
  5
2E9
100
AcDbEntity
  8
0
100
AcDbBlockBegin
  2
*X29
 70
     1
 10
0.0
 20
0.0
 30
0.0
  3
*X29
  1

  0
LINE
  5
2C6
100
AcDbEntity
  8
0
 62
     0
100
AcDbLine
 10
-74.39817
 20
364.008034
 30
0.0
 11
-73.406204
 21
365.0
 31
0.0
  0
LINE
  5
2C7
100
AcDbEntity
  8
0
 62
     0
100
AcDbLine
 10
-76.165937
 20
364.008034
 30
0.0
 11
-75.173971
 21
365.0
 31
0.0
  0
LINE
  5
2C8
100
AcDbEntity
  8
0
 62
     0
100
AcDbLine
 10
-77.933704
 20
364.008034
 30
0.0
 11
-76.941738
 21
365.0
 31
0.0
  0
LINE
  5
2C9
100
AcDbEntity
  8
0
 62
     0
100
AcDbLine
 10
-79.701471
 20
364.008034
 30
0.0
 11
-78.709505
 21
365.0
 31
0.0
  0
LINE
  5
2CA
100
AcDbEntity
  8
0
 62
     0
100
AcDbLine
 10
-81.469238
 20
364.008034
 30
0.0
 11
-80.477272
 21
365.0
 31
0.0
  0
LINE
  5
2CB
100
AcDbEntity
  8
0
 62
     0
100
AcDbLine
 10
-83.237005
 20
364.008034
 30
0.0
 11
-82.245039
 21
365.0
 31
0.0
  0
LINE
  5
2CC
100
AcDbEntity
  8
0
 62
     0
100
AcDbLine
 10
-85.004772
 20
364.008034
 30
0.0
 11
-84.012806
 21
365.0
 31
0.0
  0
LINE
  5
2CD
100
AcDbEntity
  8
0
 62
     0
100
AcDbLine
 10
-86.772539
 20
364.008034
 30
0.0
 11
-85.780573
 21
365.0
 31
0.0
  0
LINE
  5
2CE
100
AcDbEntity
  8
0
 62
     0
100
AcDbLine
 10
-99.973048
 20
352.575292
 30
0.0
 11
-98.280536
 21
354.267804
 31
0.0
  0
LINE
  5
2CF
100
AcDbEntity
  8
0
 62
     0
100
AcDbLine
 10
-88.540306
 20
364.008034
 30
0.0
 11
-87.54834
 21
365.0
 31
0.0
  0
LINE
  5
2D0
100
AcDbEntity
  8
0
 62
     0
100
AcDbLine
 10
-99.973048
 20
354.343059
 30
0.0
 11
-98.005412
 21
356.310695
 31
0.0
  0
LINE
  5
2D1
100
AcDbEntity
  8
0
 62
     0
100
AcDbLine
 10
-90.308073
 20
364.008034
 30
0.0
 11
-89.316107
 21
365.0
 31
0.0
  0
LINE
  5
2D2
100
AcDbEntity
  8
0
 62
     0
100
AcDbLine
 10
-99.973048
 20
356.110825
 30
0.0
 11
-97.730289
 21
358.353585
 31
0.0
  0
LINE
  5
2D3
100
AcDbEntity
  8
0
 62
     0
100
AcDbLine
 10
-92.07584
 20
364.008034
 30
0.0
 11
-91.083874
 21
365.0
 31
0.0
  0
LINE
  5
2D4
100
AcDbEntity
  8
0
 62
     0
100
AcDbLine
 10
-99.973048
 20
357.878592
 30
0.0
 11
-97.455165
 21
360.396475
 31
0.0
  0
LINE
  5
2D5
100
AcDbEntity
  8
0
 62
     0
100
AcDbLine
 10
-93.843607
 20
364.008034
 30
0.0
 11
-92.851641
 21
365.0
 31
0.0
  0
LINE
  5
2D6
100
AcDbEntity
  8
0
 62
     0
100
AcDbLine
 10
-99.973048
 20
359.646359
 30
0.0
 11
-97.180042
 21
362.439366
 31
0.0
  0
LINE
  5
2D7
100
AcDbEntity
  8
0
 62
     0
100
AcDbLine
 10
-95.611374
 20
364.008034
 30
0.0
 11
-94.619408
 21
365.0
 31
0.0
  0
LINE
  5
2D8
100
AcDbEntity
  8
0
 62
     0
100
AcDbLine
 10
-99.973048
 20
361.414126
 30
0.0
 11
-96.387175
 21
365.0
 31
0.0
  0
LINE
  5
2D9
100
AcDbEntity
  8
0
 62
     0
100
AcDbLine
 10
-99.973048
 20
363.181893
 30
0.0
 11
-98.154942
 21
365.0
 31
0.0
  0
LINE
  5
2DA
100
AcDbEntity
  8
0
 62
     0
100
AcDbLine
 10
-99.973048
 20
364.94966
 30
0.0
 11
-99.922709
 21
365.0
 31
0.0
  0
LINE
  5
2DB
100
AcDbEntity
  8
0
 62
     0
100
AcDbLine
 10
-72.630403
 20
364.008034
 30
0.0
 11
-71.638437
 21
365.0
 31
0.0
  0
LINE
  5
2DC
100
AcDbEntity
  8
0
 62
     0
100
AcDbLine
 10
-70.862636
 20
364.008034
 30
0.0
 11
-69.87067
 21
365.0
 31
0.0
  0
LINE
  5
2DD
100
AcDbEntity
  8
0
 62
     0
100
AcDbLine
 10
-69.094869
 20
364.008034
 30
0.0
 11
-68.102903
 21
365.0
 31
0.0
  0
LINE
  5
2DE
100
AcDbEntity
  8
0
 62
     0
100
AcDbLine
 10
-67.327102
 20
364.008034
 30
0.0
 11
-66.335137
 21
365.0
 31
0.0
  0
LINE
  5
2DF
100
AcDbEntity
  8
0
 62
     0
100
AcDbLine
 10
-65.559335
 20
364.008034
 30
0.0
 11
-64.56737
 21
365.0
 31
0.0
  0
LINE
  5
2E0
100
AcDbEntity
  8
0
 62
     0
100
AcDbLine
 10
-63.791568
 20
364.008034
 30
0.0
 11
-62.799603
 21
365.0
 31
0.0
  0
LINE
  5
2E1
100
AcDbEntity
  8
0
 62
     0
100
AcDbLine
 10
-62.847055
 20
363.18478
 30
0.0
 11
-61.031836
 21
365.0
 31
0.0
  0
LINE
  5
2E2
100
AcDbEntity
  8
0
 62
     0
100
AcDbLine
 10
-62.634086
 20
361.629982
 30
0.0
 11
-59.973072
 21
364.290997
 31
0.0
  0
LINE
  5
2E3
100
AcDbEntity
  8
0
 62
     0
100
AcDbLine
 10
-62.421117
 20
360.075184
 30
0.0
 11
-59.973129
 21
362.523173
 31
0.0
  0
LINE
  5
2E4
100
AcDbEntity
  8
0
 62
     0
100
AcDbLine
 10
-62.208148
 20
358.520386
 30
0.0
 11
-59.973187
 21
360.755348
 31
0.0
  0
LINE
  5
2E5
100
AcDbEntity
  8
0
 62
     0
100
AcDbLine
 10
-61.995179
 20
356.965588
 30
0.0
 11
-59.973244
 21
358.987524
 31
0.0
  0
LINE
  5
2E6
100
AcDbEntity
  8
0
 62
     0
100
AcDbLine
 10
-61.78221
 20
355.41079
 30
0.0
 11
-59.973302
 21
357.219699
 31
0.0
  0
LINE
  5
2E7
100
AcDbEntity
  8
0
 62
     0
100
AcDbLine
 10
-61.569241
 20
353.855993
 30
0.0
 11
-59.973359
 21
355.451875
 31
0.0
  0
LINE
  5
2E8
100
AcDbEntity
  8
0
 62
     0
100
AcDbLine
 10
-61.304597
 20
352.35287
 30
0.0
 11
-59.973417
 21
353.68405
 31
0.0
  0
ENDBLK
  5
2EA
100
AcDbEntity
  8
0
100
AcDbBlockEnd
  0
BLOCK
  5
555
100
AcDbEntity
  8
0
100
AcDbBlockBegin
  2
*X30
 70
     1
 10
0.0
 20
0.0
 30
0.0
  3
*X30
  1

  0
LINE
  5
533
100
AcDbEntity
  8
0
 62
     0
100
AcDbLine
 10
-64.696699
 20
-70.0
 30
0.0
 11
-35.096699
 21
-40.4
 31
0.0
  0
LINE
  5
534
100
AcDbEntity
  8
0
 62
     0
100
AcDbLine
 10
-70.0
 20
-70.0
 30
0.0
 11
-40.4
 21
-40.4
 31
0.0
  0
LINE
  5
535
100
AcDbEntity
  8
0
 62
     0
100
AcDbLine
 10
-75.303301
 20
-70.0
 30
0.0
 11
-45.703301
 21
-40.4
 31
0.0
  0
LINE
  5
536
100
AcDbEntity
  8
0
 62
     0
100
AcDbLine
 10
-80.606602
 20
-70.0
 30
0.0
 11
-51.006602
 21
-40.4
 31
0.0
  0
LINE
  5
537
100
AcDbEntity
  8
0
 62
     0
100
AcDbLine
 10
-85.909903
 20
-70.0
 30
0.0
 11
-56.309903
 21
-40.4
 31
0.0
  0
LINE
  5
538
100
AcDbEntity
  8
0
 62
     0
100
AcDbLine
 10
-91.213203
 20
-70.0
 30
0.0
 11
-82.033987
 21
-60.820783
 31
0.0
  0
LINE
  5
539
100
AcDbEntity
  8
0
 62
     0
100
AcDbLine
 10
-76.0
 20
-54.786797
 30
0.0
 11
-61.613203
 21
-40.4
 31
0.0
  0
LINE
  5
53A
100
AcDbEntity
  8
0
 62
     0
100
AcDbLine
 10
-96.516504
 20
-70.0
 30
0.0
 11
-84.0
 21
-57.483496
 31
0.0
  0
LINE
  5
53B
100
AcDbEntity
  8
0
 62
     0
100
AcDbLine
 10
-76.0
 20
-49.483496
 30
0.0
 11
-66.916504
 21
-40.4
 31
0.0
  0
LINE
  5
53C
100
AcDbEntity
  8
0
 62
     0
100
AcDbLine
 10
-101.819805
 20
-70.0
 30
0.0
 11
-84.0
 21
-52.180195
 31
0.0
  0
LINE
  5
53D
100
AcDbEntity
  8
0
 62
     0
100
AcDbLine
 10
-76.0
 20
-44.180195
 30
0.0
 11
-72.219805
 21
-40.4
 31
0.0
  0
LINE
  5
53E
100
AcDbEntity
  8
0
 62
     0
100
AcDbLine
 10
-102.0
 20
-64.876894
 30
0.0
 11
-84.0
 21
-46.876894
 31
0.0
  0
LINE
  5
53F
100
AcDbEntity
  8
0
 62
     0
100
AcDbLine
 10
-102.0
 20
-59.573593
 30
0.0
 11
-84.0
 21
-41.573593
 31
0.0
  0
LINE
  5
540
100
AcDbEntity
  8
0
 62
     0
100
AcDbLine
 10
-102.0
 20
-54.270292
 30
0.0
 11
-88.129708
 21
-40.4
 31
0.0
  0
LINE
  5
541
100
AcDbEntity
  8
0
 62
     0
100
AcDbLine
 10
-102.0
 20
-48.966991
 30
0.0
 11
-93.433009
 21
-40.4
 31
0.0
  0
LINE
  5
542
100
AcDbEntity
  8
0
 62
     0
100
AcDbLine
 10
-102.0
 20
-43.663691
 30
0.0
 11
-98.736309
 21
-40.4
 31
0.0
  0
LINE
  5
543
100
AcDbEntity
  8
0
 62
     0
100
AcDbLine
 10
-59.393398
 20
-70.0
 30
0.0
 11
-29.793398
 21
-40.4
 31
0.0
  0
LINE
  5
544
100
AcDbEntity
  8
0
 62
     0
100
AcDbLine
 10
-54.090097
 20
-70.0
 30
0.0
 11
-24.490097
 21
-40.4
 31
0.0
  0
LINE
  5
545
100
AcDbEntity
  8
0
 62
     0
100
AcDbLine
 10
-48.786797
 20
-70.0
 30
0.0
 11
-19.186797
 21
-40.4
 31
0.0
  0
LINE
  5
546
100
AcDbEntity
  8
0
 62
     0
100
AcDbLine
 10
-43.483496
 20
-70.0
 30
0.0
 11
-17.0
 21
-43.516504
 31
0.0
  0
LINE
  5
547
100
AcDbEntity
  8
0
 62
     0
100
AcDbLine
 10
-38.180195
 20
-70.0
 30
0.0
 11
-17.0
 21
-48.819805
 31
0.0
  0
LINE
  5
548
100
AcDbEntity
  8
0
 62
     0
100
AcDbLine
 10
-9.0
 20
-40.819805
 30
0.0
 11
-8.580195
 21
-40.4
 31
0.0
  0
LINE
  5
549
100
AcDbEntity
  8
0
 62
     0
100
AcDbLine
 10
-32.876894
 20
-70.0
 30
0.0
 11
-17.0
 21
-54.123106
 31
0.0
  0
LINE
  5
54A
100
AcDbEntity
  8
0
 62
     0
100
AcDbLine
 10
-9.0
 20
-46.123106
 30
0.0
 11
-3.276894
 21
-40.4
 31
0.0
  0
LINE
  5
54B
100
AcDbEntity
  8
0
 62
     0
100
AcDbLine
 10
-27.573593
 20
-70.0
 30
0.0
 11
-16.786797
 21
-59.213203
 31
0.0
  0
LINE
  5
54C
100
AcDbEntity
  8
0
 62
     0
100
AcDbLine
 10
-9.0
 20
-51.426407
 30
0.0
 11
2.026407
 21
-40.4
 31
0.0
  0
LINE
  5
54D
100
AcDbEntity
  8
0
 62
     0
100
AcDbLine
 10
-22.270292
 20
-70.0
 30
0.0
 11
-13.82032
 21
-61.550028
 31
0.0
  0
LINE
  5
54E
100
AcDbEntity
  8
0
 62
     0
100
AcDbLine
 10
-9.0
 20
-56.729708
 30
0.0
 11
7.329708
 21
-40.4
 31
0.0
  0
LINE
  5
54F
100
AcDbEntity
  8
0
 62
     0
100
AcDbLine
 10
-16.966991
 20
-70.0
 30
0.0
 11
12.0
 21
-41.033009
 31
0.0
  0
LINE
  5
550
100
AcDbEntity
  8
0
 62
     0
100
AcDbLine
 10
-11.663691
 20
-70.0
 30
0.0
 11
12.0
 21
-46.336309
 31
0.0
  0
LINE
  5
551
100
AcDbEntity
  8
0
 62
     0
100
AcDbLine
 10
-6.36039
 20
-70.0
 30
0.0
 11
12.0
 21
-51.63961
 31
0.0
  0
LINE
  5
552
100
AcDbEntity
  8
0
 62
     0
100
AcDbLine
 10
-1.057089
 20
-70.0
 30
0.0
 11
12.0
 21
-56.942911
 31
0.0
  0
LINE
  5
553
100
AcDbEntity
  8
0
 62
     0
100
AcDbLine
 10
4.246212
 20
-70.0
 30
0.0
 11
12.0
 21
-62.246212
 31
0.0
  0
LINE
  5
554
100
AcDbEntity
  8
0
 62
     0
100
AcDbLine
 10
9.549513
 20
-70.0
 30
0.0
 11
12.0
 21
-67.549513
 31
0.0
  0
ENDBLK
  5
556
100
AcDbEntity
  8
0
100
AcDbBlockEnd
  0
BLOCK
  5
186
100
AcDbEntity
  8
0
100
AcDbBlockBegin
  2
*X31
 70
     1
 10
0.0
 20
0.0
 30
0.0
  3
*X31
  1

  0
LINE
  5
14F
100
AcDbEntity
  8
0
 62
     0
100
AcDbLine
 10
-64.709083
 20
-29.901423
 30
0.0
 11
-64.709083
 21
-29.901423
 31
0.0
  0
LINE
  5
150
100
AcDbEntity
  8
0
 62
     0
100
AcDbLine
 10
-62.130685
 20
-27.922948
 30
0.0
 11
-62.130685
 21
-27.922948
 31
0.0
  0
LINE
  5
151
100
AcDbEntity
  8
0
 62
     0
100
AcDbLine
 10
-59.71889
 20
-26.072314
 30
0.0
 11
-59.71889
 21
-26.072314
 31
0.0
  0
LINE
  5
152
100
AcDbEntity
  8
0
 62
     0
100
AcDbLine
 10
-64.83507
 20
-26.047775
 30
0.0
 11
-64.83507
 21
-26.047775
 31
0.0
  0
LINE
  5
153
100
AcDbEntity
  8
0
 62
     0
100
AcDbLine
 10
-72.27069
 20
-39.653969
 30
0.0
 11
-72.27069
 21
-39.653969
 31
0.0
  0
LINE
  5
154
100
AcDbEntity
  8
0
 62
     0
100
AcDbLine
 10
-69.692292
 20
-37.675494
 30
0.0
 11
-69.692292
 21
-37.675494
 31
0.0
  0
LINE
  5
155
100
AcDbEntity
  8
0
 62
     0
100
AcDbLine
 10
-67.280498
 20
-35.824859
 30
0.0
 11
-67.280498
 21
-35.824859
 31
0.0
  0
LINE
  5
156
100
AcDbEntity
  8
0
 62
     0
100
AcDbLine
 10
-64.583096
 20
-33.75507
 30
0.0
 11
-64.583096
 21
-33.75507
 31
0.0
  0
LINE
  5
157
100
AcDbEntity
  8
0
 62
     0
100
AcDbLine
 10
-62.004698
 20
-31.776596
 30
0.0
 11
-62.004698
 21
-31.776596
 31
0.0
  0
LINE
  5
158
100
AcDbEntity
  8
0
 62
     0
100
AcDbLine
 10
-59.592904
 20
-29.925961
 30
0.0
 11
-59.592904
 21
-29.925961
 31
0.0
  0
LINE
  5
159
100
AcDbEntity
  8
0
 62
     0
100
AcDbLine
 10
-67.154511
 20
-39.678507
 30
0.0
 11
-67.154511
 21
-39.678507
 31
0.0
  0
LINE
  5
15A
100
AcDbEntity
  8
0
 62
     0
100
AcDbLine
 10
-64.457109
 20
-37.608718
 30
0.0
 11
-64.457109
 21
-37.608718
 31
0.0
  0
LINE
  5
15B
100
AcDbEntity
  8
0
 62
     0
100
AcDbLine
 10
-61.878711
 20
-35.630243
 30
0.0
 11
-61.878711
 21
-35.630243
 31
0.0
  0
LINE
  5
15C
100
AcDbEntity
  8
0
 62
     0
100
AcDbLine
 10
-59.466917
 20
-33.779609
 30
0.0
 11
-59.466917
 21
-33.779609
 31
0.0
  0
LINE
  5
15D
100
AcDbEntity
  8
0
 62
     0
100
AcDbLine
 10
-59.34093
 20
-37.633256
 30
0.0
 11
-59.34093
 21
-37.633256
 31
0.0
  0
LINE
  5
15E
100
AcDbEntity
  8
0
 62
     0
100
AcDbLine
 10
-63.651141
 20
-29.093036
 30
0.0
 11
-63.651141
 21
-29.093036
 31
0.0
  0
LINE
  5
15F
100
AcDbEntity
  8
0
 62
     0
100
AcDbLine
 10
-62.610124
 20
-28.955984
 30
0.0
 11
-62.610124
 21
-28.955984
 31
0.0
  0
LINE
  5
160
100
AcDbEntity
  8
0
 62
     0
100
AcDbLine
 10
-60.984154
 20
-28.741921
 30
0.0
 11
-60.984154
 21
-28.741921
 31
0.0
  0
LINE
  5
161
100
AcDbEntity
  8
0
 62
     0
100
AcDbLine
 10
-58.267596
 20
-28.384279
 30
0.0
 11
-58.267596
 21
-28.384279
 31
0.0
  0
LINE
  5
162
100
AcDbEntity
  8
0
 62
     0
100
AcDbLine
 10
-67.190695
 20
-34.737328
 30
0.0
 11
-67.190695
 21
-34.737328
 31
0.0
  0
LINE
  5
163
100
AcDbEntity
  8
0
 62
     0
100
AcDbLine
 10
-66.149677
 20
-34.600276
 30
0.0
 11
-66.149677
 21
-34.600276
 31
0.0
  0
LINE
  5
164
100
AcDbEntity
  8
0
 62
     0
100
AcDbLine
 10
-64.523708
 20
-34.386213
 30
0.0
 11
-64.523708
 21
-34.386213
 31
0.0
  0
LINE
  5
165
100
AcDbEntity
  8
0
 62
     0
100
AcDbLine
 10
-61.807149
 20
-34.028571
 30
0.0
 11
-61.807149
 21
-34.028571
 31
0.0
  0
LINE
  5
166
100
AcDbEntity
  8
0
 62
     0
100
AcDbLine
 10
-60.766132
 20
-33.891518
 30
0.0
 11
-60.766132
 21
-33.891518
 31
0.0
  0
LINE
  5
167
100
AcDbEntity
  8
0
 62
     0
100
AcDbLine
 10
-59.140162
 20
-33.677455
 30
0.0
 11
-59.140162
 21
-33.677455
 31
0.0
  0
LINE
  5
168
100
AcDbEntity
  8
0
 62
     0
100
AcDbLine
 10
-65.346702
 20
-39.672863
 30
0.0
 11
-65.346702
 21
-39.672863
 31
0.0
  0
LINE
  5
169
100
AcDbEntity
  8
0
 62
     0
100
AcDbLine
 10
-66.664473
 20
-30.722344
 30
0.0
 11
-66.664473
 21
-30.722344
 31
0.0
  0
LINE
  5
16A
100
AcDbEntity
  8
0
 62
     0
100
AcDbLine
 10
-63.628264
 20
-32.656622
 30
0.0
 11
-63.628264
 21
-32.656622
 31
0.0
  0
LINE
  5
16B
100
AcDbEntity
  8
0
 62
     0
100
AcDbLine
 10
-59.664324
 20
-35.18193
 30
0.0
 11
-59.664324
 21
-35.18193
 31
0.0
  0
LINE
  5
16C
100
AcDbEntity
  8
0
 62
     0
100
AcDbLine
 10
-58.820932
 20
-35.71923
 30
0.0
 11
-58.820932
 21
-35.71923
 31
0.0
  0
LINE
  5
16D
100
AcDbEntity
  8
0
 62
     0
100
AcDbLine
 10
-65.24352
 20
-27.648418
 30
0.0
 11
-65.24352
 21
-27.648418
 31
0.0
  0
LINE
  5
16E
100
AcDbEntity
  8
0
 62
     0
100
AcDbLine
 10
-61.279581
 20
-30.173726
 30
0.0
 11
-61.279581
 21
-30.173726
 31
0.0
  0
LINE
  5
16F
100
AcDbEntity
  8
0
 62
     0
100
AcDbLine
 10
-60.436189
 20
-30.711026
 30
0.0
 11
-60.436189
 21
-30.711026
 31
0.0
  0
LINE
  5
170
100
AcDbEntity
  8
0
 62
     0
100
AcDbLine
 10
-62.894837
 20
-25.165522
 30
0.0
 11
-62.894837
 21
-25.165522
 31
0.0
  0
LINE
  5
171
100
AcDbEntity
  8
0
 62
     0
100
AcDbLine
 10
-62.051446
 20
-25.702821
 30
0.0
 11
-62.051446
 21
-25.702821
 31
0.0
  0
LINE
  5
172
100
AcDbEntity
  8
0
 62
     0
100
AcDbLine
 10
-59.015237
 20
-27.6371
 30
0.0
 11
-59.015237
 21
-27.6371
 31
0.0
  0
LINE
  5
173
100
AcDbEntity
  8
0
 62
     0
100
AcDbLine
 10
-65.892608
 20
-35.193249
 30
0.0
 11
-65.892608
 21
-35.193249
 31
0.0
  0
LINE
  5
174
100
AcDbEntity
  8
0
 62
     0
100
AcDbLine
 10
-65.049216
 20
-35.730548
 30
0.0
 11
-65.049216
 21
-35.730548
 31
0.0
  0
LINE
  5
175
100
AcDbEntity
  8
0
 62
     0
100
AcDbLine
 10
-62.013007
 20
-37.664827
 30
0.0
 11
-62.013007
 21
-37.664827
 31
0.0
  0
LINE
  5
176
100
AcDbEntity
  8
0
 62
     0
100
AcDbLine
 10
-68.241291
 20
-37.676145
 30
0.0
 11
-68.241291
 21
-37.676145
 31
0.0
  0
LINE
  5
177
100
AcDbEntity
  8
0
 62
     0
100
AcDbLine
 10
-64.299901
 20
-30.508965
 30
0.0
 11
-64.299901
 21
-30.508965
 31
0.0
  0
LINE
  5
178
100
AcDbEntity
  8
0
 62
     0
100
AcDbLine
 10
-62.309253
 20
-32.333058
 30
0.0
 11
-62.309253
 21
-32.333058
 31
0.0
  0
LINE
  5
179
100
AcDbEntity
  8
0
 62
     0
100
AcDbLine
 10
-61.940614
 20
-32.670853
 30
0.0
 11
-61.940614
 21
-32.670853
 31
0.0
  0
LINE
  5
17A
100
AcDbEntity
  8
0
 62
     0
100
AcDbLine
 10
-60.200639
 20
-34.265246
 30
0.0
 11
-60.200639
 21
-34.265246
 31
0.0
  0
LINE
  5
17B
100
AcDbEntity
  8
0
 62
     0
100
AcDbLine
 10
-58.209991
 20
-36.08934
 30
0.0
 11
-58.209991
 21
-36.08934
 31
0.0
  0
LINE
  5
17C
100
AcDbEntity
  8
0
 62
     0
100
AcDbLine
 10
-60.396261
 20
-26.821426
 30
0.0
 11
-60.396261
 21
-26.821426
 31
0.0
  0
LINE
  5
17D
100
AcDbEntity
  8
0
 62
     0
100
AcDbLine
 10
-60.027623
 20
-27.159221
 30
0.0
 11
-60.027623
 21
-27.159221
 31
0.0
  0
LINE
  5
17E
100
AcDbEntity
  8
0
 62
     0
100
AcDbLine
 10
-58.287648
 20
-28.753614
 30
0.0
 11
-58.287648
 21
-28.753614
 31
0.0
  0
LINE
  5
17F
100
AcDbEntity
  8
0
 62
     0
100
AcDbLine
 10
-68.321506
 20
-34.088409
 30
0.0
 11
-68.321506
 21
-34.088409
 31
0.0
  0
LINE
  5
180
100
AcDbEntity
  8
0
 62
     0
100
AcDbLine
 10
-67.952867
 20
-34.426204
 30
0.0
 11
-67.952867
 21
-34.426204
 31
0.0
  0
LINE
  5
181
100
AcDbEntity
  8
0
 62
     0
100
AcDbLine
 10
-66.212893
 20
-36.020597
 30
0.0
 11
-66.212893
 21
-36.020597
 31
0.0
  0
LINE
  5
182
100
AcDbEntity
  8
0
 62
     0
100
AcDbLine
 10
-64.222244
 20
-37.844691
 30
0.0
 11
-64.222244
 21
-37.844691
 31
0.0
  0
LINE
  5
183
100
AcDbEntity
  8
0
 62
     0
100
AcDbLine
 10
-72.225146
 20
-37.775948
 30
0.0
 11
-72.225146
 21
-37.775948
 31
0.0
  0
LINE
  5
184
100
AcDbEntity
  8
0
 62
     0
100
AcDbLine
 10
-70.234497
 20
-39.600042
 30
0.0
 11
-70.234497
 21
-39.600042
 31
0.0
  0
LINE
  5
185
100
AcDbEntity
  8
0
 62
     0
100
AcDbLine
 10
-69.865858
 20
-39.937837
 30
0.0
 11
-69.865858
 21
-39.937837
 31
0.0
  0
ENDBLK
  5
187
100
AcDbEntity
  8
0
100
AcDbBlockEnd
  0
BLOCK
  5
14B
100
AcDbEntity
  8
0
100
AcDbBlockBegin
  2
*X32
 70
     1
 10
0.0
 20
0.0
 30
0.0
  3
*X32
  1

  0
LINE
  5
117
100
AcDbEntity
  8
0
 62
     0
100
AcDbLine
 10
-4.267906
 20
-34.877444
 30
0.0
 11
-4.267906
 21
-34.877444
 31
0.0
  0
LINE
  5
118
100
AcDbEntity
  8
0
 62
     0
100
AcDbLine
 10
-1.570505
 20
-32.807655
 30
0.0
 11
-1.570505
 21
-32.807655
 31
0.0
  0
LINE
  5
119
100
AcDbEntity
  8
0
 62
     0
100
AcDbLine
 10
1.007894
 20
-30.82918
 30
0.0
 11
1.007894
 21
-30.82918
 31
0.0
  0
LINE
  5
11A
100
AcDbEntity
  8
0
 62
     0
100
AcDbLine
 10
-4.393893
 20
-31.023796
 30
0.0
 11
-4.393893
 21
-31.023796
 31
0.0
  0
LINE
  5
11B
100
AcDbEntity
  8
0
 62
     0
100
AcDbLine
 10
-1.696491
 20
-28.954007
 30
0.0
 11
-1.696491
 21
-28.954007
 31
0.0
  0
LINE
  5
11C
100
AcDbEntity
  8
0
 62
     0
100
AcDbLine
 10
-4.519879
 20
-27.170149
 30
0.0
 11
-4.519879
 21
-27.170149
 31
0.0
  0
LINE
  5
11D
100
AcDbEntity
  8
0
 62
     0
100
AcDbLine
 10
-1.822478
 20
-25.10036
 30
0.0
 11
-1.822478
 21
-25.10036
 31
0.0
  0
LINE
  5
11E
100
AcDbEntity
  8
0
 62
     0
100
AcDbLine
 10
-1.444518
 20
-36.661302
 30
0.0
 11
-1.444518
 21
-36.661302
 31
0.0
  0
LINE
  5
11F
100
AcDbEntity
  8
0
 62
     0
100
AcDbLine
 10
1.13388
 20
-34.682828
 30
0.0
 11
1.13388
 21
-34.682828
 31
0.0
  0
LINE
  5
120
100
AcDbEntity
  8
0
 62
     0
100
AcDbLine
 10
1.259867
 20
-38.536475
 30
0.0
 11
1.259867
 21
-38.536475
 31
0.0
  0
LINE
  5
121
100
AcDbEntity
  8
0
 62
     0
100
AcDbLine
 10
3.671661
 20
-36.685841
 30
0.0
 11
3.671661
 21
-36.685841
 31
0.0
  0
LINE
  5
122
100
AcDbEntity
  8
0
 62
     0
100
AcDbLine
 10
6.495049
 20
-38.469699
 30
0.0
 11
6.495049
 21
-38.469699
 31
0.0
  0
LINE
  5
123
100
AcDbEntity
  8
0
 62
     0
100
AcDbLine
 10
-3.460714
 20
-31.525418
 30
0.0
 11
-3.460714
 21
-31.525418
 31
0.0
  0
LINE
  5
124
100
AcDbEntity
  8
0
 62
     0
100
AcDbLine
 10
-0.744155
 20
-31.167776
 30
0.0
 11
-0.744155
 21
-31.167776
 31
0.0
  0
LINE
  5
125
100
AcDbEntity
  8
0
 62
     0
100
AcDbLine
 10
0.296862
 20
-31.030724
 30
0.0
 11
0.296862
 21
-31.030724
 31
0.0
  0
LINE
  5
126
100
AcDbEntity
  8
0
 62
     0
100
AcDbLine
 10
-2.588147
 20
-26.232241
 30
0.0
 11
-2.588147
 21
-26.232241
 31
0.0
  0
LINE
  5
127
100
AcDbEntity
  8
0
 62
     0
100
AcDbLine
 10
-1.54713
 20
-26.095189
 30
0.0
 11
-1.54713
 21
-26.095189
 31
0.0
  0
LINE
  5
128
100
AcDbEntity
  8
0
 62
     0
100
AcDbLine
 10
0.078839
 20
-25.881126
 30
0.0
 11
0.078839
 21
-25.881126
 31
0.0
  0
LINE
  5
129
100
AcDbEntity
  8
0
 62
     0
100
AcDbLine
 10
-4.283709
 20
-36.812069
 30
0.0
 11
-4.283709
 21
-36.812069
 31
0.0
  0
LINE
  5
12A
100
AcDbEntity
  8
0
 62
     0
100
AcDbLine
 10
-3.242691
 20
-36.675016
 30
0.0
 11
-3.242691
 21
-36.675016
 31
0.0
  0
LINE
  5
12B
100
AcDbEntity
  8
0
 62
     0
100
AcDbLine
 10
-1.616722
 20
-36.460953
 30
0.0
 11
-1.616722
 21
-36.460953
 31
0.0
  0
LINE
  5
12C
100
AcDbEntity
  8
0
 62
     0
100
AcDbLine
 10
1.099837
 20
-36.103311
 30
0.0
 11
1.099837
 21
-36.103311
 31
0.0
  0
LINE
  5
12D
100
AcDbEntity
  8
0
 62
     0
100
AcDbLine
 10
2.140854
 20
-35.966259
 30
0.0
 11
2.140854
 21
-35.966259
 31
0.0
  0
LINE
  5
12E
100
AcDbEntity
  8
0
 62
     0
100
AcDbLine
 10
3.766824
 20
-35.752196
 30
0.0
 11
3.766824
 21
-35.752196
 31
0.0
  0
LINE
  5
12F
100
AcDbEntity
  8
0
 62
     0
100
AcDbLine
 10
10.994361
 20
-39.978974
 30
0.0
 11
10.994361
 21
-39.978974
 31
0.0
  0
LINE
  5
130
100
AcDbEntity
  8
0
 62
     0
100
AcDbLine
 10
-0.612
 20
-25.05234
 30
0.0
 11
-0.612
 21
-25.05234
 31
0.0
  0
LINE
  5
131
100
AcDbEntity
  8
0
 62
     0
100
AcDbLine
 10
-2.960683
 20
-27.535237
 30
0.0
 11
-2.960683
 21
-27.535237
 31
0.0
  0
LINE
  5
132
100
AcDbEntity
  8
0
 62
     0
100
AcDbLine
 10
1.003257
 20
-30.060545
 30
0.0
 11
1.003257
 21
-30.060545
 31
0.0
  0
LINE
  5
133
100
AcDbEntity
  8
0
 62
     0
100
AcDbLine
 10
-4.381636
 20
-30.609163
 30
0.0
 11
-4.381636
 21
-30.609163
 31
0.0
  0
LINE
  5
134
100
AcDbEntity
  8
0
 62
     0
100
AcDbLine
 10
-1.345426
 20
-32.543441
 30
0.0
 11
-1.345426
 21
-32.543441
 31
0.0
  0
LINE
  5
135
100
AcDbEntity
  8
0
 62
     0
100
AcDbLine
 10
2.618513
 20
-35.068749
 30
0.0
 11
2.618513
 21
-35.068749
 31
0.0
  0
LINE
  5
136
100
AcDbEntity
  8
0
 62
     0
100
AcDbLine
 10
3.461905
 20
-35.606049
 30
0.0
 11
3.461905
 21
-35.606049
 31
0.0
  0
LINE
  5
137
100
AcDbEntity
  8
0
 62
     0
100
AcDbLine
 10
6.498114
 20
-37.540328
 30
0.0
 11
6.498114
 21
-37.540328
 31
0.0
  0
LINE
  5
138
100
AcDbEntity
  8
0
 62
     0
100
AcDbLine
 10
-3.60977
 20
-35.080067
 30
0.0
 11
-3.60977
 21
-35.080067
 31
0.0
  0
LINE
  5
139
100
AcDbEntity
  8
0
 62
     0
100
AcDbLine
 10
-2.766379
 20
-35.617367
 30
0.0
 11
-2.766379
 21
-35.617367
 31
0.0
  0
LINE
  5
13A
100
AcDbEntity
  8
0
 62
     0
100
AcDbLine
 10
0.26983
 20
-37.551646
 30
0.0
 11
0.26983
 21
-37.551646
 31
0.0
  0
LINE
  5
13B
100
AcDbEntity
  8
0
 62
     0
100
AcDbLine
 10
-0.00045
 20
-24.047461
 30
0.0
 11
-0.00045
 21
-24.047461
 31
0.0
  0
LINE
  5
13C
100
AcDbEntity
  8
0
 62
     0
100
AcDbLine
 10
-3.90409
 20
-27.735
 30
0.0
 11
-3.90409
 21
-27.735
 31
0.0
  0
LINE
  5
13D
100
AcDbEntity
  8
0
 62
     0
100
AcDbLine
 10
-1.913441
 20
-29.559094
 30
0.0
 11
-1.913441
 21
-29.559094
 31
0.0
  0
LINE
  5
13E
100
AcDbEntity
  8
0
 62
     0
100
AcDbLine
 10
-1.544802
 20
-29.896889
 30
0.0
 11
-1.544802
 21
-29.896889
 31
0.0
  0
LINE
  5
13F
100
AcDbEntity
  8
0
 62
     0
100
AcDbLine
 10
0.195172
 20
-31.491282
 30
0.0
 11
0.195172
 21
-31.491282
 31
0.0
  0
LINE
  5
140
100
AcDbEntity
  8
0
 62
     0
100
AcDbLine
 10
2.185821
 20
-33.315375
 30
0.0
 11
2.185821
 21
-33.315375
 31
0.0
  0
LINE
  5
141
100
AcDbEntity
  8
0
 62
     0
100
AcDbLine
 10
2.55446
 20
-33.653171
 30
0.0
 11
2.55446
 21
-33.653171
 31
0.0
  0
LINE
  5
142
100
AcDbEntity
  8
0
 62
     0
100
AcDbLine
 10
4.294434
 20
-35.247563
 30
0.0
 11
4.294434
 21
-35.247563
 31
0.0
  0
LINE
  5
143
100
AcDbEntity
  8
0
 62
     0
100
AcDbLine
 10
6.285083
 20
-37.071657
 30
0.0
 11
6.285083
 21
-37.071657
 31
0.0
  0
LINE
  5
144
100
AcDbEntity
  8
0
 62
     0
100
AcDbLine
 10
6.653722
 20
-37.409452
 30
0.0
 11
6.653722
 21
-37.409452
 31
0.0
  0
LINE
  5
145
100
AcDbEntity
  8
0
 62
     0
100
AcDbLine
 10
8.393696
 20
-39.003845
 30
0.0
 11
8.393696
 21
-39.003845
 31
0.0
  0
LINE
  5
146
100
AcDbEntity
  8
0
 62
     0
100
AcDbLine
 10
-3.826432
 20
-35.070727
 30
0.0
 11
-3.826432
 21
-35.070727
 31
0.0
  0
LINE
  5
147
100
AcDbEntity
  8
0
 62
     0
100
AcDbLine
 10
-3.457793
 20
-35.408522
 30
0.0
 11
-3.457793
 21
-35.408522
 31
0.0
  0
LINE
  5
148
100
AcDbEntity
  8
0
 62
     0
100
AcDbLine
 10
-1.717819
 20
-37.002915
 30
0.0
 11
-1.717819
 21
-37.002915
 31
0.0
  0
LINE
  5
149
100
AcDbEntity
  8
0
 62
     0
100
AcDbLine
 10
0.27283
 20
-38.827008
 30
0.0
 11
0.27283
 21
-38.827008
 31
0.0
  0
LINE
  5
14A
100
AcDbEntity
  8
0
 62
     0
100
AcDbLine
 10
0.641469
 20
-39.164803
 30
0.0
 11
0.641469
 21
-39.164803
 31
0.0
  0
ENDBLK
  5
14C
100
AcDbEntity
  8
0
100
AcDbBlockEnd
  0
BLOCK
  5
10C
100
AcDbEntity
  8
0
100
AcDbBlockBegin
  2
*X33
 70
     1
 10
0.0
 20
0.0
 30
0.0
  3
*X33
  1

  0
LINE
  5
F3
100
AcDbEntity
  8
0
 62
     0
100
AcDbLine
 10
-44.393398
 20
-55.0
 30
0.0
 11
-29.793398
 21
-40.4
 31
0.0
  0
LINE
  5
F4
100
AcDbEntity
  8
0
 62
     0
100
AcDbLine
 10
-49.696699
 20
-55.0
 30
0.0
 11
-35.096699
 21
-40.4
 31
0.0
  0
LINE
  5
F5
100
AcDbEntity
  8
0
 62
     0
100
AcDbLine
 10
-55.0
 20
-55.0
 30
0.0
 11
-40.4
 21
-40.4
 31
0.0
  0
LINE
  5
F6
100
AcDbEntity
  8
0
 62
     0
100
AcDbLine
 10
-60.303301
 20
-55.0
 30
0.0
 11
-45.703301
 21
-40.4
 31
0.0
  0
LINE
  5
F7
100
AcDbEntity
  8
0
 62
     0
100
AcDbLine
 10
-65.606602
 20
-55.0
 30
0.0
 11
-51.006602
 21
-40.4
 31
0.0
  0
LINE
  5
F8
100
AcDbEntity
  8
0
 62
     0
100
AcDbLine
 10
-70.909903
 20
-55.0
 30
0.0
 11
-56.309903
 21
-40.4
 31
0.0
  0
LINE
  5
F9
100
AcDbEntity
  8
0
 62
     0
100
AcDbLine
 10
-76.213203
 20
-55.0
 30
0.0
 11
-61.613203
 21
-40.4
 31
0.0
  0
LINE
  5
FA
100
AcDbEntity
  8
0
 62
     0
100
AcDbLine
 10
-81.516504
 20
-55.0
 30
0.0
 11
-66.916504
 21
-40.4
 31
0.0
  0
LINE
  5
FB
100
AcDbEntity
  8
0
 62
     0
100
AcDbLine
 10
-86.819805
 20
-55.0
 30
0.0
 11
-72.219805
 21
-40.4
 31
0.0
  0
LINE
  5
FC
100
AcDbEntity
  8
0
 62
     0
100
AcDbLine
 10
-92.123106
 20
-55.0
 30
0.0
 11
-77.523106
 21
-40.4
 31
0.0
  0
LINE
  5
FD
100
AcDbEntity
  8
0
 62
     0
100
AcDbLine
 10
-94.0
 20
-51.573593
 30
0.0
 11
-82.826407
 21
-40.4
 31
0.0
  0
LINE
  5
FE
100
AcDbEntity
  8
0
 62
     0
100
AcDbLine
 10
-94.0
 20
-46.270292
 30
0.0
 11
-88.129708
 21
-40.4
 31
0.0
  0
LINE
  5
FF
100
AcDbEntity
  8
0
 62
     0
100
AcDbLine
 10
-94.0
 20
-40.966991
 30
0.0
 11
-93.433009
 21
-40.4
 31
0.0
  0
LINE
  5
100
100
AcDbEntity
  8
0
 62
     0
100
AcDbLine
 10
-39.090097
 20
-55.0
 30
0.0
 11
-24.490097
 21
-40.4
 31
0.0
  0
LINE
  5
101
100
AcDbEntity
  8
0
 62
     0
100
AcDbLine
 10
-33.786797
 20
-55.0
 30
0.0
 11
-19.186797
 21
-40.4
 31
0.0
  0
LINE
  5
102
100
AcDbEntity
  8
0
 62
     0
100
AcDbLine
 10
-28.483496
 20
-55.0
 30
0.0
 11
-13.883496
 21
-40.4
 31
0.0
  0
LINE
  5
103
100
AcDbEntity
  8
0
 62
     0
100
AcDbLine
 10
-23.180195
 20
-55.0
 30
0.0
 11
-8.580195
 21
-40.4
 31
0.0
  0
LINE
  5
104
100
AcDbEntity
  8
0
 62
     0
100
AcDbLine
 10
-17.876894
 20
-55.0
 30
0.0
 11
-3.276894
 21
-40.4
 31
0.0
  0
LINE
  5
105
100
AcDbEntity
  8
0
 62
     0
100
AcDbLine
 10
-12.573593
 20
-55.0
 30
0.0
 11
2.026407
 21
-40.4
 31
0.0
  0
LINE
  5
106
100
AcDbEntity
  8
0
 62
     0
100
AcDbLine
 10
-7.270292
 20
-55.0
 30
0.0
 11
7.329708
 21
-40.4
 31
0.0
  0
LINE
  5
107
100
AcDbEntity
  8
0
 62
     0
100
AcDbLine
 10
-1.966991
 20
-55.0
 30
0.0
 11
12.633009
 21
-40.4
 31
0.0
  0
LINE
  5
108
100
AcDbEntity
  8
0
 62
     0
100
AcDbLine
 10
3.336309
 20
-55.0
 30
0.0
 11
17.936309
 21
-40.4
 31
0.0
  0
LINE
  5
109
100
AcDbEntity
  8
0
 62
     0
100
AcDbLine
 10
8.63961
 20
-55.0
 30
0.0
 11
23.23961
 21
-40.4
 31
0.0
  0
LINE
  5
10A
100
AcDbEntity
  8
0
 62
     0
100
AcDbLine
 10
13.942911
 20
-55.0
 30
0.0
 11
24.0
 21
-44.942911
 31
0.0
  0
LINE
  5
10B
100
AcDbEntity
  8
0
 62
     0
100
AcDbLine
 10
19.246212
 20
-55.0
 30
0.0
 11
24.0
 21
-50.246212
 31
0.0
  0
ENDBLK
  5
10D
100
AcDbEntity
  8
0
100
AcDbBlockEnd
  0
BLOCK
  5
599
100
AcDbEntity
  8
0
100
AcDbBlockBegin
  2
1
 70
     0
 10
0.0
 20
0.0
 30
0.0
  3
1
  1

  0
INSERT
  5
531
100
AcDbEntity
  8
FOGNINGB
100
AcDbBlockReference
  2
*X30
 10
-65.0
 20
5.0
 30
0.0
 50
180.0
1001
ACAD
1000
HATCH
1002
{
1070
    16
1000
ANSI31
1040
30.0
1040
0.0
1002
}
  0
LWPOLYLINE
  5
557
100
AcDbEntity
  8
FOGNINGB
100
AcDbPolyline
 90
        2
 70
     0
 43
0.8
 10
37.0
 20
45.4
 10
19.0
 20
45.4
  0
LINE
  5
558
100
AcDbEntity
  8
SPKONTUR
100
AcDbLine
 10
37.0
 20
45.0
 30
0.0
 11
19.0
 21
45.0
 31
0.0
  0
LWPOLYLINE
  5
559
100
AcDbEntity
  8
STALPROFIL
100
AcDbPolyline
 90
        2
 70
     0
 43
2.0
 10
1.0
 20
15.0
 10
1.0
 20
45.0
  0
LWPOLYLINE
  5
55A
100
AcDbEntity
  8
SPKONTUR
100
AcDbPolyline
 90
        3
 70
     0
 43
0.0
 10
0.0
 20
15.0
 10
0.0
 20
45.0
 10
10.5
 20
45.0
  0
LINE
  5
55B
100
AcDbEntity
  8
GLAS_MED_FOGNING
100
AcDbLine
 10
22.505553
 20
43.0
 30
0.0
 11
22.505553
 21
37.0
 31
0.0
  0
LINE
  5
55C
100
AcDbEntity
  8
GLAS_MED_FOGNING
100
AcDbLine
 10
18.752777
 20
43.0
 30
0.0
 11
18.752777
 21
37.0
 31
0.0
  0
LINE
  5
55D
100
AcDbEntity
  8
GLAS_MED_FOGNING
100
AcDbLine
 10
7.494447
 20
43.0
 30
0.0
 11
7.494447
 21
37.0
 31
0.0
  0
LINE
  5
55E
100
AcDbEntity
  8
GLAS_MED_FOGNING
100
AcDbLine
 10
11.247223
 20
43.0
 30
0.0
 11
11.247223
 21
37.0
 31
0.0
  0
LINE
  5
55F
100
AcDbEntity
  8
GLAS_MED_FOGNING
100
AcDbLine
 10
-44.494447
 20
43.0
 30
0.0
 11
-44.494447
 21
37.0
 31
0.0
  0
LINE
  5
560
100
AcDbEntity
  8
GLAS_MED_FOGNING
100
AcDbLine
 10
-55.752777
 20
43.0
 30
0.0
 11
-55.752777
 21
37.0
 31
0.0
  0
LINE
  5
561
100
AcDbEntity
  8
GLAS_MED_FOGNING
100
AcDbLine
 10
-48.247223
 20
43.0
 30
0.0
 11
-48.247223
 21
37.0
 31
0.0
  0
LINE
  5
562
100
AcDbEntity
  8
GLAS_MED_FOGNING
100
AcDbLine
 10
-59.505553
 20
43.0
 30
0.0
 11
-59.505553
 21
37.0
 31
0.0
  0
LWPOLYLINE
  5
563
100
AcDbEntity
  8
STALPROFIL
100
AcDbPolyline
 90
        2
 70
     0
 43
2.0
 10
1.0
 20
5.0
 10
1.0
 20
45.0
  0
LWPOLYLINE
  5
564
100
AcDbEntity
  8
STALPROFIL
100
AcDbPolyline
 90
        2
 70
     0
 43
2.0
 10
-66.0
 20
15.0
 10
-66.0
 20
45.0
  0
LWPOLYLINE
  5
565
100
AcDbEntity
  8
STALPROFIL
100
AcDbPolyline
 90
        2
 70
     0
 43
2.0
 10
-66.0
 20
5.0
 10
-66.0
 20
45.0
  0
LWPOLYLINE
  5
566
100
AcDbEntity
  8
SPKONTUR
100
AcDbPolyline
 90
        2
 70
     0
 43
0.0
 10
-67.0
 20
5.0
 10
-67.0
 20
45.0
  0
LWPOLYLINE
  5
567
100
AcDbEntity
  8
ISOLERING
100
AcDbPolyline
 90
       54
 70
     0
 43
0.0
 10
0.0
 20
44.5
 42
0.459935
 10
-1.976471
 20
42.194118
 10
-0.523529
 20
27.805882
 42
-1.166667
 10
-4.476471
 20
27.805882
 10
-3.023529
 20
42.194118
 42
1.166667
 10
-6.976471
 20
42.194118
 10
-5.523529
 20
27.805882
 42
-1.166667
 10
-9.476471
 20
27.805882
 10
-8.023529
 20
42.194118
 42
1.166667
 10
-11.976471
 20
42.194118
 10
-10.523529
 20
27.805882
 42
-1.166667
 10
-14.476471
 20
27.805882
 10
-13.023529
 20
42.194118
 42
1.166667
 10
-16.976471
 20
42.194118
 10
-15.523529
 20
27.805882
 42
-1.166667
 10
-19.476471
 20
27.805882
 10
-18.023529
 20
42.194118
 42
1.166667
 10
-21.976471
 20
42.194118
 10
-20.523529
 20
27.805882
 42
-1.166667
 10
-24.476471
 20
27.805882
 10
-23.023529
 20
42.194118
 42
1.166667
 10
-26.976471
 20
42.194118
 10
-25.523529
 20
27.805882
 42
-1.166667
 10
-29.476471
 20
27.805882
 10
-28.023529
 20
42.194118
 42
1.166667
 10
-31.976471
 20
42.194118
 10
-30.523529
 20
27.805882
 42
-1.166667
 10
-34.476471
 20
27.805882
 10
-33.023529
 20
42.194118
 42
1.166667
 10
-36.976471
 20
42.194118
 10
-35.523529
 20
27.805882
 42
-1.166667
 10
-39.476471
 20
27.805882
 10
-38.023529
 20
42.194118
 42
1.166667
 10
-41.976471
 20
42.194118
 10
-40.523529
 20
27.805882
 42
-1.216051
 10
-44.444935
 20
27.966078
 10
-44.041299
 20
34.650441
 42
1.23341
 10
-46.97541
 20
34.729508
 10
-46.52459
 20
27.270492
 42
-1.2
 10
-49.47541
 20
27.270492
 10
-49.02459
 20
34.729508
 42
1.2
 10
-51.97541
 20
34.729508
 10
-51.52459
 20
27.270492
 42
-1.2
 10
-54.47541
 20
27.270492
 10
-54.02459
 20
34.729508
 42
1.2
 10
-56.97541
 20
34.729508
 10
-56.52459
 20
27.270492
 42
-1.2
 10
-59.47541
 20
27.270492
 10
-59.02459
 20
34.729508
 42
1.2
 10
-61.97541
 20
34.729508
 10
-61.52459
 20
27.270492
 42
-1.2
 10
-64.47541
 20
27.270492
 10
-64.02459
 20
34.729508
 42
0.368511
 10
-65.0
 20
36.414214
  0
LWPOLYLINE
  5
568
100
AcDbEntity
  8
SPKONTUR
100
AcDbPolyline
 90
        3
 70
     0
 43
0.0
 10
-67.0
 20
15.0
 10
-67.0
 20
45.0
 10
-56.5
 20
45.0
  0
LINE
  5
569
100
AcDbEntity
  8
CENTRUM
100
AcDbLine
 10
-52.0
 20
27.0
 30
0.0
 11
-52.0
 21
71.0
 31
0.0
  0
LINE
  5
56A
100
AcDbEntity
  8
CENTRUM
100
AcDbLine
 10
15.0
 20
27.0
 30
0.0
 11
15.0
 21
71.0
 31
0.0
  0
LINE
  5
56B
100
AcDbEntity
  8
GLAS_MED_FOGNING
100
AcDbLine
 10
-44.494447
 20
37.0
 30
0.0
 11
-59.505553
 21
37.0
 31
0.0
  0
LINE
  5
56C
100
AcDbEntity
  8
GLAS_MED_FOGNING
100
AcDbLine
 10
22.505553
 20
37.0
 30
0.0
 11
7.494447
 21
37.0
 31
0.0
  0
LWPOLYLINE
  5
56D
100
AcDbEntity
  8
FOGNINGB
100
AcDbPolyline
 90
        2
 70
     0
 43
0.8
 10
-56.0
 20
45.4
 10
-77.0
 20
45.4
  0
LINE
  5
56E
100
AcDbEntity
  8
SPKONTUR
100
AcDbLine
 10
-56.0
 20
45.0
 30
0.0
 11
-77.0
 21
45.0
 31
0.0
  0
LWPOLYLINE
  5
56F
100
AcDbEntity
  8
STALPROFIL
100
AcDbPolyline
 90
        2
 70
     0
 43
2.0
 10
-66.0
 20
44.0
 10
-56.5
 20
44.0
  0
LWPOLYLINE
  5
570
100
AcDbEntity
  8
FOGNINGB
100
AcDbPolyline
 90
        2
 70
     0
 43
0.8
 10
11.0
 20
45.4
 10
-48.0
 20
45.4
  0
LINE
  5
571
100
AcDbEntity
  8
SPKONTUR
100
AcDbLine
 10
11.0
 20
45.0
 30
0.0
 11
-48.0
 21
45.0
 31
0.0
  0
LINE
  5
572
100
AcDbEntity
  8
GLAS_MED_FOGNING
100
AcDbLine
 10
-56.0
 20
43.0
 30
0.0
 11
-56.0
 21
64.0
 31
0.0
  0
LINE
  5
573
100
AcDbEntity
  8
GLAS_MED_FOGNING
100
AcDbLine
 10
-48.0
 20
43.0
 30
0.0
 11
-48.0
 21
64.0
 31
0.0
  0
LINE
  5
574
100
AcDbEntity
  8
GLAS_MED_FOGNING
100
AcDbLine
 10
-55.4
 20
44.6
 30
0.0
 11
-55.4
 21
65.0
 31
0.0
  0
LINE
  5
575
100
AcDbEntity
  8
GLAS_MED_FOGNING
100
AcDbLine
 10
-48.6
 20
44.6
 30
0.0
 11
-48.6
 21
65.0
 31
0.0
  0
LINE
  5
576
100
AcDbEntity
  8
FOGNINGB
100
AcDbLine
 10
-48.0
 20
45.0
 30
0.0
 11
-48.6
 21
45.6
 31
0.0
  0
LINE
  5
577
100
AcDbEntity
  8
GLAS_MED_FOGNING
100
AcDbLine
 10
-48.0
 20
44.0
 30
0.0
 11
-48.6
 21
44.6
 31
0.0
  0
LINE
  5
578
100
AcDbEntity
  8
GLAS_MED_FOGNING
100
AcDbLine
 10
-44.494447
 20
43.0
 30
0.0
 11
-59.505553
 21
43.0
 31
0.0
  0
LINE
  5
579
100
AcDbEntity
  8
FOGNINGB
100
AcDbLine
 10
-56.0
 20
45.0
 30
0.0
 11
-55.4
 21
45.6
 31
0.0
  0
LINE
  5
57A
100
AcDbEntity
  8
GLAS_MED_FOGNING
100
AcDbLine
 10
-56.0
 20
44.0
 30
0.0
 11
-55.4
 21
44.6
 31
0.0
  0
LWPOLYLINE
  5
57B
100
AcDbEntity
  8
STALPROFIL
100
AcDbPolyline
 90
        2
 70
     0
 43
2.0
 10
-47.5
 20
44.0
 10
-42.0
 20
44.0
  0
LWPOLYLINE
  5
57C
100
AcDbEntity
  8
SPKONTUR
100
AcDbPolyline
 90
        2
 70
     0
 43
0.0
 10
-47.5
 20
45.0
 10
-42.0
 20
45.0
  0
LINE
  5
57D
100
AcDbEntity
  8
GLAS_MED_FOGNING
100
AcDbLine
 10
-48.0
 20
62.4
 30
0.0
 11
-48.6
 21
63.0
 31
0.0
  0
LINE
  5
57E
100
AcDbEntity
  8
GLAS_MED_FOGNING
100
AcDbLine
 10
-48.0
 20
64.0
 30
0.0
 11
-48.6
 21
64.6
 31
0.0
  0
LINE
  5
57F
100
AcDbEntity
  8
GLAS_MED_FOGNING
100
AcDbLine
 10
-48.0
 20
62.4
 30
0.0
 11
-56.0
 21
62.4
 31
0.0
  0
LINE
  5
580
100
AcDbEntity
  8
GLAS_MED_FOGNING
100
AcDbLine
 10
-48.6
 20
65.0
 30
0.0
 11
-52.0
 21
67.042926
 31
0.0
  0
LINE
  5
581
100
AcDbEntity
  8
GLAS_MED_FOGNING
100
AcDbLine
 10
-56.0
 20
62.4
 30
0.0
 11
-55.4
 21
63.0
 31
0.0
  0
LINE
  5
582
100
AcDbEntity
  8
GLAS_MED_FOGNING
100
AcDbLine
 10
-56.0
 20
64.0
 30
0.0
 11
-55.4
 21
64.6
 31
0.0
  0
LINE
  5
583
100
AcDbEntity
  8
GLAS_MED_FOGNING
100
AcDbLine
 10
-48.6
 20
63.0
 30
0.0
 11
-55.4
 21
63.0
 31
0.0
  0
LINE
  5
584
100
AcDbEntity
  8
GLAS_MED_FOGNING
100
AcDbLine
 10
-55.4
 20
65.0
 30
0.0
 11
-52.0
 21
67.042926
 31
0.0
  0
LINE
  5
585
100
AcDbEntity
  8
GLAS_MED_FOGNING
100
AcDbLine
 10
11.0
 20
62.4
 30
0.0
 11
11.6
 21
63.0
 31
0.0
  0
LINE
  5
586
100
AcDbEntity
  8
GLAS_MED_FOGNING
100
AcDbLine
 10
19.0
 20
62.4
 30
0.0
 11
11.0
 21
62.4
 31
0.0
  0
LINE
  5
587
100
AcDbEntity
  8
GLAS_MED_FOGNING
100
AcDbLine
 10
11.0
 20
64.0
 30
0.0
 11
11.6
 21
64.6
 31
0.0
  0
LINE
  5
588
100
AcDbEntity
  8
FOGNINGB
100
AcDbLine
 10
11.0
 20
45.0
 30
0.0
 11
11.6
 21
45.6
 31
0.0
  0
LINE
  5
589
100
AcDbEntity
  8
GLAS_MED_FOGNING
100
AcDbLine
 10
11.0
 20
44.0
 30
0.0
 11
11.6
 21
44.6
 31
0.0
  0
LINE
  5
58A
100
AcDbEntity
  8
GLAS_MED_FOGNING
100
AcDbLine
 10
22.505553
 20
43.0
 30
0.0
 11
7.494447
 21
43.0
 31
0.0
  0
LINE
  5
58B
100
AcDbEntity
  8
GLAS_MED_FOGNING
100
AcDbLine
 10
11.0
 20
43.0
 30
0.0
 11
11.0
 21
64.0
 31
0.0
  0
LWPOLYLINE
  5
58C
100
AcDbEntity
  8
STALPROFIL
100
AcDbPolyline
 90
        2
 70
     0
 43
2.0
 10
1.0
 20
44.0
 10
10.5
 20
44.0
  0
LINE
  5
58D
100
AcDbEntity
  8
GLAS_MED_FOGNING
100
AcDbLine
 10
19.0
 20
43.0
 30
0.0
 11
19.0
 21
64.0
 31
0.0
  0
LINE
  5
58E
100
AcDbEntity
  8
GLAS_MED_FOGNING
100
AcDbLine
 10
11.6
 20
44.6
 30
0.0
 11
11.6
 21
65.0
 31
0.0
  0
LINE
  5
58F
100
AcDbEntity
  8
GLAS_MED_FOGNING
100
AcDbLine
 10
18.4
 20
44.6
 30
0.0
 11
18.4
 21
65.0
 31
0.0
  0
LWPOLYLINE
  5
590
100
AcDbEntity
  8
STALPROFIL
100
AcDbPolyline
 90
        2
 70
     0
 43
2.0
 10
19.5
 20
44.0
 10
25.0
 20
44.0
  0
LWPOLYLINE
  5
591
100
AcDbEntity
  8
SPKONTUR
100
AcDbPolyline
 90
        2
 70
     0
 43
0.0
 10
19.5
 20
45.0
 10
25.0
 20
45.0
  0
LINE
  5
592
100
AcDbEntity
  8
FOGNINGB
100
AcDbLine
 10
19.0
 20
45.0
 30
0.0
 11
18.4
 21
45.6
 31
0.0
  0
LINE
  5
593
100
AcDbEntity
  8
GLAS_MED_FOGNING
100
AcDbLine
 10
19.0
 20
44.0
 30
0.0
 11
18.4
 21
44.6
 31
0.0
  0
LINE
  5
594
100
AcDbEntity
  8
GLAS_MED_FOGNING
100
AcDbLine
 10
19.0
 20
62.4
 30
0.0
 11
18.4
 21
63.0
 31
0.0
  0
LINE
  5
595
100
AcDbEntity
  8
GLAS_MED_FOGNING
100
AcDbLine
 10
18.4
 20
63.0
 30
0.0
 11
11.6
 21
63.0
 31
0.0
  0
LINE
  5
596
100
AcDbEntity
  8
GLAS_MED_FOGNING
100
AcDbLine
 10
18.4
 20
65.0
 30
0.0
 11
15.0
 21
67.042926
 31
0.0
  0
LINE
  5
597
100
AcDbEntity
  8
GLAS_MED_FOGNING
100
AcDbLine
 10
11.6
 20
65.0
 30
0.0
 11
15.0
 21
67.042926
 31
0.0
  0
LINE
  5
598
100
AcDbEntity
  8
GLAS_MED_FOGNING
100
AcDbLine
 10
19.0
 20
64.0
 30
0.0
 11
18.4
 21
64.6
 31
0.0
  0
ENDBLK
  5
59A
100
AcDbEntity
  8
0
100
AcDbBlockEnd
  0
BLOCK
  5
18B
100
AcDbEntity
  8
0
100
AcDbBlockBegin
  2
2
 70
     0
 10
0.0
 20
0.0
 30
0.0
  3
2
  1

  0
ARC
  5
E6
100
AcDbEntity
  8
GLAS_MED_FOGNING
100
AcDbCircle
 10
35.386155
 20
-14.455796
 30
5.933425
 40
2.769231
210
0.6427876096865394
220
0.0
230
0.7660444431189783
100
AcDbArc
 50
0.0
 51
90.0
  0
ARC
  5
E7
100
AcDbEntity
  8
GLAS_MED_FOGNING
100
AcDbCircle
 10
35.386155
 20
-0.313436
 30
5.933425
 40
2.769231
210
0.6427876096865396
220
0.0
230
-0.7660444431189781
100
AcDbArc
 50
0.0
 51
90.0
  0
ARC
  5
E8
100
AcDbEntity
  8
GLAS_MED_FOGNING
100
AcDbCircle
 10
35.386155
 20
-12.000001
 30
7.994081
 40
2.769231
210
0.8660254037844385
220
0.0
230
0.5000000000000002
100
AcDbArc
 50
0.0
 51
90.0
  0
ARC
  5
E9
100
AcDbEntity
  8
GLAS_MED_FOGNING
100
AcDbCircle
 10
35.386155
 20
-2.769231
 30
7.994081
 40
2.769231
210
0.8660254037844387
220
0.0
230
-0.5
100
AcDbArc
 50
0.0
 51
90.0
  0
ARC
  5
EA
100
AcDbEntity
  8
GLAS_MED_FOGNING
100
AcDbCircle
 10
35.386155
 20
-8.987522
 30
9.090534
 40
2.769231
210
0.9848077530122083
220
0.0
230
0.1736481776669302
100
AcDbArc
 50
0.0
 51
90.0
  0
ARC
  5
EB
100
AcDbEntity
  8
GLAS_MED_FOGNING
100
AcDbCircle
 10
35.386155
 20
-5.78171
 30
9.090534
 40
2.769231
210
0.9848077530122081
220
0.0
230
-0.1736481776669302
100
AcDbArc
 50
0.0
 51
90.0
  0
ARC
  5
EC
100
AcDbEntity
  8
GLAS_MED_FOGNING
100
AcDbCircle
 10
35.386155
 20
-16.058702
 30
3.157109
 40
2.769231
210
0.3420201433256687
220
0.0
230
0.9396926207859085
100
AcDbArc
 50
0.0
 51
90.0
  0
ARC
  5
ED
100
AcDbEntity
  8
GLAS_MED_FOGNING
100
AcDbCircle
 10
35.386155
 20
1.28947
 30
3.157109
 40
2.769231
210
0.3420201433256688
220
0.0
230
-0.9396926207859085
100
AcDbArc
 50
0.0
 51
90.0
  0
LWPOLYLINE
  5
EE
100
AcDbEntity
  8
STALPROFIL
100
AcDbPolyline
 90
        2
 70
     0
 43
1.846154
 10
0.0
 20
39.078463
 10
64.61539
 20
39.078463
  0
LINE
  5
EF
100
AcDbEntity
  8
SPKONTUR
100
AcDbLine
 10
0.0
 20
40.00154
 30
0.0
 11
64.61539
 21
40.00154
 31
0.0
  0
LINE
  5
F0
100
AcDbEntity
  8
SPKONTUR
100
AcDbLine
 10
-22.153848
 20
40.00154
 30
0.0
 11
86.769238
 21
40.00154
 31
0.0
  0
INSERT
  5
F1
100
AcDbEntity
  8
FOGNINGB
100
AcDbBlockReference
  2
*X33
 10
0.0
 20
3.07846
 30
0.0
 41
0.923077
 42
0.923077
 43
0.923077
 50
180.0
1001
ACAD
1000
HATCH
1002
{
1070
    16
1000
ANSI31
1040
30.0
1040
0.0
1002
}
  0
LWPOLYLINE
  5
10E
100
AcDbEntity
  8
FOGNINGB
100
AcDbPolyline
 90
        2
 70
     0
 43
0.738462
 10
-22.153848
 20
40.370771
 10
86.769238
 20
40.370771
  0
ARC
  5
10F
100
AcDbEntity
  8
GLAS_MED_FOGNING
100
AcDbCircle
 10
1.846154
 20
35.386155
 30
0.0
 40
2.769231
100
AcDbArc
 50
0.0
 51
90.0
  0
ARC
  5
110
100
AcDbEntity
  8
GLAS_MED_FOGNING
100
AcDbCircle
 10
16.615386
 20
35.386155
 30
0.0
 40
2.769231
100
AcDbArc
 50
90.0
 51
180.0
  0
LWPOLYLINE
  5
111
100
AcDbEntity
  8
ISOLERING
100
AcDbPolyline
 90
       40
 70
     0
 43
0.0
 10
58.153851
 20
37.635224
 42
0.538866
 10
55.867878
 20
35.565341
 10
57.209055
 20
27.20543
 42
-1.166667
 10
53.560185
 20
27.20543
 10
54.901362
 20
35.565341
 42
1.166667
 10
51.252493
 20
35.565341
 10
52.59367
 20
27.20543
 42
-1.166667
 10
48.9448
 20
27.20543
 10
50.285977
 20
35.565341
 42
1.166667
 10
46.637108
 20
35.565341
 10
47.978285
 20
27.20543
 42
-1.166667
 10
44.329415
 20
27.20543
 10
45.670592
 20
35.565341
 42
1.166667
 10
42.021723
 20
35.565341
 10
43.3629
 20
27.20543
 42
-1.166667
 10
39.71403
 20
27.20543
 10
41.055207
 20
35.565341
 42
1.166667
 10
37.406338
 20
35.565341
 10
38.747515
 20
27.20543
 42
-1.166667
 10
35.098645
 20
27.20543
 10
36.439822
 20
35.565341
 42
1.166667
 10
32.790953
 20
35.565341
 10
34.13213
 20
27.20543
 42
-1.166667
 10
30.48326
 20
27.20543
 10
31.824437
 20
35.565341
 42
1.166667
 10
28.175568
 20
35.565341
 10
29.516745
 20
27.20543
 42
-1.166667
 10
25.867875
 20
27.20543
 10
27.209052
 20
35.565341
 42
1.166667
 10
23.560183
 20
35.565341
 10
24.90136
 20
27.20543
 42
-1.166667
 10
21.25249
 20
27.20543
 10
22.593667
 20
35.565341
 42
1.166667
 10
18.944798
 20
35.565341
 10
20.285975
 20
27.20543
 42
-1.166667
 10
16.637105
 20
27.20543
 10
17.978282
 20
35.565341
 42
1.166667
 10
14.329413
 20
35.565341
 10
15.67059
 20
27.20543
 42
-0.459935
 10
13.846155
 20
25.076924
  0
LWPOLYLINE
  5
112
100
AcDbEntity
  8
GLAS_MED_FOGNING
100
AcDbPolyline
 90
        6
 70
     1
 43
0.0
 10
13.846155
 20
6.692307
 10
13.846155
 20
35.386155
 10
4.615385
 20
35.386155
 10
4.615385
 20
6.692307
 10
5.538462
 20
5.76923
 10
12.923078
 20
5.76923
  0
LINE
  5
113
100
AcDbEntity
  8
CENTRUM
100
AcDbLine
 10
9.23077
 20
1.153845
 30
0.0
 11
9.23077
 21
44.616925
 31
0.0
  0
ARC
  5
114
100
AcDbEntity
  8
GLAS_MED_FOGNING
100
AcDbCircle
 10
-18.17815
 20
23.062547
 30
0.0
 40
18.193816
100
AcDbArc
 50
357.622137
 51
68.595988
  0
INSERT
  5
115
100
AcDbEntity
  8
GLAS_MED_FOGNING
100
AcDbBlockReference
  2
*X32
 10
0.0
 20
2.840795
 30
0.0
 41
0.923077
 42
0.923077
 43
0.923077
 50
180.0
1001
ACAD
1000
HATCH
1002
{
1070
    16
1000
AR-SAND
1040
2.0
1040
0.0
1002
}
  0
INSERT
  5
14D
100
AcDbEntity
  8
GLAS_MED_FOGNING
100
AcDbBlockReference
  2
*X31
 10
4.615385
 20
2.840795
 30
0.0
 41
0.923077
 42
0.923077
 43
0.923077
 50
180.0
1001
ACAD
1000
HATCH
1002
{
1070
    16
1000
AR-SAND
1040
2.0
1040
0.0
1002
}
  0
LINE
  5
188
100
AcDbEntity
  8
GLAS_MED_FOGNING
100
AcDbLine
 10
58.153851
 20
24.615385
 30
0.0
 11
58.153851
 21
40.00154
 31
0.0
  0
ARC
  5
189
100
AcDbEntity
  8
GLAS_MED_FOGNING
100
AcDbCircle
 10
82.79354
 20
23.062547
 30
0.0
 40
18.193816
100
AcDbArc
 50
111.404012
 51
182.377863
  0
LINE
  5
18A
100
AcDbEntity
  8
GLAS_MED_FOGNING
100
AcDbLine
 10
13.846155
 20
6.692307
 30
0.0
 11
4.615385
 21
6.692307
 31
0.0
  0
ENDBLK
  5
18C
100
AcDbEntity
  8
0
100
AcDbBlockEnd
  0
BLOCK
  5
408
100
AcDbEntity
  8
0
100
AcDbBlockBegin
  2
*X36
 70
     1
 10
0.0
 20
0.0
 30
0.0
  3
*X36
  1

  0
LINE
  5
3E9
100
AcDbEntity
  8
0
 62
     0
100
AcDbLine
 10
-54.090097
 20
-70.0
 30
0.0
 11
-24.490097
 21
-40.4
 31
0.0
  0
LINE
  5
3EA
100
AcDbEntity
  8
0
 62
     0
100
AcDbLine
 10
-59.393398
 20
-70.0
 30
0.0
 11
-29.793398
 21
-40.4
 31
0.0
  0
LINE
  5
3EB
100
AcDbEntity
  8
0
 62
     0
100
AcDbLine
 10
-64.696699
 20
-70.0
 30
0.0
 11
-35.096699
 21
-40.4
 31
0.0
  0
LINE
  5
3EC
100
AcDbEntity
  8
0
 62
     0
100
AcDbLine
 10
-70.0
 20
-70.0
 30
0.0
 11
-40.4
 21
-40.4
 31
0.0
  0
LINE
  5
3ED
100
AcDbEntity
  8
0
 62
     0
100
AcDbLine
 10
-75.303301
 20
-70.0
 30
0.0
 11
-66.465604
 21
-61.162303
 31
0.0
  0
LINE
  5
3EE
100
AcDbEntity
  8
0
 62
     0
100
AcDbLine
 10
-61.0
 20
-55.696699
 30
0.0
 11
-45.703301
 21
-40.4
 31
0.0
  0
LINE
  5
3EF
100
AcDbEntity
  8
0
 62
     0
100
AcDbLine
 10
-80.606602
 20
-70.0
 30
0.0
 11
-69.0
 21
-58.393398
 31
0.0
  0
LINE
  5
3F0
100
AcDbEntity
  8
0
 62
     0
100
AcDbLine
 10
-61.0
 20
-50.393398
 30
0.0
 11
-51.006602
 21
-40.4
 31
0.0
  0
LINE
  5
3F1
100
AcDbEntity
  8
0
 62
     0
100
AcDbLine
 10
-85.909903
 20
-70.0
 30
0.0
 11
-69.0
 21
-53.090097
 31
0.0
  0
LINE
  5
3F2
100
AcDbEntity
  8
0
 62
     0
100
AcDbLine
 10
-61.0
 20
-45.090097
 30
0.0
 11
-56.309903
 21
-40.4
 31
0.0
  0
LINE
  5
3F3
100
AcDbEntity
  8
0
 62
     0
100
AcDbLine
 10
-87.0
 20
-65.786797
 30
0.0
 11
-69.0
 21
-47.786797
 31
0.0
  0
LINE
  5
3F4
100
AcDbEntity
  8
0
 62
     0
100
AcDbLine
 10
-87.0
 20
-60.483496
 30
0.0
 11
-69.0
 21
-42.483496
 31
0.0
  0
LINE
  5
3F5
100
AcDbEntity
  8
0
 62
     0
100
AcDbLine
 10
-87.0
 20
-55.180195
 30
0.0
 11
-72.219805
 21
-40.4
 31
0.0
  0
LINE
  5
3F6
100
AcDbEntity
  8
0
 62
     0
100
AcDbLine
 10
-87.0
 20
-49.876894
 30
0.0
 11
-77.523106
 21
-40.4
 31
0.0
  0
LINE
  5
3F7
100
AcDbEntity
  8
0
 62
     0
100
AcDbLine
 10
-87.0
 20
-44.573593
 30
0.0
 11
-82.826407
 21
-40.4
 31
0.0
  0
LINE
  5
3F8
100
AcDbEntity
  8
0
 62
     0
100
AcDbLine
 10
-48.786797
 20
-70.0
 30
0.0
 11
-19.186797
 21
-40.4
 31
0.0
  0
LINE
  5
3F9
100
AcDbEntity
  8
0
 62
     0
100
AcDbLine
 10
-43.483496
 20
-70.0
 30
0.0
 11
-17.0
 21
-43.516504
 31
0.0
  0
LINE
  5
3FA
100
AcDbEntity
  8
0
 62
     0
100
AcDbLine
 10
-38.180195
 20
-70.0
 30
0.0
 11
-17.0
 21
-48.819805
 31
0.0
  0
LINE
  5
3FB
100
AcDbEntity
  8
0
 62
     0
100
AcDbLine
 10
-9.0
 20
-40.819805
 30
0.0
 11
-8.580195
 21
-40.4
 31
0.0
  0
LINE
  5
3FC
100
AcDbEntity
  8
0
 62
     0
100
AcDbLine
 10
-32.876894
 20
-70.0
 30
0.0
 11
-17.0
 21
-54.123106
 31
0.0
  0
LINE
  5
3FD
100
AcDbEntity
  8
0
 62
     0
100
AcDbLine
 10
-9.0
 20
-46.123106
 30
0.0
 11
-3.276894
 21
-40.4
 31
0.0
  0
LINE
  5
3FE
100
AcDbEntity
  8
0
 62
     0
100
AcDbLine
 10
-27.573593
 20
-70.0
 30
0.0
 11
-16.786797
 21
-59.213203
 31
0.0
  0
LINE
  5
3FF
100
AcDbEntity
  8
0
 62
     0
100
AcDbLine
 10
-9.0
 20
-51.426407
 30
0.0
 11
2.026407
 21
-40.4
 31
0.0
  0
LINE
  5
400
100
AcDbEntity
  8
0
 62
     0
100
AcDbLine
 10
-22.270292
 20
-70.0
 30
0.0
 11
-13.82032
 21
-61.550028
 31
0.0
  0
LINE
  5
401
100
AcDbEntity
  8
0
 62
     0
100
AcDbLine
 10
-9.0
 20
-56.729708
 30
0.0
 11
7.329708
 21
-40.4
 31
0.0
  0
LINE
  5
402
100
AcDbEntity
  8
0
 62
     0
100
AcDbLine
 10
-16.966991
 20
-70.0
 30
0.0
 11
12.0
 21
-41.033009
 31
0.0
  0
LINE
  5
403
100
AcDbEntity
  8
0
 62
     0
100
AcDbLine
 10
-11.663691
 20
-70.0
 30
0.0
 11
12.0
 21
-46.336309
 31
0.0
  0
LINE
  5
404
100
AcDbEntity
  8
0
 62
     0
100
AcDbLine
 10
-6.36039
 20
-70.0
 30
0.0
 11
12.0
 21
-51.63961
 31
0.0
  0
LINE
  5
405
100
AcDbEntity
  8
0
 62
     0
100
AcDbLine
 10
-1.057089
 20
-70.0
 30
0.0
 11
12.0
 21
-56.942911
 31
0.0
  0
LINE
  5
406
100
AcDbEntity
  8
0
 62
     0
100
AcDbLine
 10
4.246212
 20
-70.0
 30
0.0
 11
12.0
 21
-62.246212
 31
0.0
  0
LINE
  5
407
100
AcDbEntity
  8
0
 62
     0
100
AcDbLine
 10
9.549513
 20
-70.0
 30
0.0
 11
12.0
 21
-67.549513
 31
0.0
  0
ENDBLK
  5
409
100
AcDbEntity
  8
0
100
AcDbBlockEnd
  0
BLOCK
  5
3BB
100
AcDbEntity
  8
0
100
AcDbBlockBegin
  2
*X37
 70
     1
 10
0.0
 20
0.0
 30
0.0
  3
*X37
  1

  0
LINE
  5
336
100
AcDbEntity
  8
0
 62
     0
100
AcDbLine
 10
-45.999576
 20
-39.247037
 30
0.0
 11
-45.999576
 21
-39.247037
 31
0.0
  0
LINE
  5
337
100
AcDbEntity
  8
0
 62
     0
100
AcDbLine
 10
-43.587782
 20
-37.396402
 30
0.0
 11
-43.587782
 21
-37.396402
 31
0.0
  0
LINE
  5
338
100
AcDbEntity
  8
0
 62
     0
100
AcDbLine
 10
-51.401363
 20
-39.441653
 30
0.0
 11
-51.401363
 21
-39.441653
 31
0.0
  0
LINE
  5
339
100
AcDbEntity
  8
0
 62
     0
100
AcDbLine
 10
-48.703962
 20
-37.371864
 30
0.0
 11
-48.703962
 21
-37.371864
 31
0.0
  0
LINE
  5
33A
100
AcDbEntity
  8
0
 62
     0
100
AcDbLine
 10
-46.125563
 20
-35.393389
 30
0.0
 11
-46.125563
 21
-35.393389
 31
0.0
  0
LINE
  5
33B
100
AcDbEntity
  8
0
 62
     0
100
AcDbLine
 10
-43.713769
 20
-33.542755
 30
0.0
 11
-43.713769
 21
-33.542755
 31
0.0
  0
LINE
  5
33C
100
AcDbEntity
  8
0
 62
     0
100
AcDbLine
 10
-56.517542
 20
-39.417115
 30
0.0
 11
-56.517542
 21
-39.417115
 31
0.0
  0
LINE
  5
33D
100
AcDbEntity
  8
0
 62
     0
100
AcDbLine
 10
-53.939144
 20
-37.43864
 30
0.0
 11
-53.939144
 21
-37.43864
 31
0.0
  0
LINE
  5
33E
100
AcDbEntity
  8
0
 62
     0
100
AcDbLine
 10
-51.52735
 20
-35.588005
 30
0.0
 11
-51.52735
 21
-35.588005
 31
0.0
  0
LINE
  5
33F
100
AcDbEntity
  8
0
 62
     0
100
AcDbLine
 10
-48.829948
 20
-33.518217
 30
0.0
 11
-48.829948
 21
-33.518217
 31
0.0
  0
LINE
  5
340
100
AcDbEntity
  8
0
 62
     0
100
AcDbLine
 10
-46.25155
 20
-31.539742
 30
0.0
 11
-46.25155
 21
-31.539742
 31
0.0
  0
LINE
  5
341
100
AcDbEntity
  8
0
 62
     0
100
AcDbLine
 10
-43.839756
 20
-29.689107
 30
0.0
 11
-43.839756
 21
-29.689107
 31
0.0
  0
LINE
  5
342
100
AcDbEntity
  8
0
 62
     0
100
AcDbLine
 10
-51.653336
 20
-31.734358
 30
0.0
 11
-51.653336
 21
-31.734358
 31
0.0
  0
LINE
  5
343
100
AcDbEntity
  8
0
 62
     0
100
AcDbLine
 10
-48.955935
 20
-29.664569
 30
0.0
 11
-48.955935
 21
-29.664569
 31
0.0
  0
LINE
  5
344
100
AcDbEntity
  8
0
 62
     0
100
AcDbLine
 10
-46.377537
 20
-27.686094
 30
0.0
 11
-46.377537
 21
-27.686094
 31
0.0
  0
LINE
  5
345
100
AcDbEntity
  8
0
 62
     0
100
AcDbLine
 10
-43.965742
 20
-25.83546
 30
0.0
 11
-43.965742
 21
-25.83546
 31
0.0
  0
LINE
  5
346
100
AcDbEntity
  8
0
 62
     0
100
AcDbLine
 10
-49.081922
 20
-25.810922
 30
0.0
 11
-49.081922
 21
-25.810922
 31
0.0
  0
LINE
  5
347
100
AcDbEntity
  8
0
 62
     0
100
AcDbLine
 10
-6.931674
 20
-29.020783
 30
0.0
 11
-6.931674
 21
-29.020783
 31
0.0
  0
LINE
  5
348
100
AcDbEntity
  8
0
 62
     0
100
AcDbLine
 10
-4.519879
 20
-27.170149
 30
0.0
 11
-4.519879
 21
-27.170149
 31
0.0
  0
LINE
  5
349
100
AcDbEntity
  8
0
 62
     0
100
AcDbLine
 10
-1.822478
 20
-25.10036
 30
0.0
 11
-1.822478
 21
-25.10036
 31
0.0
  0
LINE
  5
34A
100
AcDbEntity
  8
0
 62
     0
100
AcDbLine
 10
-6.805687
 20
-32.874431
 30
0.0
 11
-6.805687
 21
-32.874431
 31
0.0
  0
LINE
  5
34B
100
AcDbEntity
  8
0
 62
     0
100
AcDbLine
 10
-4.393893
 20
-31.023796
 30
0.0
 11
-4.393893
 21
-31.023796
 31
0.0
  0
LINE
  5
34C
100
AcDbEntity
  8
0
 62
     0
100
AcDbLine
 10
-1.696491
 20
-28.954007
 30
0.0
 11
-1.696491
 21
-28.954007
 31
0.0
  0
LINE
  5
34D
100
AcDbEntity
  8
0
 62
     0
100
AcDbLine
 10
-6.6797
 20
-36.728079
 30
0.0
 11
-6.6797
 21
-36.728079
 31
0.0
  0
LINE
  5
34E
100
AcDbEntity
  8
0
 62
     0
100
AcDbLine
 10
-4.267906
 20
-34.877444
 30
0.0
 11
-4.267906
 21
-34.877444
 31
0.0
  0
LINE
  5
34F
100
AcDbEntity
  8
0
 62
     0
100
AcDbLine
 10
-1.570505
 20
-32.807655
 30
0.0
 11
-1.570505
 21
-32.807655
 31
0.0
  0
LINE
  5
350
100
AcDbEntity
  8
0
 62
     0
100
AcDbLine
 10
1.007894
 20
-30.82918
 30
0.0
 11
1.007894
 21
-30.82918
 31
0.0
  0
LINE
  5
351
100
AcDbEntity
  8
0
 62
     0
100
AcDbLine
 10
-4.141919
 20
-38.731091
 30
0.0
 11
-4.141919
 21
-38.731091
 31
0.0
  0
LINE
  5
352
100
AcDbEntity
  8
0
 62
     0
100
AcDbLine
 10
-1.444518
 20
-36.661302
 30
0.0
 11
-1.444518
 21
-36.661302
 31
0.0
  0
LINE
  5
353
100
AcDbEntity
  8
0
 62
     0
100
AcDbLine
 10
1.13388
 20
-34.682828
 30
0.0
 11
1.13388
 21
-34.682828
 31
0.0
  0
LINE
  5
354
100
AcDbEntity
  8
0
 62
     0
100
AcDbLine
 10
1.259867
 20
-38.536475
 30
0.0
 11
1.259867
 21
-38.536475
 31
0.0
  0
LINE
  5
355
100
AcDbEntity
  8
0
 62
     0
100
AcDbLine
 10
3.671661
 20
-36.685841
 30
0.0
 11
3.671661
 21
-36.685841
 31
0.0
  0
LINE
  5
356
100
AcDbEntity
  8
0
 62
     0
100
AcDbLine
 10
6.495049
 20
-38.469699
 30
0.0
 11
6.495049
 21
-38.469699
 31
0.0
  0
LINE
  5
357
100
AcDbEntity
  8
0
 62
     0
100
AcDbLine
 10
-51.040058
 20
-32.611056
 30
0.0
 11
-51.040058
 21
-32.611056
 31
0.0
  0
LINE
  5
358
100
AcDbEntity
  8
0
 62
     0
100
AcDbLine
 10
-49.999041
 20
-32.474004
 30
0.0
 11
-49.999041
 21
-32.474004
 31
0.0
  0
LINE
  5
359
100
AcDbEntity
  8
0
 62
     0
100
AcDbLine
 10
-48.373071
 20
-32.259941
 30
0.0
 11
-48.373071
 21
-32.259941
 31
0.0
  0
LINE
  5
35A
100
AcDbEntity
  8
0
 62
     0
100
AcDbLine
 10
-45.656512
 20
-31.902299
 30
0.0
 11
-45.656512
 21
-31.902299
 31
0.0
  0
LINE
  5
35B
100
AcDbEntity
  8
0
 62
     0
100
AcDbLine
 10
-44.615495
 20
-31.765247
 30
0.0
 11
-44.615495
 21
-31.765247
 31
0.0
  0
LINE
  5
35C
100
AcDbEntity
  8
0
 62
     0
100
AcDbLine
 10
-6.930676
 20
-26.803946
 30
0.0
 11
-6.930676
 21
-26.803946
 31
0.0
  0
LINE
  5
35D
100
AcDbEntity
  8
0
 62
     0
100
AcDbLine
 10
-5.304706
 20
-26.589883
 30
0.0
 11
-5.304706
 21
-26.589883
 31
0.0
  0
LINE
  5
35E
100
AcDbEntity
  8
0
 62
     0
100
AcDbLine
 10
-2.588147
 20
-26.232241
 30
0.0
 11
-2.588147
 21
-26.232241
 31
0.0
  0
LINE
  5
35F
100
AcDbEntity
  8
0
 62
     0
100
AcDbLine
 10
-1.54713
 20
-26.095189
 30
0.0
 11
-1.54713
 21
-26.095189
 31
0.0
  0
LINE
  5
360
100
AcDbEntity
  8
0
 62
     0
100
AcDbLine
 10
0.078839
 20
-25.881126
 30
0.0
 11
0.078839
 21
-25.881126
 31
0.0
  0
LINE
  5
361
100
AcDbEntity
  8
0
 62
     0
100
AcDbLine
 10
-50.217063
 20
-27.324406
 30
0.0
 11
-50.217063
 21
-27.324406
 31
0.0
  0
LINE
  5
362
100
AcDbEntity
  8
0
 62
     0
100
AcDbLine
 10
-47.500504
 20
-26.966764
 30
0.0
 11
-47.500504
 21
-26.966764
 31
0.0
  0
LINE
  5
363
100
AcDbEntity
  8
0
 62
     0
100
AcDbLine
 10
-46.459487
 20
-26.829712
 30
0.0
 11
-46.459487
 21
-26.829712
 31
0.0
  0
LINE
  5
364
100
AcDbEntity
  8
0
 62
     0
100
AcDbLine
 10
-44.833518
 20
-26.615649
 30
0.0
 11
-44.833518
 21
-26.615649
 31
0.0
  0
LINE
  5
365
100
AcDbEntity
  8
0
 62
     0
100
AcDbLine
 10
-58.92214
 20
-38.827053
 30
0.0
 11
-58.92214
 21
-38.827053
 31
0.0
  0
LINE
  5
366
100
AcDbEntity
  8
0
 62
     0
100
AcDbLine
 10
-57.29617
 20
-38.61299
 30
0.0
 11
-57.29617
 21
-38.61299
 31
0.0
  0
LINE
  5
367
100
AcDbEntity
  8
0
 62
     0
100
AcDbLine
 10
-54.579611
 20
-38.255349
 30
0.0
 11
-54.579611
 21
-38.255349
 31
0.0
  0
LINE
  5
368
100
AcDbEntity
  8
0
 62
     0
100
AcDbLine
 10
-53.538594
 20
-38.118296
 30
0.0
 11
-53.538594
 21
-38.118296
 31
0.0
  0
LINE
  5
369
100
AcDbEntity
  8
0
 62
     0
100
AcDbLine
 10
-51.912624
 20
-37.904233
 30
0.0
 11
-51.912624
 21
-37.904233
 31
0.0
  0
LINE
  5
36A
100
AcDbEntity
  8
0
 62
     0
100
AcDbLine
 10
-49.196066
 20
-37.546591
 30
0.0
 11
-49.196066
 21
-37.546591
 31
0.0
  0
LINE
  5
36B
100
AcDbEntity
  8
0
 62
     0
100
AcDbLine
 10
-48.155048
 20
-37.409539
 30
0.0
 11
-48.155048
 21
-37.409539
 31
0.0
  0
LINE
  5
36C
100
AcDbEntity
  8
0
 62
     0
100
AcDbLine
 10
-46.529079
 20
-37.195476
 30
0.0
 11
-46.529079
 21
-37.195476
 31
0.0
  0
LINE
  5
36D
100
AcDbEntity
  8
0
 62
     0
100
AcDbLine
 10
-43.81252
 20
-36.837834
 30
0.0
 11
-43.81252
 21
-36.837834
 31
0.0
  0
LINE
  5
36E
100
AcDbEntity
  8
0
 62
     0
100
AcDbLine
 10
-6.127701
 20
-31.876534
 30
0.0
 11
-6.127701
 21
-31.876534
 31
0.0
  0
LINE
  5
36F
100
AcDbEntity
  8
0
 62
     0
100
AcDbLine
 10
-5.086684
 20
-31.739481
 30
0.0
 11
-5.086684
 21
-31.739481
 31
0.0
  0
LINE
  5
370
100
AcDbEntity
  8
0
 62
     0
100
AcDbLine
 10
-3.460714
 20
-31.525418
 30
0.0
 11
-3.460714
 21
-31.525418
 31
0.0
  0
LINE
  5
371
100
AcDbEntity
  8
0
 62
     0
100
AcDbLine
 10
-0.744155
 20
-31.167776
 30
0.0
 11
-0.744155
 21
-31.167776
 31
0.0
  0
LINE
  5
372
100
AcDbEntity
  8
0
 62
     0
100
AcDbLine
 10
0.296862
 20
-31.030724
 30
0.0
 11
0.296862
 21
-31.030724
 31
0.0
  0
LINE
  5
373
100
AcDbEntity
  8
0
 62
     0
100
AcDbLine
 10
-4.283709
 20
-36.812069
 30
0.0
 11
-4.283709
 21
-36.812069
 31
0.0
  0
LINE
  5
374
100
AcDbEntity
  8
0
 62
     0
100
AcDbLine
 10
-3.242691
 20
-36.675016
 30
0.0
 11
-3.242691
 21
-36.675016
 31
0.0
  0
LINE
  5
375
100
AcDbEntity
  8
0
 62
     0
100
AcDbLine
 10
-1.616722
 20
-36.460953
 30
0.0
 11
-1.616722
 21
-36.460953
 31
0.0
  0
LINE
  5
376
100
AcDbEntity
  8
0
 62
     0
100
AcDbLine
 10
1.099837
 20
-36.103311
 30
0.0
 11
1.099837
 21
-36.103311
 31
0.0
  0
LINE
  5
377
100
AcDbEntity
  8
0
 62
     0
100
AcDbLine
 10
2.140854
 20
-35.966259
 30
0.0
 11
2.140854
 21
-35.966259
 31
0.0
  0
LINE
  5
378
100
AcDbEntity
  8
0
 62
     0
100
AcDbLine
 10
3.766824
 20
-35.752196
 30
0.0
 11
3.766824
 21
-35.752196
 31
0.0
  0
LINE
  5
379
100
AcDbEntity
  8
0
 62
     0
100
AcDbLine
 10
10.994361
 20
-39.978974
 30
0.0
 11
10.994361
 21
-39.978974
 31
0.0
  0
LINE
  5
37A
100
AcDbEntity
  8
0
 62
     0
100
AcDbLine
 10
-5.958453
 20
-37.562964
 30
0.0
 11
-5.958453
 21
-37.562964
 31
0.0
  0
LINE
  5
37B
100
AcDbEntity
  8
0
 62
     0
100
AcDbLine
 10
-3.60977
 20
-35.080067
 30
0.0
 11
-3.60977
 21
-35.080067
 31
0.0
  0
LINE
  5
37C
100
AcDbEntity
  8
0
 62
     0
100
AcDbLine
 10
-2.766379
 20
-35.617367
 30
0.0
 11
-2.766379
 21
-35.617367
 31
0.0
  0
LINE
  5
37D
100
AcDbEntity
  8
0
 62
     0
100
AcDbLine
 10
0.26983
 20
-37.551646
 30
0.0
 11
0.26983
 21
-37.551646
 31
0.0
  0
LINE
  5
37E
100
AcDbEntity
  8
0
 62
     0
100
AcDbLine
 10
-5.225027
 20
-30.071863
 30
0.0
 11
-5.225027
 21
-30.071863
 31
0.0
  0
LINE
  5
37F
100
AcDbEntity
  8
0
 62
     0
100
AcDbLine
 10
-4.381636
 20
-30.609163
 30
0.0
 11
-4.381636
 21
-30.609163
 31
0.0
  0
LINE
  5
380
100
AcDbEntity
  8
0
 62
     0
100
AcDbLine
 10
-1.345426
 20
-32.543441
 30
0.0
 11
-1.345426
 21
-32.543441
 31
0.0
  0
LINE
  5
381
100
AcDbEntity
  8
0
 62
     0
100
AcDbLine
 10
2.618513
 20
-35.068749
 30
0.0
 11
2.618513
 21
-35.068749
 31
0.0
  0
LINE
  5
382
100
AcDbEntity
  8
0
 62
     0
100
AcDbLine
 10
3.461905
 20
-35.606049
 30
0.0
 11
3.461905
 21
-35.606049
 31
0.0
  0
LINE
  5
383
100
AcDbEntity
  8
0
 62
     0
100
AcDbLine
 10
6.498114
 20
-37.540328
 30
0.0
 11
6.498114
 21
-37.540328
 31
0.0
  0
LINE
  5
384
100
AcDbEntity
  8
0
 62
     0
100
AcDbLine
 10
-6.840284
 20
-25.063659
 30
0.0
 11
-6.840284
 21
-25.063659
 31
0.0
  0
LINE
  5
385
100
AcDbEntity
  8
0
 62
     0
100
AcDbLine
 10
-5.996892
 20
-25.600958
 30
0.0
 11
-5.996892
 21
-25.600958
 31
0.0
  0
LINE
  5
386
100
AcDbEntity
  8
0
 62
     0
100
AcDbLine
 10
-2.960683
 20
-27.535237
 30
0.0
 11
-2.960683
 21
-27.535237
 31
0.0
  0
LINE
  5
387
100
AcDbEntity
  8
0
 62
     0
100
AcDbLine
 10
1.003257
 20
-30.060545
 30
0.0
 11
1.003257
 21
-30.060545
 31
0.0
  0
LINE
  5
388
100
AcDbEntity
  8
0
 62
     0
100
AcDbLine
 10
-0.612
 20
-25.05234
 30
0.0
 11
-0.612
 21
-25.05234
 31
0.0
  0
LINE
  5
389
100
AcDbEntity
  8
0
 62
     0
100
AcDbLine
 10
-44.209986
 20
-25.131567
 30
0.0
 11
-44.209986
 21
-25.131567
 31
0.0
  0
LINE
  5
38A
100
AcDbEntity
  8
0
 62
     0
100
AcDbLine
 10
-43.366595
 20
-25.668867
 30
0.0
 11
-43.366595
 21
-25.668867
 31
0.0
  0
LINE
  5
38B
100
AcDbEntity
  8
0
 62
     0
100
AcDbLine
 10
-49.594878
 20
-25.680185
 30
0.0
 11
-49.594878
 21
-25.680185
 31
0.0
  0
LINE
  5
38C
100
AcDbEntity
  8
0
 62
     0
100
AcDbLine
 10
-46.558669
 20
-27.614463
 30
0.0
 11
-46.558669
 21
-27.614463
 31
0.0
  0
LINE
  5
38D
100
AcDbEntity
  8
0
 62
     0
100
AcDbLine
 10
-48.823013
 20
-30.15109
 30
0.0
 11
-48.823013
 21
-30.15109
 31
0.0
  0
LINE
  5
38E
100
AcDbEntity
  8
0
 62
     0
100
AcDbLine
 10
-47.979622
 20
-30.688389
 30
0.0
 11
-47.979622
 21
-30.688389
 31
0.0
  0
LINE
  5
38F
100
AcDbEntity
  8
0
 62
     0
100
AcDbLine
 10
-44.943413
 20
-32.622668
 30
0.0
 11
-44.943413
 21
-32.622668
 31
0.0
  0
LINE
  5
390
100
AcDbEntity
  8
0
 62
     0
100
AcDbLine
 10
-51.171696
 20
-32.633986
 30
0.0
 11
-51.171696
 21
-32.633986
 31
0.0
  0
LINE
  5
391
100
AcDbEntity
  8
0
 62
     0
100
AcDbLine
 10
-47.207756
 20
-35.159294
 30
0.0
 11
-47.207756
 21
-35.159294
 31
0.0
  0
LINE
  5
392
100
AcDbEntity
  8
0
 62
     0
100
AcDbLine
 10
-46.364365
 20
-35.696594
 30
0.0
 11
-46.364365
 21
-35.696594
 31
0.0
  0
LINE
  5
393
100
AcDbEntity
  8
0
 62
     0
100
AcDbLine
 10
-43.328156
 20
-37.630872
 30
0.0
 11
-43.328156
 21
-37.630872
 31
0.0
  0
LINE
  5
394
100
AcDbEntity
  8
0
 62
     0
100
AcDbLine
 10
-53.43604
 20
-35.170612
 30
0.0
 11
-53.43604
 21
-35.170612
 31
0.0
  0
LINE
  5
395
100
AcDbEntity
  8
0
 62
     0
100
AcDbLine
 10
-52.592649
 20
-35.707912
 30
0.0
 11
-52.592649
 21
-35.707912
 31
0.0
  0
LINE
  5
396
100
AcDbEntity
  8
0
 62
     0
100
AcDbLine
 10
-49.55644
 20
-37.642191
 30
0.0
 11
-49.55644
 21
-37.642191
 31
0.0
  0
LINE
  5
397
100
AcDbEntity
  8
0
 62
     0
100
AcDbLine
 10
-55.784723
 20
-37.653509
 30
0.0
 11
-55.784723
 21
-37.653509
 31
0.0
  0
LINE
  5
398
100
AcDbEntity
  8
0
 62
     0
100
AcDbLine
 10
-5.817081
 20
-33.246633
 30
0.0
 11
-5.817081
 21
-33.246633
 31
0.0
  0
LINE
  5
399
100
AcDbEntity
  8
0
 62
     0
100
AcDbLine
 10
-3.826432
 20
-35.070727
 30
0.0
 11
-3.826432
 21
-35.070727
 31
0.0
  0
LINE
  5
39A
100
AcDbEntity
  8
0
 62
     0
100
AcDbLine
 10
-3.457793
 20
-35.408522
 30
0.0
 11
-3.457793
 21
-35.408522
 31
0.0
  0
LINE
  5
39B
100
AcDbEntity
  8
0
 62
     0
100
AcDbLine
 10
-1.717819
 20
-37.002915
 30
0.0
 11
-1.717819
 21
-37.002915
 31
0.0
  0
LINE
  5
39C
100
AcDbEntity
  8
0
 62
     0
100
AcDbLine
 10
0.27283
 20
-38.827008
 30
0.0
 11
0.27283
 21
-38.827008
 31
0.0
  0
LINE
  5
39D
100
AcDbEntity
  8
0
 62
     0
100
AcDbLine
 10
0.641469
 20
-39.164803
 30
0.0
 11
0.641469
 21
-39.164803
 31
0.0
  0
LINE
  5
39E
100
AcDbEntity
  8
0
 62
     0
100
AcDbLine
 10
-6.012703
 20
-25.802812
 30
0.0
 11
-6.012703
 21
-25.802812
 31
0.0
  0
LINE
  5
39F
100
AcDbEntity
  8
0
 62
     0
100
AcDbLine
 10
-5.644064
 20
-26.140607
 30
0.0
 11
-5.644064
 21
-26.140607
 31
0.0
  0
LINE
  5
3A0
100
AcDbEntity
  8
0
 62
     0
100
AcDbLine
 10
-3.90409
 20
-27.735
 30
0.0
 11
-3.90409
 21
-27.735
 31
0.0
  0
LINE
  5
3A1
100
AcDbEntity
  8
0
 62
     0
100
AcDbLine
 10
-1.913441
 20
-29.559094
 30
0.0
 11
-1.913441
 21
-29.559094
 31
0.0
  0
LINE
  5
3A2
100
AcDbEntity
  8
0
 62
     0
100
AcDbLine
 10
-1.544802
 20
-29.896889
 30
0.0
 11
-1.544802
 21
-29.896889
 31
0.0
  0
LINE
  5
3A3
100
AcDbEntity
  8
0
 62
     0
100
AcDbLine
 10
0.195172
 20
-31.491282
 30
0.0
 11
0.195172
 21
-31.491282
 31
0.0
  0
LINE
  5
3A4
100
AcDbEntity
  8
0
 62
     0
100
AcDbLine
 10
2.185821
 20
-33.315375
 30
0.0
 11
2.185821
 21
-33.315375
 31
0.0
  0
LINE
  5
3A5
100
AcDbEntity
  8
0
 62
     0
100
AcDbLine
 10
2.55446
 20
-33.653171
 30
0.0
 11
2.55446
 21
-33.653171
 31
0.0
  0
LINE
  5
3A6
100
AcDbEntity
  8
0
 62
     0
100
AcDbLine
 10
4.294434
 20
-35.247563
 30
0.0
 11
4.294434
 21
-35.247563
 31
0.0
  0
LINE
  5
3A7
100
AcDbEntity
  8
0
 62
     0
100
AcDbLine
 10
6.285083
 20
-37.071657
 30
0.0
 11
6.285083
 21
-37.071657
 31
0.0
  0
LINE
  5
3A8
100
AcDbEntity
  8
0
 62
     0
100
AcDbLine
 10
6.653722
 20
-37.409452
 30
0.0
 11
6.653722
 21
-37.409452
 31
0.0
  0
LINE
  5
3A9
100
AcDbEntity
  8
0
 62
     0
100
AcDbLine
 10
8.393696
 20
-39.003845
 30
0.0
 11
8.393696
 21
-39.003845
 31
0.0
  0
LINE
  5
3AA
100
AcDbEntity
  8
0
 62
     0
100
AcDbLine
 10
-0.00045
 20
-24.047461
 30
0.0
 11
-0.00045
 21
-24.047461
 31
0.0
  0
LINE
  5
3AB
100
AcDbEntity
  8
0
 62
     0
100
AcDbLine
 10
-46.263142
 20
-25.242911
 30
0.0
 11
-46.263142
 21
-25.242911
 31
0.0
  0
LINE
  5
3AC
100
AcDbEntity
  8
0
 62
     0
100
AcDbLine
 10
-44.272493
 20
-27.067005
 30
0.0
 11
-44.272493
 21
-27.067005
 31
0.0
  0
LINE
  5
3AD
100
AcDbEntity
  8
0
 62
     0
100
AcDbLine
 10
-43.903854
 20
-27.4048
 30
0.0
 11
-43.903854
 21
-27.4048
 31
0.0
  0
LINE
  5
3AE
100
AcDbEntity
  8
0
 62
     0
100
AcDbLine
 10
-50.284746
 20
-28.822356
 30
0.0
 11
-50.284746
 21
-28.822356
 31
0.0
  0
LINE
  5
3AF
100
AcDbEntity
  8
0
 62
     0
100
AcDbLine
 10
-49.916107
 20
-29.160151
 30
0.0
 11
-49.916107
 21
-29.160151
 31
0.0
  0
LINE
  5
3B0
100
AcDbEntity
  8
0
 62
     0
100
AcDbLine
 10
-48.176133
 20
-30.754544
 30
0.0
 11
-48.176133
 21
-30.754544
 31
0.0
  0
LINE
  5
3B1
100
AcDbEntity
  8
0
 62
     0
100
AcDbLine
 10
-46.185484
 20
-32.578638
 30
0.0
 11
-46.185484
 21
-32.578638
 31
0.0
  0
LINE
  5
3B2
100
AcDbEntity
  8
0
 62
     0
100
AcDbLine
 10
-45.816845
 20
-32.916433
 30
0.0
 11
-45.816845
 21
-32.916433
 31
0.0
  0
LINE
  5
3B3
100
AcDbEntity
  8
0
 62
     0
100
AcDbLine
 10
-44.076871
 20
-34.510826
 30
0.0
 11
-44.076871
 21
-34.510826
 31
0.0
  0
LINE
  5
3B4
100
AcDbEntity
  8
0
 62
     0
100
AcDbLine
 10
-52.197737
 20
-34.333989
 30
0.0
 11
-52.197737
 21
-34.333989
 31
0.0
  0
LINE
  5
3B5
100
AcDbEntity
  8
0
 62
     0
100
AcDbLine
 10
-51.829099
 20
-34.671784
 30
0.0
 11
-51.829099
 21
-34.671784
 31
0.0
  0
LINE
  5
3B6
100
AcDbEntity
  8
0
 62
     0
100
AcDbLine
 10
-50.089124
 20
-36.266177
 30
0.0
 11
-50.089124
 21
-36.266177
 31
0.0
  0
LINE
  5
3B7
100
AcDbEntity
  8
0
 62
     0
100
AcDbLine
 10
-48.098475
 20
-38.09027
 30
0.0
 11
-48.098475
 21
-38.09027
 31
0.0
  0
LINE
  5
3B8
100
AcDbEntity
  8
0
 62
     0
100
AcDbLine
 10
-47.729837
 20
-38.428065
 30
0.0
 11
-47.729837
 21
-38.428065
 31
0.0
  0
LINE
  5
3B9
100
AcDbEntity
  8
0
 62
     0
100
AcDbLine
 10
-56.101377
 20
-38.021528
 30
0.0
 11
-56.101377
 21
-38.021528
 31
0.0
  0
LINE
  5
3BA
100
AcDbEntity
  8
0
 62
     0
100
AcDbLine
 10
-54.110729
 20
-39.845621
 30
0.0
 11
-54.110729
 21
-39.845621
 31
0.0
  0
ENDBLK
  5
3BC
100
AcDbEntity
  8
0
100
AcDbBlockEnd
  0
BLOCK
  5
32A
100
AcDbEntity
  8
0
100
AcDbBlockBegin
  2
*X38
 70
     1
 10
0.0
 20
0.0
 30
0.0
  3
*X38
  1

  0
LINE
  5
30B
100
AcDbEntity
  8
0
 62
     0
100
AcDbLine
 10
-43.180195
 20
-75.0
 30
0.0
 11
-30.0
 21
-61.819805
 31
0.0
  0
LINE
  5
30C
100
AcDbEntity
  8
0
 62
     0
100
AcDbLine
 10
-20.0
 20
-51.819805
 30
0.0
 11
-8.580195
 21
-40.4
 31
0.0
  0
LINE
  5
30D
100
AcDbEntity
  8
0
 62
     0
100
AcDbLine
 10
-48.483496
 20
-75.0
 30
0.0
 11
-30.0
 21
-56.516504
 31
0.0
  0
LINE
  5
30E
100
AcDbEntity
  8
0
 62
     0
100
AcDbLine
 10
-20.0
 20
-46.516504
 30
0.0
 11
-13.883496
 21
-40.4
 31
0.0
  0
LINE
  5
30F
100
AcDbEntity
  8
0
 62
     0
100
AcDbLine
 10
-53.786797
 20
-75.0
 30
0.0
 11
-30.0
 21
-51.213203
 31
0.0
  0
LINE
  5
310
100
AcDbEntity
  8
0
 62
     0
100
AcDbLine
 10
-20.0
 20
-41.213203
 30
0.0
 11
-19.186797
 21
-40.4
 31
0.0
  0
LINE
  5
311
100
AcDbEntity
  8
0
 62
     0
100
AcDbLine
 10
-59.090097
 20
-75.0
 30
0.0
 11
-30.0
 21
-45.909903
 31
0.0
  0
LINE
  5
312
100
AcDbEntity
  8
0
 62
     0
100
AcDbLine
 10
-64.393398
 20
-75.0
 30
0.0
 11
-30.0
 21
-40.606602
 31
0.0
  0
LINE
  5
313
100
AcDbEntity
  8
0
 62
     0
100
AcDbLine
 10
-69.696699
 20
-75.0
 30
0.0
 11
-35.096699
 21
-40.4
 31
0.0
  0
LINE
  5
314
100
AcDbEntity
  8
0
 62
     0
100
AcDbLine
 10
-74.0
 20
-74.0
 30
0.0
 11
-40.4
 21
-40.4
 31
0.0
  0
LINE
  5
315
100
AcDbEntity
  8
0
 62
     0
100
AcDbLine
 10
-74.0
 20
-68.696699
 30
0.0
 11
-45.703301
 21
-40.4
 31
0.0
  0
LINE
  5
316
100
AcDbEntity
  8
0
 62
     0
100
AcDbLine
 10
-74.0
 20
-63.393398
 30
0.0
 11
-51.006602
 21
-40.4
 31
0.0
  0
LINE
  5
317
100
AcDbEntity
  8
0
 62
     0
100
AcDbLine
 10
-74.0
 20
-58.090097
 30
0.0
 11
-56.309903
 21
-40.4
 31
0.0
  0
LINE
  5
318
100
AcDbEntity
  8
0
 62
     0
100
AcDbLine
 10
-74.0
 20
-52.786797
 30
0.0
 11
-61.613203
 21
-40.4
 31
0.0
  0
LINE
  5
319
100
AcDbEntity
  8
0
 62
     0
100
AcDbLine
 10
-74.0
 20
-47.483496
 30
0.0
 11
-66.916504
 21
-40.4
 31
0.0
  0
LINE
  5
31A
100
AcDbEntity
  8
0
 62
     0
100
AcDbLine
 10
-74.0
 20
-42.180195
 30
0.0
 11
-72.219805
 21
-40.4
 31
0.0
  0
LINE
  5
31B
100
AcDbEntity
  8
0
 62
     0
100
AcDbLine
 10
-37.876894
 20
-75.0
 30
0.0
 11
-30.0
 21
-67.123106
 31
0.0
  0
LINE
  5
31C
100
AcDbEntity
  8
0
 62
     0
100
AcDbLine
 10
-20.0
 20
-57.123106
 30
0.0
 11
-3.276894
 21
-40.4
 31
0.0
  0
LINE
  5
31D
100
AcDbEntity
  8
0
 62
     0
100
AcDbLine
 10
-32.573593
 20
-75.0
 30
0.0
 11
-27.573593
 21
-70.0
 31
0.0
  0
LINE
  5
31E
100
AcDbEntity
  8
0
 62
     0
100
AcDbLine
 10
-20.0
 20
-62.426407
 30
0.0
 11
2.026407
 21
-40.4
 31
0.0
  0
LINE
  5
31F
100
AcDbEntity
  8
0
 62
     0
100
AcDbLine
 10
-27.270292
 20
-75.0
 30
0.0
 11
-22.270292
 21
-70.0
 31
0.0
  0
LINE
  5
320
100
AcDbEntity
  8
0
 62
     0
100
AcDbLine
 10
-20.0
 20
-67.729708
 30
0.0
 11
7.329708
 21
-40.4
 31
0.0
  0
LINE
  5
321
100
AcDbEntity
  8
0
 62
     0
100
AcDbLine
 10
-21.966991
 20
-75.0
 30
0.0
 11
12.633009
 21
-40.4
 31
0.0
  0
LINE
  5
322
100
AcDbEntity
  8
0
 62
     0
100
AcDbLine
 10
-16.663691
 20
-75.0
 30
0.0
 11
17.936309
 21
-40.4
 31
0.0
  0
LINE
  5
323
100
AcDbEntity
  8
0
 62
     0
100
AcDbLine
 10
-11.36039
 20
-75.0
 30
0.0
 11
23.23961
 21
-40.4
 31
0.0
  0
LINE
  5
324
100
AcDbEntity
  8
0
 62
     0
100
AcDbLine
 10
-6.057089
 20
-75.0
 30
0.0
 11
24.0
 21
-44.942911
 31
0.0
  0
LINE
  5
325
100
AcDbEntity
  8
0
 62
     0
100
AcDbLine
 10
-0.753788
 20
-75.0
 30
0.0
 11
24.0
 21
-50.246212
 31
0.0
  0
LINE
  5
326
100
AcDbEntity
  8
0
 62
     0
100
AcDbLine
 10
4.549513
 20
-75.0
 30
0.0
 11
24.0
 21
-55.549513
 31
0.0
  0
LINE
  5
327
100
AcDbEntity
  8
0
 62
     0
100
AcDbLine
 10
9.852814
 20
-75.0
 30
0.0
 11
24.0
 21
-60.852814
 31
0.0
  0
LINE
  5
328
100
AcDbEntity
  8
0
 62
     0
100
AcDbLine
 10
15.156115
 20
-75.0
 30
0.0
 11
24.0
 21
-66.156115
 31
0.0
  0
LINE
  5
329
100
AcDbEntity
  8
0
 62
     0
100
AcDbLine
 10
20.459415
 20
-75.0
 30
0.0
 11
24.0
 21
-71.459415
 31
0.0
  0
ENDBLK
  5
32B
100
AcDbEntity
  8
0
100
AcDbBlockEnd
  0
BLOCK
  5
3D5
100
AcDbEntity
  8
0
100
AcDbBlockBegin
  2
*X39
 70
     1
 10
0.0
 20
0.0
 30
0.0
  3
*X39
  1

  0
LINE
  5
3C6
100
AcDbEntity
  8
0
 62
     0
100
AcDbLine
 10
1955.752514
 20
570.0
 30
0.0
 11
1956.0
 21
570.247486
 31
0.0
  0
LINE
  5
3C7
100
AcDbEntity
  8
0
 62
     0
100
AcDbLine
 10
1955.222184
 20
570.0
 30
0.0
 11
1956.0
 21
570.777816
 31
0.0
  0
LINE
  5
3C8
100
AcDbEntity
  8
0
 62
     0
100
AcDbLine
 10
1954.691854
 20
570.0
 30
0.0
 11
1956.0
 21
571.308146
 31
0.0
  0
LINE
  5
3C9
100
AcDbEntity
  8
0
 62
     0
100
AcDbLine
 10
1954.161524
 20
570.0
 30
0.0
 11
1956.0
 21
571.838476
 31
0.0
  0
LINE
  5
3CA
100
AcDbEntity
  8
0
 62
     0
100
AcDbLine
 10
1953.631194
 20
570.0
 30
0.0
 11
1956.0
 21
572.368806
 31
0.0
  0
LINE
  5
3CB
100
AcDbEntity
  8
0
 62
     0
100
AcDbLine
 10
1964.0
 20
572.413855
 30
0.0
 11
1964.135533
 21
572.549388
 31
0.0
  0
LINE
  5
3CC
100
AcDbEntity
  8
0
 62
     0
100
AcDbLine
 10
1964.0
 20
571.883525
 30
0.0
 11
1964.438871
 21
572.322396
 31
0.0
  0
LINE
  5
3CD
100
AcDbEntity
  8
0
 62
     0
100
AcDbLine
 10
1964.0
 20
571.353194
 30
0.0
 11
1964.733265
 21
572.086459
 31
0.0
  0
LINE
  5
3CE
100
AcDbEntity
  8
0
 62
     0
100
AcDbLine
 10
1964.0
 20
570.822864
 30
0.0
 11
1965.01881
 21
571.841674
 31
0.0
  0
LINE
  5
3CF
100
AcDbEntity
  8
0
 62
     0
100
AcDbLine
 10
1964.0
 20
570.292534
 30
0.0
 11
1965.295575
 21
571.588109
 31
0.0
  0
LINE
  5
3D0
100
AcDbEntity
  8
0
 62
     0
100
AcDbLine
 10
1964.237796
 20
570.0
 30
0.0
 11
1965.563598
 21
571.325802
 31
0.0
  0
LINE
  5
3D1
100
AcDbEntity
  8
0
 62
     0
100
AcDbLine
 10
1964.768126
 20
570.0
 30
0.0
 11
1965.822887
 21
571.054761
 31
0.0
  0
LINE
  5
3D2
100
AcDbEntity
  8
0
 62
     0
100
AcDbLine
 10
1965.298456
 20
570.0
 30
0.0
 11
1966.073424
 21
570.774968
 31
0.0
  0
LINE
  5
3D3
100
AcDbEntity
  8
0
 62
     0
100
AcDbLine
 10
1965.828786
 20
570.0
 30
0.0
 11
1966.31516
 21
570.486374
 31
0.0
  0
LINE
  5
3D4
100
AcDbEntity
  8
0
 62
     0
100
AcDbLine
 10
1966.359116
 20
570.0
 30
0.0
 11
1966.548019
 21
570.188903
 31
0.0
  0
ENDBLK
  5
3D6
100
AcDbEntity
  8
0
100
AcDbBlockEnd
  0
BLOCK
  5
1C1
100
AcDbEntity
  8
0
100
AcDbBlockBegin
  2
*X40
 70
     1
 10
0.0
 20
0.0
 30
0.0
  3
*X40
  1

  0
LINE
  5
199
100
AcDbEntity
  8
0
 62
     0
100
AcDbLine
 10
-70.0
 20
-70.0
 30
0.0
 11
-40.4
 21
-40.4
 31
0.0
  0
LINE
  5
19A
100
AcDbEntity
  8
0
 62
     0
100
AcDbLine
 10
-75.303301
 20
-70.0
 30
0.0
 11
-45.703301
 21
-40.4
 31
0.0
  0
LINE
  5
19B
100
AcDbEntity
  8
0
 62
     0
100
AcDbLine
 10
-80.606602
 20
-70.0
 30
0.0
 11
-51.006602
 21
-40.4
 31
0.0
  0
LINE
  5
19C
100
AcDbEntity
  8
0
 62
     0
100
AcDbLine
 10
-85.909903
 20
-70.0
 30
0.0
 11
-56.309903
 21
-40.4
 31
0.0
  0
LINE
  5
19D
100
AcDbEntity
  8
0
 62
     0
100
AcDbLine
 10
-91.213203
 20
-70.0
 30
0.0
 11
-61.613203
 21
-40.4
 31
0.0
  0
LINE
  5
19E
100
AcDbEntity
  8
0
 62
     0
100
AcDbLine
 10
-96.516504
 20
-70.0
 30
0.0
 11
-66.916504
 21
-40.4
 31
0.0
  0
LINE
  5
19F
100
AcDbEntity
  8
0
 62
     0
100
AcDbLine
 10
-101.819805
 20
-70.0
 30
0.0
 11
-72.219805
 21
-40.4
 31
0.0
  0
LINE
  5
1A0
100
AcDbEntity
  8
0
 62
     0
100
AcDbLine
 10
-107.123106
 20
-70.0
 30
0.0
 11
-77.523106
 21
-40.4
 31
0.0
  0
LINE
  5
1A1
100
AcDbEntity
  8
0
 62
     0
100
AcDbLine
 10
-112.426407
 20
-70.0
 30
0.0
 11
-103.670472
 21
-61.244065
 31
0.0
  0
LINE
  5
1A2
100
AcDbEntity
  8
0
 62
     0
100
AcDbLine
 10
-101.0
 20
-58.573593
 30
0.0
 11
-82.826407
 21
-40.4
 31
0.0
  0
LINE
  5
1A3
100
AcDbEntity
  8
0
 62
     0
100
AcDbLine
 10
-117.729708
 20
-70.0
 30
0.0
 11
-107.981293
 21
-60.251585
 31
0.0
  0
LINE
  5
1A4
100
AcDbEntity
  8
0
 62
     0
100
AcDbLine
 10
-101.0
 20
-53.270292
 30
0.0
 11
-88.129708
 21
-40.4
 31
0.0
  0
LINE
  5
1A5
100
AcDbEntity
  8
0
 62
     0
100
AcDbLine
 10
-123.033009
 20
-70.0
 30
0.0
 11
-109.0
 21
-55.966991
 31
0.0
  0
LINE
  5
1A6
100
AcDbEntity
  8
0
 62
     0
100
AcDbLine
 10
-101.0
 20
-47.966991
 30
0.0
 11
-93.433009
 21
-40.4
 31
0.0
  0
LINE
  5
1A7
100
AcDbEntity
  8
0
 62
     0
100
AcDbLine
 10
-127.0
 20
-68.663691
 30
0.0
 11
-109.0
 21
-50.663691
 31
0.0
  0
LINE
  5
1A8
100
AcDbEntity
  8
0
 62
     0
100
AcDbLine
 10
-101.0
 20
-42.663691
 30
0.0
 11
-98.736309
 21
-40.4
 31
0.0
  0
LINE
  5
1A9
100
AcDbEntity
  8
0
 62
     0
100
AcDbLine
 10
-127.0
 20
-63.36039
 30
0.0
 11
-109.0
 21
-45.36039
 31
0.0
  0
LINE
  5
1AA
100
AcDbEntity
  8
0
 62
     0
100
AcDbLine
 10
-127.0
 20
-58.057089
 30
0.0
 11
-109.342911
 21
-40.4
 31
0.0
  0
LINE
  5
1AB
100
AcDbEntity
  8
0
 62
     0
100
AcDbLine
 10
-127.0
 20
-52.753788
 30
0.0
 11
-114.646212
 21
-40.4
 31
0.0
  0
LINE
  5
1AC
100
AcDbEntity
  8
0
 62
     0
100
AcDbLine
 10
-127.0
 20
-47.450487
 30
0.0
 11
-119.949513
 21
-40.4
 31
0.0
  0
LINE
  5
1AD
100
AcDbEntity
  8
0
 62
     0
100
AcDbLine
 10
-127.0
 20
-42.147186
 30
0.0
 11
-125.252814
 21
-40.4
 31
0.0
  0
LINE
  5
1AE
100
AcDbEntity
  8
0
 62
     0
100
AcDbLine
 10
-64.696699
 20
-70.0
 30
0.0
 11
-35.096699
 21
-40.4
 31
0.0
  0
LINE
  5
1AF
100
AcDbEntity
  8
0
 62
     0
100
AcDbLine
 10
-59.393398
 20
-70.0
 30
0.0
 11
-29.793398
 21
-40.4
 31
0.0
  0
LINE
  5
1B0
100
AcDbEntity
  8
0
 62
     0
100
AcDbLine
 10
-54.090097
 20
-70.0
 30
0.0
 11
-24.490097
 21
-40.4
 31
0.0
  0
LINE
  5
1B1
100
AcDbEntity
  8
0
 62
     0
100
AcDbLine
 10
-48.786797
 20
-70.0
 30
0.0
 11
-19.186797
 21
-40.4
 31
0.0
  0
LINE
  5
1B2
100
AcDbEntity
  8
0
 62
     0
100
AcDbLine
 10
-43.483496
 20
-70.0
 30
0.0
 11
-17.0
 21
-43.516504
 31
0.0
  0
LINE
  5
1B3
100
AcDbEntity
  8
0
 62
     0
100
AcDbLine
 10
-38.180195
 20
-70.0
 30
0.0
 11
-17.0
 21
-48.819805
 31
0.0
  0
LINE
  5
1B4
100
AcDbEntity
  8
0
 62
     0
100
AcDbLine
 10
-9.0
 20
-40.819805
 30
0.0
 11
-8.580195
 21
-40.4
 31
0.0
  0
LINE
  5
1B5
100
AcDbEntity
  8
0
 62
     0
100
AcDbLine
 10
-32.876894
 20
-70.0
 30
0.0
 11
-17.0
 21
-54.123106
 31
0.0
  0
LINE
  5
1B6
100
AcDbEntity
  8
0
 62
     0
100
AcDbLine
 10
-9.0
 20
-46.123106
 30
0.0
 11
-3.276894
 21
-40.4
 31
0.0
  0
LINE
  5
1B7
100
AcDbEntity
  8
0
 62
     0
100
AcDbLine
 10
-27.573593
 20
-70.0
 30
0.0
 11
-16.786797
 21
-59.213203
 31
0.0
  0
LINE
  5
1B8
100
AcDbEntity
  8
0
 62
     0
100
AcDbLine
 10
-9.0
 20
-51.426407
 30
0.0
 11
2.026407
 21
-40.4
 31
0.0
  0
LINE
  5
1B9
100
AcDbEntity
  8
0
 62
     0
100
AcDbLine
 10
-22.270292
 20
-70.0
 30
0.0
 11
-13.82032
 21
-61.550028
 31
0.0
  0
LINE
  5
1BA
100
AcDbEntity
  8
0
 62
     0
100
AcDbLine
 10
-9.0
 20
-56.729708
 30
0.0
 11
7.329708
 21
-40.4
 31
0.0
  0
LINE
  5
1BB
100
AcDbEntity
  8
0
 62
     0
100
AcDbLine
 10
-16.966991
 20
-70.0
 30
0.0
 11
12.0
 21
-41.033009
 31
0.0
  0
LINE
  5
1BC
100
AcDbEntity
  8
0
 62
     0
100
AcDbLine
 10
-11.663691
 20
-70.0
 30
0.0
 11
12.0
 21
-46.336309
 31
0.0
  0
LINE
  5
1BD
100
AcDbEntity
  8
0
 62
     0
100
AcDbLine
 10
-6.36039
 20
-70.0
 30
0.0
 11
12.0
 21
-51.63961
 31
0.0
  0
LINE
  5
1BE
100
AcDbEntity
  8
0
 62
     0
100
AcDbLine
 10
-1.057089
 20
-70.0
 30
0.0
 11
12.0
 21
-56.942911
 31
0.0
  0
LINE
  5
1BF
100
AcDbEntity
  8
0
 62
     0
100
AcDbLine
 10
4.246212
 20
-70.0
 30
0.0
 11
12.0
 21
-62.246212
 31
0.0
  0
LINE
  5
1C0
100
AcDbEntity
  8
0
 62
     0
100
AcDbLine
 10
9.549513
 20
-70.0
 30
0.0
 11
12.0
 21
-67.549513
 31
0.0
  0
ENDBLK
  5
1C2
100
AcDbEntity
  8
0
100
AcDbBlockEnd
  0
BLOCK
  5
D4
100
AcDbEntity
  8
0
100
AcDbBlockBegin
  2
*X41
 70
     1
 10
0.0
 20
0.0
 30
0.0
  3
*X41
  1

  0
LINE
  5
9D
100
AcDbEntity
  8
0
 62
     0
100
AcDbLine
 10
-64.709083
 20
-29.901423
 30
0.0
 11
-64.709083
 21
-29.901423
 31
0.0
  0
LINE
  5
9E
100
AcDbEntity
  8
0
 62
     0
100
AcDbLine
 10
-62.130685
 20
-27.922948
 30
0.0
 11
-62.130685
 21
-27.922948
 31
0.0
  0
LINE
  5
9F
100
AcDbEntity
  8
0
 62
     0
100
AcDbLine
 10
-59.71889
 20
-26.072314
 30
0.0
 11
-59.71889
 21
-26.072314
 31
0.0
  0
LINE
  5
A0
100
AcDbEntity
  8
0
 62
     0
100
AcDbLine
 10
-64.83507
 20
-26.047775
 30
0.0
 11
-64.83507
 21
-26.047775
 31
0.0
  0
LINE
  5
A1
100
AcDbEntity
  8
0
 62
     0
100
AcDbLine
 10
-72.27069
 20
-39.653969
 30
0.0
 11
-72.27069
 21
-39.653969
 31
0.0
  0
LINE
  5
A2
100
AcDbEntity
  8
0
 62
     0
100
AcDbLine
 10
-69.692292
 20
-37.675494
 30
0.0
 11
-69.692292
 21
-37.675494
 31
0.0
  0
LINE
  5
A3
100
AcDbEntity
  8
0
 62
     0
100
AcDbLine
 10
-67.280498
 20
-35.824859
 30
0.0
 11
-67.280498
 21
-35.824859
 31
0.0
  0
LINE
  5
A4
100
AcDbEntity
  8
0
 62
     0
100
AcDbLine
 10
-64.583096
 20
-33.75507
 30
0.0
 11
-64.583096
 21
-33.75507
 31
0.0
  0
LINE
  5
A5
100
AcDbEntity
  8
0
 62
     0
100
AcDbLine
 10
-62.004698
 20
-31.776596
 30
0.0
 11
-62.004698
 21
-31.776596
 31
0.0
  0
LINE
  5
A6
100
AcDbEntity
  8
0
 62
     0
100
AcDbLine
 10
-59.592904
 20
-29.925961
 30
0.0
 11
-59.592904
 21
-29.925961
 31
0.0
  0
LINE
  5
A7
100
AcDbEntity
  8
0
 62
     0
100
AcDbLine
 10
-67.154511
 20
-39.678507
 30
0.0
 11
-67.154511
 21
-39.678507
 31
0.0
  0
LINE
  5
A8
100
AcDbEntity
  8
0
 62
     0
100
AcDbLine
 10
-64.457109
 20
-37.608718
 30
0.0
 11
-64.457109
 21
-37.608718
 31
0.0
  0
LINE
  5
A9
100
AcDbEntity
  8
0
 62
     0
100
AcDbLine
 10
-61.878711
 20
-35.630243
 30
0.0
 11
-61.878711
 21
-35.630243
 31
0.0
  0
LINE
  5
AA
100
AcDbEntity
  8
0
 62
     0
100
AcDbLine
 10
-59.466917
 20
-33.779609
 30
0.0
 11
-59.466917
 21
-33.779609
 31
0.0
  0
LINE
  5
AB
100
AcDbEntity
  8
0
 62
     0
100
AcDbLine
 10
-59.34093
 20
-37.633256
 30
0.0
 11
-59.34093
 21
-37.633256
 31
0.0
  0
LINE
  5
AC
100
AcDbEntity
  8
0
 62
     0
100
AcDbLine
 10
-63.651141
 20
-29.093036
 30
0.0
 11
-63.651141
 21
-29.093036
 31
0.0
  0
LINE
  5
AD
100
AcDbEntity
  8
0
 62
     0
100
AcDbLine
 10
-62.610124
 20
-28.955984
 30
0.0
 11
-62.610124
 21
-28.955984
 31
0.0
  0
LINE
  5
AE
100
AcDbEntity
  8
0
 62
     0
100
AcDbLine
 10
-60.984154
 20
-28.741921
 30
0.0
 11
-60.984154
 21
-28.741921
 31
0.0
  0
LINE
  5
AF
100
AcDbEntity
  8
0
 62
     0
100
AcDbLine
 10
-58.267596
 20
-28.384279
 30
0.0
 11
-58.267596
 21
-28.384279
 31
0.0
  0
LINE
  5
B0
100
AcDbEntity
  8
0
 62
     0
100
AcDbLine
 10
-67.190695
 20
-34.737328
 30
0.0
 11
-67.190695
 21
-34.737328
 31
0.0
  0
LINE
  5
B1
100
AcDbEntity
  8
0
 62
     0
100
AcDbLine
 10
-66.149677
 20
-34.600276
 30
0.0
 11
-66.149677
 21
-34.600276
 31
0.0
  0
LINE
  5
B2
100
AcDbEntity
  8
0
 62
     0
100
AcDbLine
 10
-64.523708
 20
-34.386213
 30
0.0
 11
-64.523708
 21
-34.386213
 31
0.0
  0
LINE
  5
B3
100
AcDbEntity
  8
0
 62
     0
100
AcDbLine
 10
-61.807149
 20
-34.028571
 30
0.0
 11
-61.807149
 21
-34.028571
 31
0.0
  0
LINE
  5
B4
100
AcDbEntity
  8
0
 62
     0
100
AcDbLine
 10
-60.766132
 20
-33.891518
 30
0.0
 11
-60.766132
 21
-33.891518
 31
0.0
  0
LINE
  5
B5
100
AcDbEntity
  8
0
 62
     0
100
AcDbLine
 10
-59.140162
 20
-33.677455
 30
0.0
 11
-59.140162
 21
-33.677455
 31
0.0
  0
LINE
  5
B6
100
AcDbEntity
  8
0
 62
     0
100
AcDbLine
 10
-65.346702
 20
-39.672863
 30
0.0
 11
-65.346702
 21
-39.672863
 31
0.0
  0
LINE
  5
B7
100
AcDbEntity
  8
0
 62
     0
100
AcDbLine
 10
-66.664473
 20
-30.722344
 30
0.0
 11
-66.664473
 21
-30.722344
 31
0.0
  0
LINE
  5
B8
100
AcDbEntity
  8
0
 62
     0
100
AcDbLine
 10
-63.628264
 20
-32.656622
 30
0.0
 11
-63.628264
 21
-32.656622
 31
0.0
  0
LINE
  5
B9
100
AcDbEntity
  8
0
 62
     0
100
AcDbLine
 10
-59.664324
 20
-35.18193
 30
0.0
 11
-59.664324
 21
-35.18193
 31
0.0
  0
LINE
  5
BA
100
AcDbEntity
  8
0
 62
     0
100
AcDbLine
 10
-58.820932
 20
-35.71923
 30
0.0
 11
-58.820932
 21
-35.71923
 31
0.0
  0
LINE
  5
BB
100
AcDbEntity
  8
0
 62
     0
100
AcDbLine
 10
-65.24352
 20
-27.648418
 30
0.0
 11
-65.24352
 21
-27.648418
 31
0.0
  0
LINE
  5
BC
100
AcDbEntity
  8
0
 62
     0
100
AcDbLine
 10
-61.279581
 20
-30.173726
 30
0.0
 11
-61.279581
 21
-30.173726
 31
0.0
  0
LINE
  5
BD
100
AcDbEntity
  8
0
 62
     0
100
AcDbLine
 10
-60.436189
 20
-30.711026
 30
0.0
 11
-60.436189
 21
-30.711026
 31
0.0
  0
LINE
  5
BE
100
AcDbEntity
  8
0
 62
     0
100
AcDbLine
 10
-62.894837
 20
-25.165522
 30
0.0
 11
-62.894837
 21
-25.165522
 31
0.0
  0
LINE
  5
BF
100
AcDbEntity
  8
0
 62
     0
100
AcDbLine
 10
-62.051446
 20
-25.702821
 30
0.0
 11
-62.051446
 21
-25.702821
 31
0.0
  0
LINE
  5
C0
100
AcDbEntity
  8
0
 62
     0
100
AcDbLine
 10
-59.015237
 20
-27.6371
 30
0.0
 11
-59.015237
 21
-27.6371
 31
0.0
  0
LINE
  5
C1
100
AcDbEntity
  8
0
 62
     0
100
AcDbLine
 10
-65.892608
 20
-35.193249
 30
0.0
 11
-65.892608
 21
-35.193249
 31
0.0
  0
LINE
  5
C2
100
AcDbEntity
  8
0
 62
     0
100
AcDbLine
 10
-65.049216
 20
-35.730548
 30
0.0
 11
-65.049216
 21
-35.730548
 31
0.0
  0
LINE
  5
C3
100
AcDbEntity
  8
0
 62
     0
100
AcDbLine
 10
-62.013007
 20
-37.664827
 30
0.0
 11
-62.013007
 21
-37.664827
 31
0.0
  0
LINE
  5
C4
100
AcDbEntity
  8
0
 62
     0
100
AcDbLine
 10
-68.241291
 20
-37.676145
 30
0.0
 11
-68.241291
 21
-37.676145
 31
0.0
  0
LINE
  5
C5
100
AcDbEntity
  8
0
 62
     0
100
AcDbLine
 10
-64.299901
 20
-30.508965
 30
0.0
 11
-64.299901
 21
-30.508965
 31
0.0
  0
LINE
  5
C6
100
AcDbEntity
  8
0
 62
     0
100
AcDbLine
 10
-62.309253
 20
-32.333058
 30
0.0
 11
-62.309253
 21
-32.333058
 31
0.0
  0
LINE
  5
C7
100
AcDbEntity
  8
0
 62
     0
100
AcDbLine
 10
-61.940614
 20
-32.670853
 30
0.0
 11
-61.940614
 21
-32.670853
 31
0.0
  0
LINE
  5
C8
100
AcDbEntity
  8
0
 62
     0
100
AcDbLine
 10
-60.200639
 20
-34.265246
 30
0.0
 11
-60.200639
 21
-34.265246
 31
0.0
  0
LINE
  5
C9
100
AcDbEntity
  8
0
 62
     0
100
AcDbLine
 10
-58.209991
 20
-36.08934
 30
0.0
 11
-58.209991
 21
-36.08934
 31
0.0
  0
LINE
  5
CA
100
AcDbEntity
  8
0
 62
     0
100
AcDbLine
 10
-60.396261
 20
-26.821426
 30
0.0
 11
-60.396261
 21
-26.821426
 31
0.0
  0
LINE
  5
CB
100
AcDbEntity
  8
0
 62
     0
100
AcDbLine
 10
-60.027623
 20
-27.159221
 30
0.0
 11
-60.027623
 21
-27.159221
 31
0.0
  0
LINE
  5
CC
100
AcDbEntity
  8
0
 62
     0
100
AcDbLine
 10
-58.287648
 20
-28.753614
 30
0.0
 11
-58.287648
 21
-28.753614
 31
0.0
  0
LINE
  5
CD
100
AcDbEntity
  8
0
 62
     0
100
AcDbLine
 10
-68.321506
 20
-34.088409
 30
0.0
 11
-68.321506
 21
-34.088409
 31
0.0
  0
LINE
  5
CE
100
AcDbEntity
  8
0
 62
     0
100
AcDbLine
 10
-67.952867
 20
-34.426204
 30
0.0
 11
-67.952867
 21
-34.426204
 31
0.0
  0
LINE
  5
CF
100
AcDbEntity
  8
0
 62
     0
100
AcDbLine
 10
-66.212893
 20
-36.020597
 30
0.0
 11
-66.212893
 21
-36.020597
 31
0.0
  0
LINE
  5
D0
100
AcDbEntity
  8
0
 62
     0
100
AcDbLine
 10
-64.222244
 20
-37.844691
 30
0.0
 11
-64.222244
 21
-37.844691
 31
0.0
  0
LINE
  5
D1
100
AcDbEntity
  8
0
 62
     0
100
AcDbLine
 10
-72.225146
 20
-37.775948
 30
0.0
 11
-72.225146
 21
-37.775948
 31
0.0
  0
LINE
  5
D2
100
AcDbEntity
  8
0
 62
     0
100
AcDbLine
 10
-70.234497
 20
-39.600042
 30
0.0
 11
-70.234497
 21
-39.600042
 31
0.0
  0
LINE
  5
D3
100
AcDbEntity
  8
0
 62
     0
100
AcDbLine
 10
-69.865858
 20
-39.937837
 30
0.0
 11
-69.865858
 21
-39.937837
 31
0.0
  0
ENDBLK
  5
D5
100
AcDbEntity
  8
0
100
AcDbBlockEnd
  0
BLOCK
  5
96
100
AcDbEntity
  8
0
100
AcDbBlockBegin
  2
*X42
 70
     1
 10
0.0
 20
0.0
 30
0.0
  3
*X42
  1

  0
LINE
  5
62
100
AcDbEntity
  8
0
 62
     0
100
AcDbLine
 10
-4.267906
 20
-34.877444
 30
0.0
 11
-4.267906
 21
-34.877444
 31
0.0
  0
LINE
  5
63
100
AcDbEntity
  8
0
 62
     0
100
AcDbLine
 10
-1.570505
 20
-32.807655
 30
0.0
 11
-1.570505
 21
-32.807655
 31
0.0
  0
LINE
  5
64
100
AcDbEntity
  8
0
 62
     0
100
AcDbLine
 10
1.007894
 20
-30.82918
 30
0.0
 11
1.007894
 21
-30.82918
 31
0.0
  0
LINE
  5
65
100
AcDbEntity
  8
0
 62
     0
100
AcDbLine
 10
-4.393893
 20
-31.023796
 30
0.0
 11
-4.393893
 21
-31.023796
 31
0.0
  0
LINE
  5
66
100
AcDbEntity
  8
0
 62
     0
100
AcDbLine
 10
-1.696491
 20
-28.954007
 30
0.0
 11
-1.696491
 21
-28.954007
 31
0.0
  0
LINE
  5
67
100
AcDbEntity
  8
0
 62
     0
100
AcDbLine
 10
-4.519879
 20
-27.170149
 30
0.0
 11
-4.519879
 21
-27.170149
 31
0.0
  0
LINE
  5
68
100
AcDbEntity
  8
0
 62
     0
100
AcDbLine
 10
-1.822478
 20
-25.10036
 30
0.0
 11
-1.822478
 21
-25.10036
 31
0.0
  0
LINE
  5
69
100
AcDbEntity
  8
0
 62
     0
100
AcDbLine
 10
-1.444518
 20
-36.661302
 30
0.0
 11
-1.444518
 21
-36.661302
 31
0.0
  0
LINE
  5
6A
100
AcDbEntity
  8
0
 62
     0
100
AcDbLine
 10
1.13388
 20
-34.682828
 30
0.0
 11
1.13388
 21
-34.682828
 31
0.0
  0
LINE
  5
6B
100
AcDbEntity
  8
0
 62
     0
100
AcDbLine
 10
1.259867
 20
-38.536475
 30
0.0
 11
1.259867
 21
-38.536475
 31
0.0
  0
LINE
  5
6C
100
AcDbEntity
  8
0
 62
     0
100
AcDbLine
 10
3.671661
 20
-36.685841
 30
0.0
 11
3.671661
 21
-36.685841
 31
0.0
  0
LINE
  5
6D
100
AcDbEntity
  8
0
 62
     0
100
AcDbLine
 10
6.495049
 20
-38.469699
 30
0.0
 11
6.495049
 21
-38.469699
 31
0.0
  0
LINE
  5
6E
100
AcDbEntity
  8
0
 62
     0
100
AcDbLine
 10
-3.460714
 20
-31.525418
 30
0.0
 11
-3.460714
 21
-31.525418
 31
0.0
  0
LINE
  5
6F
100
AcDbEntity
  8
0
 62
     0
100
AcDbLine
 10
-0.744155
 20
-31.167776
 30
0.0
 11
-0.744155
 21
-31.167776
 31
0.0
  0
LINE
  5
70
100
AcDbEntity
  8
0
 62
     0
100
AcDbLine
 10
0.296862
 20
-31.030724
 30
0.0
 11
0.296862
 21
-31.030724
 31
0.0
  0
LINE
  5
71
100
AcDbEntity
  8
0
 62
     0
100
AcDbLine
 10
-2.588147
 20
-26.232241
 30
0.0
 11
-2.588147
 21
-26.232241
 31
0.0
  0
LINE
  5
72
100
AcDbEntity
  8
0
 62
     0
100
AcDbLine
 10
-1.54713
 20
-26.095189
 30
0.0
 11
-1.54713
 21
-26.095189
 31
0.0
  0
LINE
  5
73
100
AcDbEntity
  8
0
 62
     0
100
AcDbLine
 10
0.078839
 20
-25.881126
 30
0.0
 11
0.078839
 21
-25.881126
 31
0.0
  0
LINE
  5
74
100
AcDbEntity
  8
0
 62
     0
100
AcDbLine
 10
-4.283709
 20
-36.812069
 30
0.0
 11
-4.283709
 21
-36.812069
 31
0.0
  0
LINE
  5
75
100
AcDbEntity
  8
0
 62
     0
100
AcDbLine
 10
-3.242691
 20
-36.675016
 30
0.0
 11
-3.242691
 21
-36.675016
 31
0.0
  0
LINE
  5
76
100
AcDbEntity
  8
0
 62
     0
100
AcDbLine
 10
-1.616722
 20
-36.460953
 30
0.0
 11
-1.616722
 21
-36.460953
 31
0.0
  0
LINE
  5
77
100
AcDbEntity
  8
0
 62
     0
100
AcDbLine
 10
1.099837
 20
-36.103311
 30
0.0
 11
1.099837
 21
-36.103311
 31
0.0
  0
LINE
  5
78
100
AcDbEntity
  8
0
 62
     0
100
AcDbLine
 10
2.140854
 20
-35.966259
 30
0.0
 11
2.140854
 21
-35.966259
 31
0.0
  0
LINE
  5
79
100
AcDbEntity
  8
0
 62
     0
100
AcDbLine
 10
3.766824
 20
-35.752196
 30
0.0
 11
3.766824
 21
-35.752196
 31
0.0
  0
LINE
  5
7A
100
AcDbEntity
  8
0
 62
     0
100
AcDbLine
 10
10.994361
 20
-39.978974
 30
0.0
 11
10.994361
 21
-39.978974
 31
0.0
  0
LINE
  5
7B
100
AcDbEntity
  8
0
 62
     0
100
AcDbLine
 10
-0.612
 20
-25.05234
 30
0.0
 11
-0.612
 21
-25.05234
 31
0.0
  0
LINE
  5
7C
100
AcDbEntity
  8
0
 62
     0
100
AcDbLine
 10
-2.960683
 20
-27.535237
 30
0.0
 11
-2.960683
 21
-27.535237
 31
0.0
  0
LINE
  5
7D
100
AcDbEntity
  8
0
 62
     0
100
AcDbLine
 10
1.003257
 20
-30.060545
 30
0.0
 11
1.003257
 21
-30.060545
 31
0.0
  0
LINE
  5
7E
100
AcDbEntity
  8
0
 62
     0
100
AcDbLine
 10
-4.381636
 20
-30.609163
 30
0.0
 11
-4.381636
 21
-30.609163
 31
0.0
  0
LINE
  5
7F
100
AcDbEntity
  8
0
 62
     0
100
AcDbLine
 10
-1.345426
 20
-32.543441
 30
0.0
 11
-1.345426
 21
-32.543441
 31
0.0
  0
LINE
  5
80
100
AcDbEntity
  8
0
 62
     0
100
AcDbLine
 10
2.618513
 20
-35.068749
 30
0.0
 11
2.618513
 21
-35.068749
 31
0.0
  0
LINE
  5
81
100
AcDbEntity
  8
0
 62
     0
100
AcDbLine
 10
3.461905
 20
-35.606049
 30
0.0
 11
3.461905
 21
-35.606049
 31
0.0
  0
LINE
  5
82
100
AcDbEntity
  8
0
 62
     0
100
AcDbLine
 10
6.498114
 20
-37.540328
 30
0.0
 11
6.498114
 21
-37.540328
 31
0.0
  0
LINE
  5
83
100
AcDbEntity
  8
0
 62
     0
100
AcDbLine
 10
-3.60977
 20
-35.080067
 30
0.0
 11
-3.60977
 21
-35.080067
 31
0.0
  0
LINE
  5
84
100
AcDbEntity
  8
0
 62
     0
100
AcDbLine
 10
-2.766379
 20
-35.617367
 30
0.0
 11
-2.766379
 21
-35.617367
 31
0.0
  0
LINE
  5
85
100
AcDbEntity
  8
0
 62
     0
100
AcDbLine
 10
0.26983
 20
-37.551646
 30
0.0
 11
0.26983
 21
-37.551646
 31
0.0
  0
LINE
  5
86
100
AcDbEntity
  8
0
 62
     0
100
AcDbLine
 10
-0.00045
 20
-24.047461
 30
0.0
 11
-0.00045
 21
-24.047461
 31
0.0
  0
LINE
  5
87
100
AcDbEntity
  8
0
 62
     0
100
AcDbLine
 10
-3.90409
 20
-27.735
 30
0.0
 11
-3.90409
 21
-27.735
 31
0.0
  0
LINE
  5
88
100
AcDbEntity
  8
0
 62
     0
100
AcDbLine
 10
-1.913441
 20
-29.559094
 30
0.0
 11
-1.913441
 21
-29.559094
 31
0.0
  0
LINE
  5
89
100
AcDbEntity
  8
0
 62
     0
100
AcDbLine
 10
-1.544802
 20
-29.896889
 30
0.0
 11
-1.544802
 21
-29.896889
 31
0.0
  0
LINE
  5
8A
100
AcDbEntity
  8
0
 62
     0
100
AcDbLine
 10
0.195172
 20
-31.491282
 30
0.0
 11
0.195172
 21
-31.491282
 31
0.0
  0
LINE
  5
8B
100
AcDbEntity
  8
0
 62
     0
100
AcDbLine
 10
2.185821
 20
-33.315375
 30
0.0
 11
2.185821
 21
-33.315375
 31
0.0
  0
LINE
  5
8C
100
AcDbEntity
  8
0
 62
     0
100
AcDbLine
 10
2.55446
 20
-33.653171
 30
0.0
 11
2.55446
 21
-33.653171
 31
0.0
  0
LINE
  5
8D
100
AcDbEntity
  8
0
 62
     0
100
AcDbLine
 10
4.294434
 20
-35.247563
 30
0.0
 11
4.294434
 21
-35.247563
 31
0.0
  0
LINE
  5
8E
100
AcDbEntity
  8
0
 62
     0
100
AcDbLine
 10
6.285083
 20
-37.071657
 30
0.0
 11
6.285083
 21
-37.071657
 31
0.0
  0
LINE
  5
8F
100
AcDbEntity
  8
0
 62
     0
100
AcDbLine
 10
6.653722
 20
-37.409452
 30
0.0
 11
6.653722
 21
-37.409452
 31
0.0
  0
LINE
  5
90
100
AcDbEntity
  8
0
 62
     0
100
AcDbLine
 10
8.393696
 20
-39.003845
 30
0.0
 11
8.393696
 21
-39.003845
 31
0.0
  0
LINE
  5
91
100
AcDbEntity
  8
0
 62
     0
100
AcDbLine
 10
-3.826432
 20
-35.070727
 30
0.0
 11
-3.826432
 21
-35.070727
 31
0.0
  0
LINE
  5
92
100
AcDbEntity
  8
0
 62
     0
100
AcDbLine
 10
-3.457793
 20
-35.408522
 30
0.0
 11
-3.457793
 21
-35.408522
 31
0.0
  0
LINE
  5
93
100
AcDbEntity
  8
0
 62
     0
100
AcDbLine
 10
-1.717819
 20
-37.002915
 30
0.0
 11
-1.717819
 21
-37.002915
 31
0.0
  0
LINE
  5
94
100
AcDbEntity
  8
0
 62
     0
100
AcDbLine
 10
0.27283
 20
-38.827008
 30
0.0
 11
0.27283
 21
-38.827008
 31
0.0
  0
LINE
  5
95
100
AcDbEntity
  8
0
 62
     0
100
AcDbLine
 10
0.641469
 20
-39.164803
 30
0.0
 11
0.641469
 21
-39.164803
 31
0.0
  0
ENDBLK
  5
97
100
AcDbEntity
  8
0
100
AcDbBlockEnd
  0
BLOCK
  5
5C
100
AcDbEntity
  8
0
100
AcDbBlockBegin
  2
*X43
 70
     1
 10
0.0
 20
0.0
 30
0.0
  3
*X43
  1

  0
LINE
  5
40
100
AcDbEntity
  8
0
 62
     0
100
AcDbLine
 10
-55.0
 20
-55.0
 30
0.0
 11
-40.4
 21
-40.4
 31
0.0
  0
LINE
  5
41
100
AcDbEntity
  8
0
 62
     0
100
AcDbLine
 10
-60.303301
 20
-55.0
 30
0.0
 11
-45.703301
 21
-40.4
 31
0.0
  0
LINE
  5
42
100
AcDbEntity
  8
0
 62
     0
100
AcDbLine
 10
-65.606602
 20
-55.0
 30
0.0
 11
-51.006602
 21
-40.4
 31
0.0
  0
LINE
  5
43
100
AcDbEntity
  8
0
 62
     0
100
AcDbLine
 10
-70.909903
 20
-55.0
 30
0.0
 11
-56.309903
 21
-40.4
 31
0.0
  0
LINE
  5
44
100
AcDbEntity
  8
0
 62
     0
100
AcDbLine
 10
-76.213203
 20
-55.0
 30
0.0
 11
-61.613203
 21
-40.4
 31
0.0
  0
LINE
  5
45
100
AcDbEntity
  8
0
 62
     0
100
AcDbLine
 10
-81.516504
 20
-55.0
 30
0.0
 11
-66.916504
 21
-40.4
 31
0.0
  0
LINE
  5
46
100
AcDbEntity
  8
0
 62
     0
100
AcDbLine
 10
-86.819805
 20
-55.0
 30
0.0
 11
-72.219805
 21
-40.4
 31
0.0
  0
LINE
  5
47
100
AcDbEntity
  8
0
 62
     0
100
AcDbLine
 10
-92.123106
 20
-55.0
 30
0.0
 11
-77.523106
 21
-40.4
 31
0.0
  0
LINE
  5
48
100
AcDbEntity
  8
0
 62
     0
100
AcDbLine
 10
-97.426407
 20
-55.0
 30
0.0
 11
-82.826407
 21
-40.4
 31
0.0
  0
LINE
  5
49
100
AcDbEntity
  8
0
 62
     0
100
AcDbLine
 10
-102.729708
 20
-55.0
 30
0.0
 11
-88.129708
 21
-40.4
 31
0.0
  0
LINE
  5
4A
100
AcDbEntity
  8
0
 62
     0
100
AcDbLine
 10
-108.033009
 20
-55.0
 30
0.0
 11
-93.433009
 21
-40.4
 31
0.0
  0
LINE
  5
4B
100
AcDbEntity
  8
0
 62
     0
100
AcDbLine
 10
-113.336309
 20
-55.0
 30
0.0
 11
-98.736309
 21
-40.4
 31
0.0
  0
LINE
  5
4C
100
AcDbEntity
  8
0
 62
     0
100
AcDbLine
 10
-114.0
 20
-50.36039
 30
0.0
 11
-104.03961
 21
-40.4
 31
0.0
  0
LINE
  5
4D
100
AcDbEntity
  8
0
 62
     0
100
AcDbLine
 10
-114.0
 20
-45.057089
 30
0.0
 11
-109.342911
 21
-40.4
 31
0.0
  0
LINE
  5
4E
100
AcDbEntity
  8
0
 62
     0
100
AcDbLine
 10
-49.696699
 20
-55.0
 30
0.0
 11
-35.096699
 21
-40.4
 31
0.0
  0
LINE
  5
4F
100
AcDbEntity
  8
0
 62
     0
100
AcDbLine
 10
-44.393398
 20
-55.0
 30
0.0
 11
-29.793398
 21
-40.4
 31
0.0
  0
LINE
  5
50
100
AcDbEntity
  8
0
 62
     0
100
AcDbLine
 10
-39.090097
 20
-55.0
 30
0.0
 11
-24.490097
 21
-40.4
 31
0.0
  0
LINE
  5
51
100
AcDbEntity
  8
0
 62
     0
100
AcDbLine
 10
-33.786797
 20
-55.0
 30
0.0
 11
-19.186797
 21
-40.4
 31
0.0
  0
LINE
  5
52
100
AcDbEntity
  8
0
 62
     0
100
AcDbLine
 10
-28.483496
 20
-55.0
 30
0.0
 11
-13.883496
 21
-40.4
 31
0.0
  0
LINE
  5
53
100
AcDbEntity
  8
0
 62
     0
100
AcDbLine
 10
-23.180195
 20
-55.0
 30
0.0
 11
-8.580195
 21
-40.4
 31
0.0
  0
LINE
  5
54
100
AcDbEntity
  8
0
 62
     0
100
AcDbLine
 10
-17.876894
 20
-55.0
 30
0.0
 11
-3.276894
 21
-40.4
 31
0.0
  0
LINE
  5
55
100
AcDbEntity
  8
0
 62
     0
100
AcDbLine
 10
-12.573593
 20
-55.0
 30
0.0
 11
2.026407
 21
-40.4
 31
0.0
  0
LINE
  5
56
100
AcDbEntity
  8
0
 62
     0
100
AcDbLine
 10
-7.270292
 20
-55.0
 30
0.0
 11
7.329708
 21
-40.4
 31
0.0
  0
LINE
  5
57
100
AcDbEntity
  8
0
 62
     0
100
AcDbLine
 10
-1.966991
 20
-55.0
 30
0.0
 11
12.633009
 21
-40.4
 31
0.0
  0
LINE
  5
58
100
AcDbEntity
  8
0
 62
     0
100
AcDbLine
 10
3.336309
 20
-55.0
 30
0.0
 11
17.936309
 21
-40.4
 31
0.0
  0
LINE
  5
59
100
AcDbEntity
  8
0
 62
     0
100
AcDbLine
 10
8.63961
 20
-55.0
 30
0.0
 11
23.23961
 21
-40.4
 31
0.0
  0
LINE
  5
5A
100
AcDbEntity
  8
0
 62
     0
100
AcDbLine
 10
13.942911
 20
-55.0
 30
0.0
 11
24.0
 21
-44.942911
 31
0.0
  0
LINE
  5
5B
100
AcDbEntity
  8
0
 62
     0
100
AcDbLine
 10
19.246212
 20
-55.0
 30
0.0
 11
24.0
 21
-50.246212
 31
0.0
  0
ENDBLK
  5
5D
100
AcDbEntity
  8
0
100
AcDbBlockEnd
  0
BLOCK
  5
2FF
100
AcDbEntity
  8
0
100
AcDbBlockBegin
  2
65_ANSLAG-A3
 70
     0
 10
0.0
 20
0.0
 30
0.0
  3
65_ANSLAG-A3
  1

  0
INSERT
  5
2C4
100
AcDbEntity
  8
GLAS_MED_FOGNING
100
AcDbBlockReference
  2
*X29
 10
55.0
 20
-390.0
 30
0.0
1001
ACAD
1000
HATCH
1002
{
1070
    16
1000
ANSI31
1040
10.0
1040
0.0
1002
}
  0
LINE
  5
2EB
100
AcDbEntity
  8
FOGNINGR
100
AcDbLine
 10
-41.341207
 20
-25.991966
 30
0.0
 11
-8.60489
 21
-25.991966
 31
0.0
  0
LINE
  5
2ED
100
AcDbEntity
  8
FOGNINGR
100
AcDbLine
 10
-4.973048
 20
-25.0
 30
0.0
 11
-44.973048
 21
-25.0
 31
0.0
  0
INSERT
  5
2EE
100
AcDbEntity
  8
FOGNINGB
100
AcDbBlockReference
  2
*X33
 10
10.0
 20
-0.622807
 30
0.0
 41
0.923077
 42
0.923077
 43
0.923077
1001
ACAD
1000
HATCH
1002
{
1070
    16
1000
ANSI31
1040
30.0
1040
0.0
1002
}
  0
LINE
  5
2EF
100
AcDbEntity
  8
SPKONTUR
100
AcDbLine
 10
10.0
 20
-37.545887
 30
0.0
 11
-54.61539
 21
-37.545887
 31
0.0
  0
LINE
  5
2F0
100
AcDbEntity
  8
SPKONTUR
100
AcDbLine
 10
32.153848
 20
-37.545887
 30
0.0
 11
-76.769238
 21
-37.545887
 31
0.0
  0
LWPOLYLINE
  5
2F1
100
AcDbEntity
  8
FOGNINGB
100
AcDbPolyline
 90
        2
 70
     0
 43
0.738462
 10
32.153848
 20
-37.915118
 10
-76.769238
 20
-37.915118
  0
LINE
  5
2F2
100
AcDbEntity
  8
FOGNINGR
100
AcDbLine
 10
-43.515104
 20
-37.473953
 30
0.0
 11
-42.051642
 21
-26.607216
 31
0.0
  0
LINE
  5
2F3
100
AcDbEntity
  8
FOGNINGR
100
AcDbLine
 10
-44.973048
 20
-24.991966
 30
0.0
 11
-44.973048
 21
-37.451966
 31
0.0
  0
ARC
  5
2F4
100
AcDbEntity
  8
FOGNINGR
100
AcDbCircle
 10
-44.240739
 20
-37.241692
 30
0.0
 40
0.7619
100
AcDbArc
 50
196.020761
 51
342.251185
  0
ARC
  5
2F5
100
AcDbEntity
  8
FOGNINGR
100
AcDbCircle
 10
-41.200929
 20
-26.871744
 30
0.0
 40
0.890891
100
AcDbArc
 50
99.059383
 51
162.726982
  0
LINE
  5
2F6
100
AcDbEntity
  8
FOGNINGR
100
AcDbLine
 10
-4.973458
 20
-37.562003
 30
0.0
 11
-4.973048
 21
-24.991966
 31
0.0
  0
LINE
  5
2F7
100
AcDbEntity
  8
FOGNINGR
100
AcDbLine
 10
-6.387388
 20
-37.471643
 30
0.0
 11
-7.878239
 21
-26.587557
 31
0.0
  0
ARC
  5
2F8
100
AcDbEntity
  8
FOGNINGR
100
AcDbCircle
 10
-5.662537
 20
-37.236948
 30
0.0
 40
0.7619
100
AcDbArc
 50
197.941131
 51
334.745596
  0
LINE
  5
2F9
100
AcDbEntity
  8
FOGNINGR
100
AcDbLine
 10
-40.111243
 20
-25.991966
 30
0.0
 11
-10.111243
 21
-25.991966
 31
0.0
  0
LWPOLYLINE
  5
2FA
100
AcDbEntity
  8
FOGNINGR
100
AcDbPolyline
 90
        2
 70
     0
 43
2.0
 10
-40.111243
 20
-26.991966
 10
-10.111243
 20
-26.991966
  0
LINE
  5
2FB
100
AcDbEntity
  8
FOGNINGR
100
AcDbLine
 10
-40.111243
 20
-27.991966
 30
0.0
 11
-10.111243
 21
-27.991966
 31
0.0
  0
LINE
  5
2FC
100
AcDbEntity
  8
FOGNINGR
100
AcDbLine
 10
-40.111243
 20
-25.991966
 30
0.0
 11
-40.111243
 21
-27.991966
 31
0.0
  0
LINE
  5
2FD
100
AcDbEntity
  8
FOGNINGR
100
AcDbLine
 10
-10.111243
 20
-25.991966
 30
0.0
 11
-10.111243
 21
-27.991966
 31
0.0
  0
ARC
  5
2FE
100
AcDbEntity
  8
FOGNINGR
100
AcDbCircle
 10
-8.780168
 20
-26.946884
 30
0.0
 40
0.970871
100
AcDbArc
 50
21.722212
 51
79.598945
  0
ENDBLK
  5
300
100
AcDbEntity
  8
0
100
AcDbBlockEnd
  0
ENDSEC
  0
SECTION
  2
ENTITIES
  0
INSERT
  5
1E
100
AcDbEntity
  8
0
100
AcDbBlockReference
  2
SIDA
 10
0.0
 20
0.0
 30
0.0
  0
INSERT
  5
31
100
AcDbEntity
  8
0
100
AcDbBlockReference
  2
90_INF-B15
 10
-95.0
 20
235.0
 30
0.0
  0
INSERT
  5
E2
100
AcDbEntity
  8
0
100
AcDbBlockReference
  2
65_INF-B15
 10
-280.0
 20
295.0
 30
0.0
 50
180.0
  0
TEXT
  5
18F
100
AcDbEntity
  8
TEXT
100
AcDbText
 10
-163.366667
 20
223.0
 30
0.0
 40
5.0
  1
%%U90_INF-B15
 41
0.8
  7
ROMANS
 72
     1
 11
-145.0
 21
223.0
 31
0.0
100
AcDbText
  0
INSERT
  5
192
100
AcDbEntity
  8
0
100
AcDbBlockReference
  2
90_INF-B13
 10
-40.0
 20
145.0
 30
0.0
  0
INSERT
  5
201
100
AcDbEntity
  8
0
100
AcDbBlockReference
  2
90_INF-B10
 10
-95.0
 20
295.0
 30
0.0
  0
TEXT
  5
274
100
AcDbEntity
  8
TEXT
100
AcDbText
 10
-158.366667
 20
278.0
 30
0.0
 40
5.0
  1
%%U90_INF-B10
 41
0.8
  7
ROMANS
 72
     1
 11
-140.0
 21
278.0
 31
0.0
100
AcDbText
  0
INSERT
  5
275
100
AcDbEntity
  8
0
100
AcDbBlockReference
  2
90_INF-B12
 10
-175.0
 20
140.0
 30
0.0
  0
INSERT
  5
29F
100
AcDbEntity
  8
0
100
AcDbBlockReference
  2
SNITTMARK
 10
-335.0
 20
100.0
 30
0.0
  0
INSERT
  5
2C2
100
AcDbEntity
  8
GLAS_MED_FOGNING
100
AcDbBlockReference
  2
65_ANSLAG-A3
 10
-295.0
 20
235.0
 30
0.0
  0
TEXT
  5
301
100
AcDbEntity
  8
TEXT
100
AcDbText
 10
-346.652381
 20
218.0
 30
0.0
 40
5.0
  1
%%U65_RUBBER SEAL
 41
0.8
  7
ROMANS
 72
     1
 11
-320.0
 21
218.0
 31
0.0
100
AcDbText
  0
TEXT
  5
302
100
AcDbEntity
  8
TEXT
100
AcDbText
 10
-243.366667
 20
123.0
 30
0.0
 40
5.0
  1
%%U90_INF-B12
 41
0.8
  7
ROMANS
 72
     1
 11
-225.0
 21
123.0
 31
0.0
100
AcDbText
  0
TEXT
  5
303
100
AcDbEntity
  8
TEXT
100
AcDbText
 10
-338.366667
 20
293.0
 30
0.0
 40
5.0
  1
%%U65_INF-B15
 41
0.8
  7
ROMANS
 72
     1
 11
-320.0
 21
293.0
 31
0.0
100
AcDbText
  0
TEXT
  5
304
100
AcDbEntity
  8
TEXT
100
AcDbText
 10
-83.638095
 20
25.0
 30
0.0
 40
5.0
  1
Filnamn %%u9790Fixing
 41
0.8
  7
ROMANS
 72
     2
 11
-25.0
 21
25.0
 31
0.0
100
AcDbText
  0
TEXT
  5
305
100
AcDbEntity
  8
TEXT
100
AcDbText
 10
-48.428571
 20
40.0
 30
0.0
 40
5.0
  1
%%U9790FIX
 41
0.8
  7
ROMANS
 72
     2
 11
-25.0
 21
40.0
 31
0.0
100
AcDbText
  0
TEXT
  5
306
100
AcDbEntity
  8
TEXT
100
AcDbText
 10
-103.366667
 20
133.0
 30
0.0
 40
5.0
  1
%%U90_INF-B13
 41
0.8
  7
ROMANS
 72
     1
 11
-85.0
 21
133.0
 31
0.0
100
AcDbText
  0
INSERT
  5
307
100
AcDbEntity
  8
0
100
AcDbBlockReference
  2
50_INF-B11
 10
-175.0
 20
550.0
 30
0.0
  0
INSERT
  5
3DB
100
AcDbEntity
  8
GLAS_MED_FOGNING
100
AcDbBlockReference
  2
50_INF-B13
 10
-285.0
 20
465.0
 30
0.0
  0
INSERT
  5
441
100
AcDbEntity
  8
0
100
AcDbBlockReference
  2
65_INF-B10
 10
-285.0
 20
385.0
 30
0.0
  0
TEXT
  5
46A
100
AcDbEntity
  8
TEXT
100
AcDbText
 10
-333.366667
 20
373.0
 30
0.0
 40
5.0
  1
%%U65_INF-B10
 41
0.8
  7
ROMANS
 72
     1
 11
-315.0
 21
373.0
 31
0.0
100
AcDbText
  0
INSERT
  5
46B
100
AcDbEntity
  8
0
100
AcDbBlockReference
  2
65_INF-B12
 10
-165.0
 20
380.0
 30
0.0
  0
TEXT
  5
490
100
AcDbEntity
  8
TEXT
100
AcDbText
 10
-218.366667
 20
373.0
 30
0.0
 40
5.0
  1
%%U65_INF-B12
 41
0.8
  7
ROMANS
 72
     1
 11
-200.0
 21
373.0
 31
0.0
100
AcDbText
  0
TEXT
  5
491
100
AcDbEntity
  8
TEXT
100
AcDbText
 10
-328.366667
 20
458.0
 30
0.0
 40
5.0
  1
%%U50_INF-B13
 41
0.8
  7
ROMANS
 72
     1
 11
-310.0
 21
458.0
 31
0.0
100
AcDbText
  0
INSERT
  5
492
100
AcDbEntity
  8
0
100
AcDbBlockReference
  2
50_INF-B14
 10
-170.0
 20
475.0
 30
0.0
  0
TEXT
  5
4BE
100
AcDbEntity
  8
TEXT
100
AcDbText
 10
-218.795238
 20
453.0
 30
0.0
 40
5.0
  1
%%U50_ANSLAG-Vkr
 41
0.8
  7
ROMANS
 72
     1
 11
-195.0
 21
453.0
 31
0.0
100
AcDbText
  0
INSERT
  5
4BF
100
AcDbEntity
  8
GLAS_MED_FOGNING
100
AcDbBlockReference
  2
50_INF-B10
 10
-295.0
 20
550.0
 30
0.0
  0
TEXT
  5
52B
100
AcDbEntity
  8
TEXT
100
AcDbText
 10
-338.366667
 20
533.0
 30
0.0
 40
5.0
  1
%%U50_INF-B10
 41
0.8
  7
ROMANS
 72
     1
 11
-320.0
 21
533.0
 31
0.0
100
AcDbText
  0
TEXT
  5
52C
100
AcDbEntity
  8
TEXT
100
AcDbText
 10
-218.352381
 20
538.0
 30
0.0
 40
5.0
  1
%%U50_INF-B11
 41
0.8
  7
ROMANS
 72
     1
 11
-200.0
 21
538.0
 31
0.0
100
AcDbText
  0
INSERT
  5
52D
100
AcDbEntity
  8
0
100
AcDbBlockReference
  2
65_INF-B13
 10
-40.0
 20
385.0
 30
0.0
  0
TEXT
  5
59D
100
AcDbEntity
  8
TEXT
100
AcDbText
 10
-93.366667
 20
373.0
 30
0.0
 40
5.0
  1
%%U65_INF-B13
 41
0.8
  7
ROMANS
 72
     1
 11
-75.0
 21
373.0
 31
0.0
100
AcDbText
  0
TEXT
  5
59E
100
AcDbEntity
  8
TEXT
100
AcDbText
 10
-106.652381
 20
453.0
 30
0.0
 40
5.0
  1
%%U50_RUBBER SEAL
 41
0.8
  7
ROMANS
 72
     1
 11
-80.0
 21
453.0
 31
0.0
100
AcDbText
  0
INSERT
  5
59F
100
AcDbEntity
  8
GLAS_MED_FOGNING
100
AcDbBlockReference
  2
SLAPLIST
 10
-50.0
 20
465.0
 30
0.0
  0
INSERT
  5
5C9
100
AcDbEntity
  8
0
100
AcDbBlockReference
  2
50_INF-B12
 10
-50.0
 20
545.0
 30
0.0
  0
TEXT
  5
5EC
100
AcDbEntity
  8
TEXT
100
AcDbText
 10
-98.366667
 20
538.0
 30
0.0
 40
5.0
  1
%%U50_INF-B12
 41
0.8
  7
ROMANS
 72
     1
 11
-80.0
 21
538.0
 31
0.0
100
AcDbText
  0
ENDSEC
  0
SECTION
  2
OBJECTS
  0
DICTIONARY
  5
1A
100
AcDbDictionary
  3
ACAD_GROUP
350
18
  3
ACAD_LAYOUT
350
5F6
  3
ACAD_MLINESTYLE
350
19
  3
ACAD_PLOTSETTINGS
350
5F7
  3
ACAD_PLOTSTYLENAME
350
5F4
  3
ACDBHEADERROUNDTRIPXREC
350
600
  0
DICTIONARY
  5
5FE
100
AcDbDictionary
280
     1
  3
ACAD_XREC_ROUNDTRIP
360
5FF
  0
DICTIONARY
  5
620
100
AcDbDictionary
280
     1
  3
ACAD_LAYOUTSELFREF
360
621
  0
DICTIONARY
  5
622
100
AcDbDictionary
280
     1
  3
ACAD_LAYOUTSELFREF
360
623
  0
DICTIONARY
  5
18
102
{ACAD_REACTORS
330
1A
102
}
100
AcDbDictionary
  0
DICTIONARY
  5
5F6
102
{ACAD_XDICTIONARY
360
624
102
}
102
{ACAD_REACTORS
330
1A
102
}
100
AcDbDictionary
  3
LAYOUT1
350
5F9
  3
MODEL
350
5F8
  0
DICTIONARY
  5
19
102
{ACAD_REACTORS
330
1A
102
}
100
AcDbDictionary
  3
STANDARD
350
1C
  0
DICTIONARY
  5
5F7
102
{ACAD_REACTORS
330
1A
102
}
100
AcDbDictionary
  0
ACAD_PROXY_OBJECT
  5
5F4
102
{ACAD_REACTORS
330
1A
102
}
100
AcDbProxyObject
 90
      499
 91
      501
 93
       86
310
405010041939BDC9B585B1
350
5F5
340
5F5
 94
        0
  0
DICTIONARY
  5
600
102
{ACAD_REACTORS
330
1A
102
}
100
AcDbDictionary
  3
CEPSNTYPE
350
60A
  3
FINGERPRINTGUID
350
60B
  3
HYPERLINKBASE
350
603
  3
INSUNITS
350
609
  3
LAYOUTDICT
350
605
  3
LWETCUNION
350
608
  3
PLOTSETDICT
350
606
  3
PLOTSTYLNAMDICT
350
607
  3
PSVPSCALE
350
60D
  3
PUCSBASE
350
610
  3
PUCSORGBACK
350
616
  3
PUCSORGBOTTOM
350
612
  3
PUCSORGFRONT
350
615
  3
PUCSORGLEFT
350
613
  3
PUCSORGRIGHT
350
614
  3
PUCSORGTOP
350
611
  3
PUCSORTHOREF
350
60E
  3
PUCSORTHOVIEW
350
60F
  3
STYLESHEET
350
604
  3
TSTACKALIGN
350
601
  3
TSTACKSIZE
350
602
  3
UCSBASE
350
619
  3
UCSORGBACK
350
61F
  3
UCSORGBOTTOM
350
61B
  3
UCSORGFRONT
350
61E
  3
UCSORGLEFT
350
61C
  3
UCSORGRIGHT
350
61D
  3
UCSORGTOP
350
61A
  3
UCSORTHOREF
350
617
  3
UCSORTHOVIEW
350
618
  3
VERSIONGUID
350
60C
  0
XRECORD
  5
5FF
102
{ACAD_REACTORS
330
5FE
102
}
100
AcDbXrecord
102
EXTNAMES
  1
*ACTIVE
  2
*Active
102
UCS
 74
     0
 71
     1
 10
0.0
 20
0.0
 30
0.0
 10
1.0
 20
0.0
 30
0.0
 10
0.0
 20
1.0
 30
0.0
146
0.0
 79
     0
102
VIEW
281
     0
  0
XRECORD
  5
621
102
{ACAD_REACTORS
330
620
102
}
100
AcDbXrecord
340
2
  0
XRECORD
  5
623
102
{ACAD_REACTORS
330
622
102
}
100
AcDbXrecord
340
7
  0
DICTIONARY
  5
624
100
AcDbDictionary
280
     1
  3
ACAD_XREC_ROUNDTRIP
360
625
  0
ACAD_PROXY_OBJECT
  5
5F9
102
{ACAD_REACTORS
330
5F6
102
}
100
AcDbProxyObject
 90
      499
 91
      503
 93
     1092
310
91D4850204C617365724A65742034562F344D5620506F73745363726970742C00AAAAAA416AA591069074C61796F75743140501A800000000000000000000000000000000000000000101E900000000000241C902A6A6A10232D5E076BC5510408CB5781DAF154410232D5E076BC5510408CB5781DAF15C410232D5E076BC5
310
710408CB5781DAF15C40
330
7
330
0
340
0
340
0
 94
        0
  0
ACAD_PROXY_OBJECT
  5
5F8
102
{ACAD_REACTORS
330
5F6
102
}
100
AcDbProxyObject
 90
      499
 91
      503
 93
      668
310
91D4850204C617365724A65742034562F344D5620506F73745363726970742C01AAAAAAAAA5A69054D6F64656C901A800000000000000000000000000000000000000000000A1000000000000008902A6A6AAAA0
330
2
330
0
340
0
340
0
 94
        0
  0
MLINESTYLE
  5
1C
102
{ACAD_REACTORS
330
19
102
}
100
AcDbMlineStyle
  2
STANDARD
 70
     0
  3

 62
     0
 51
90.0
 52
90.0
 71
     2
 49
0.5
 62
   256
  6
BYLAYER
 49
-0.5
 62
   256
  6
BYLAYER
  0
ACAD_PROXY_OBJECT
  5
5F5
102
{ACAD_REACTORS
330
5F4
102
}
100
AcDbProxyObject
 90
      499
 91
      502
 93
        0
 94
        0
  0
XRECORD
  5
60A
102
{ACAD_REACTORS
330
600
102
}
100
AcDbXrecord
 90
        0
  0
XRECORD
  5
60B
102
{ACAD_REACTORS
330
600
102
}
100
AcDbXrecord
  1
{DCFA0B50-0BE8-11D6-AA0B-00D0B7E2A69D}
  0
XRECORD
  5
603
102
{ACAD_REACTORS
330
600
102
}
100
AcDbXrecord
  1

  0
XRECORD
  5
609
102
{ACAD_REACTORS
330
600
102
}
100
AcDbXrecord
 90
        0
  0
XRECORD
  5
605
102
{ACAD_REACTORS
330
600
102
}
100
AcDbXrecord
340
5F6
  0
XRECORD
  5
608
102
{ACAD_REACTORS
330
600
102
}
100
AcDbXrecord
 90
    14877
  0
XRECORD
  5
606
102
{ACAD_REACTORS
330
600
102
}
100
AcDbXrecord
340
5F7
  0
XRECORD
  5
607
102
{ACAD_REACTORS
330
600
102
}
100
AcDbXrecord
340
5F4
  0
XRECORD
  5
60D
102
{ACAD_REACTORS
330
600
102
}
100
AcDbXrecord
 40
0.0
  0
XRECORD
  5
610
102
{ACAD_REACTORS
330
600
102
}
100
AcDbXrecord
340
0
  0
XRECORD
  5
616
102
{ACAD_REACTORS
330
600
102
}
100
AcDbXrecord
 10
0.0
 20
0.0
 30
0.0
  0
XRECORD
  5
612
102
{ACAD_REACTORS
330
600
102
}
100
AcDbXrecord
 10
0.0
 20
0.0
 30
0.0
  0
XRECORD
  5
615
102
{ACAD_REACTORS
330
600
102
}
100
AcDbXrecord
 10
0.0
 20
0.0
 30
0.0
  0
XRECORD
  5
613
102
{ACAD_REACTORS
330
600
102
}
100
AcDbXrecord
 10
0.0
 20
0.0
 30
0.0
  0
XRECORD
  5
614
102
{ACAD_REACTORS
330
600
102
}
100
AcDbXrecord
 10
0.0
 20
0.0
 30
0.0
  0
XRECORD
  5
611
102
{ACAD_REACTORS
330
600
102
}
100
AcDbXrecord
 10
0.0
 20
0.0
 30
0.0
  0
XRECORD
  5
60E
102
{ACAD_REACTORS
330
600
102
}
100
AcDbXrecord
340
0
  0
XRECORD
  5
60F
102
{ACAD_REACTORS
330
600
102
}
100
AcDbXrecord
 70
     0
  0
XRECORD
  5
604
102
{ACAD_REACTORS
330
600
102
}
100
AcDbXrecord
  1

  0
XRECORD
  5
601
102
{ACAD_REACTORS
330
600
102
}
100
AcDbXrecord
 90
        1
  0
XRECORD
  5
602
102
{ACAD_REACTORS
330
600
102
}
100
AcDbXrecord
 90
       70
  0
XRECORD
  5
619
102
{ACAD_REACTORS
330
600
102
}
100
AcDbXrecord
340
0
  0
XRECORD
  5
61F
102
{ACAD_REACTORS
330
600
102
}
100
AcDbXrecord
 10
0.0
 20
0.0
 30
0.0
  0
XRECORD
  5
61B
102
{ACAD_REACTORS
330
600
102
}
100
AcDbXrecord
 10
0.0
 20
0.0
 30
0.0
  0
XRECORD
  5
61E
102
{ACAD_REACTORS
330
600
102
}
100
AcDbXrecord
 10
0.0
 20
0.0
 30
0.0
  0
XRECORD
  5
61C
102
{ACAD_REACTORS
330
600
102
}
100
AcDbXrecord
 10
0.0
 20
0.0
 30
0.0
  0
XRECORD
  5
61D
102
{ACAD_REACTORS
330
600
102
}
100
AcDbXrecord
 10
0.0
 20
0.0
 30
0.0
  0
XRECORD
  5
61A
102
{ACAD_REACTORS
330
600
102
}
100
AcDbXrecord
 10
0.0
 20
0.0
 30
0.0
  0
XRECORD
  5
617
102
{ACAD_REACTORS
330
600
102
}
100
AcDbXrecord
340
0
  0
XRECORD
  5
618
102
{ACAD_REACTORS
330
600
102
}
100
AcDbXrecord
 70
     0
  0
XRECORD
  5
60C
102
{ACAD_REACTORS
330
600
102
}
100
AcDbXrecord
  1
{DCFA0B52-0BE8-11D6-AA0B-00D0B7E2A69D}
  0
XRECORD
  5
625
102
{ACAD_REACTORS
330
624
102
}
100
AcDbXrecord
102
EXTNAMES
  1
LAYOUT1
  2
Layout1
  1
MODEL
  2
Model
  0
ENDSEC
  0
EOF
